  0
SECTION
  2
HEADER
  9
$ACADVER
  1
AC1015
  9
$ACADMAINTVER
 70
     6
  9
$DWGCODEPAGE
  3
ANSI_1252
  9
$INSBASE
 10
0.0
 20
0.0
 30
0.0
  9
$EXTMIN
 10
-9.353129418855218
 20
-0.0898463128951477
 30
-0.0000000349181948
  9
$EXTMAX
 10
8.566948551068592
 20
12.69458238049731
 30
0.0000000814935746
  9
$LIMMIN
 10
0.0
 20
0.0
  9
$LIMMAX
 10
42.0
 20
32.0
  9
$ORTHOMODE
 70
     1
  9
$REGENMODE
 70
     1
  9
$FILLMODE
 70
     1
  9
$QTEXTMODE
 70
     0
  9
$MIRRTEXT
 70
     1
  9
$LTSCALE
 40
0.75
  9
$ATTMODE
 70
     1
  9
$TEXTSIZE
 40
0.27
  9
$TRACEWID
 40
0.05
  9
$TEXTSTYLE
  7
STANDARD
  9
$CLAYER
  8
0
  9
$CELTYPE
  6
BYLAYER
  9
$CECOLOR
 62
   256
  9
$CELTSCALE
 40
1.0
  9
$DISPSILH
 70
     0
  9
$DIMSCALE
 40
1.0
  9
$DIMASZ
 40
0.375
  9
$DIMEXO
 40
0.0625
  9
$DIMDLI
 40
1.25
  9
$DIMRND
 40
0.0
  9
$DIMDLE
 40
0.0
  9
$DIMEXE
 40
0.18
  9
$DIMTP
 40
0.0
  9
$DIMTM
 40
0.0
  9
$DIMTXT
 40
0.27
  9
$DIMCEN
 40
-0.06
  9
$DIMTSZ
 40
0.0
  9
$DIMTOL
 70
     0
  9
$DIMLIM
 70
     0
  9
$DIMTIH
 70
     1
  9
$DIMTOH
 70
     1
  9
$DIMSE1
 70
     0
  9
$DIMSE2
 70
     0
  9
$DIMTAD
 70
     0
  9
$DIMZIN
 70
     0
  9
$DIMBLK
  1

  9
$DIMASO
 70
     0
  9
$DIMSHO
 70
     0
  9
$DIMPOST
  1

  9
$DIMAPOST
  1

  9
$DIMALT
 70
     0
  9
$DIMALTD
 70
     2
  9
$DIMALTF
 40
25.4
  9
$DIMLFAC
 40
1.0
  9
$DIMTOFL
 70
     0
  9
$DIMTVP
 40
0.0
  9
$DIMTIX
 70
     0
  9
$DIMSOXD
 70
     0
  9
$DIMSAH
 70
     0
  9
$DIMBLK1
  1

  9
$DIMBLK2
  1

  9
$DIMSTYLE
  2
STANDARD
  9
$DIMCLRD
 70
     0
  9
$DIMCLRE
 70
     0
  9
$DIMCLRT
 70
     0
  9
$DIMTFAC
 40
1.0
  9
$DIMGAP
 40
0.09
  9
$DIMJUST
 70
     0
  9
$DIMSD1
 70
     0
  9
$DIMSD2
 70
     0
  9
$DIMTOLJ
 70
     1
  9
$DIMTZIN
 70
     0
  9
$DIMALTZ
 70
     0
  9
$DIMALTTZ
 70
     0
  9
$DIMUPT
 70
     0
  9
$DIMDEC
 70
     5
  9
$DIMTDEC
 70
     5
  9
$DIMALTU
 70
     5
  9
$DIMALTTD
 70
     2
  9
$DIMTXSTY
  7
STANDARD
  9
$DIMAUNIT
 70
     0
  9
$DIMADEC
 70
     0
  9
$DIMALTRND
 40
0.0
  9
$DIMAZIN
 70
     0
  9
$DIMDSEP
 70
    46
  9
$DIMATFIT
 70
     3
  9
$DIMFRAC
 70
     0
  9
$DIMLDRBLK
  1

  9
$DIMLUNIT
 70
     5
  9
$DIMLWD
 70
    -2
  9
$DIMLWE
 70
    -2
  9
$DIMTMOVE
 70
     2
  9
$LUNITS
 70
     5
  9
$LUPREC
 70
     5
  9
$SKETCHINC
 40
0.1
  9
$FILLETRAD
 40
0.0
  9
$AUNITS
 70
     0
  9
$AUPREC
 70
     0
  9
$MENU
  1
ACAD
  9
$ELEVATION
 40
0.0
  9
$PELEVATION
 40
0.0
  9
$THICKNESS
 40
0.0
  9
$LIMCHECK
 70
     0
  9
$CHAMFERA
 40
0.0
  9
$CHAMFERB
 40
0.0
  9
$CHAMFERC
 40
0.0
  9
$CHAMFERD
 40
0.0
  9
$SKPOLY
 70
     0
  9
$TDCREATE
 40
2448923.794960417
  9
$TDUCREATE
 40
2448924.12829375
  9
$TDUPDATE
 40
2453836.837810231
  9
$TDUUPDATE
 40
2453837.171143565
  9
$TDINDWG
 40
0.1283471528
  9
$TDUSRTIMER
 40
0.1283471528
  9
$USRTIMER
 70
     1
  9
$ANGBASE
 50
0.0
  9
$ANGDIR
 70
     0
  9
$PDMODE
 70
     0
  9
$PDSIZE
 40
0.0
  9
$PLINEWID
 40
0.0
  9
$SPLFRAME
 70
     0
  9
$SPLINETYPE
 70
     6
  9
$SPLINESEGS
 70
     8
  9
$HANDSEED
  5
143
  9
$SURFTAB1
 70
     6
  9
$SURFTAB2
 70
     6
  9
$SURFTYPE
 70
     6
  9
$SURFU
 70
     6
  9
$SURFV
 70
     6
  9
$UCSBASE
  2

  9
$UCSNAME
  2

  9
$UCSORG
 10
0.0
 20
0.0
 30
0.0
  9
$UCSXDIR
 10
1.0
 20
0.0
 30
0.0
  9
$UCSYDIR
 10
0.0
 20
1.0
 30
0.0
  9
$UCSORTHOREF
  2

  9
$UCSORTHOVIEW
 70
     0
  9
$UCSORGTOP
 10
0.0
 20
0.0
 30
0.0
  9
$UCSORGBOTTOM
 10
0.0
 20
0.0
 30
0.0
  9
$UCSORGLEFT
 10
0.0
 20
0.0
 30
0.0
  9
$UCSORGRIGHT
 10
0.0
 20
0.0
 30
0.0
  9
$UCSORGFRONT
 10
0.0
 20
0.0
 30
0.0
  9
$UCSORGBACK
 10
0.0
 20
0.0
 30
0.0
  9
$PUCSBASE
  2

  9
$PUCSNAME
  2

  9
$PUCSORG
 10
0.0
 20
0.0
 30
0.0
  9
$PUCSXDIR
 10
1.0
 20
0.0
 30
0.0
  9
$PUCSYDIR
 10
0.0
 20
1.0
 30
0.0
  9
$PUCSORTHOREF
  2

  9
$PUCSORTHOVIEW
 70
     0
  9
$PUCSORGTOP
 10
0.0
 20
0.0
 30
0.0
  9
$PUCSORGBOTTOM
 10
0.0
 20
0.0
 30
0.0
  9
$PUCSORGLEFT
 10
0.0
 20
0.0
 30
0.0
  9
$PUCSORGRIGHT
 10
0.0
 20
0.0
 30
0.0
  9
$PUCSORGFRONT
 10
0.0
 20
0.0
 30
0.0
  9
$PUCSORGBACK
 10
0.0
 20
0.0
 30
0.0
  9
$USERI1
 70
     0
  9
$USERI2
 70
     0
  9
$USERI3
 70
     0
  9
$USERI4
 70
     0
  9
$USERI5
 70
     0
  9
$USERR1
 40
0.0
  9
$USERR2
 40
0.0
  9
$USERR3
 40
0.0
  9
$USERR4
 40
0.0
  9
$USERR5
 40
0.0
  9
$WORLDVIEW
 70
     1
  9
$SHADEDGE
 70
     3
  9
$SHADEDIF
 70
    70
  9
$TILEMODE
 70
     1
  9
$MAXACTVP
 70
    16
  9
$PINSBASE
 10
0.0
 20
0.0
 30
0.0
  9
$PLIMCHECK
 70
     0
  9
$PEXTMIN
 10
1.000000000000000E+20
 20
1.000000000000000E+20
 30
1.000000000000000E+20
  9
$PEXTMAX
 10
-1.000000000000000E+20
 20
-1.000000000000000E+20
 30
-1.000000000000000E+20
  9
$PLIMMIN
 10
0.0
 20
0.0
  9
$PLIMMAX
 10
12.0
 20
9.0
  9
$UNITMODE
 70
     0
  9
$VISRETAIN
 70
     0
  9
$PLINEGEN
 70
     0
  9
$PSLTSCALE
 70
     0
  9
$TREEDEPTH
 70
  3020
  9
$CMLSTYLE
  2
STANDARD
  9
$CMLJUST
 70
     0
  9
$CMLSCALE
 40
1.0
  9
$PROXYGRAPHICS
 70
     1
  9
$MEASUREMENT
 70
     0
  9
$CELWEIGHT
370
    -1
  9
$ENDCAPS
280
     0
  9
$JOINSTYLE
280
     0
  9
$LWDISPLAY
290
     0
  9
$INSUNITS
 70
     0
  9
$HYPERLINKBASE
  1

  9
$STYLESHEET
  1

  9
$XEDIT
290
     1
  9
$CEPSNTYPE
380
     0
  9
$PSTYLEMODE
290
     1
  9
$FINGERPRINTGUID
  2
{A568510B-C481-11D5-BE3F-00508B5FCD51}
  9
$VERSIONGUID
  2
{4AE4C0C2-59E7-4098-A7B3-1C979B2D85F8}
  9
$EXTNAMES
290
     1
  9
$PSVPSCALE
 40
0.0
  9
$OLESTARTUP
290
     0
  0
ENDSEC
  0
SECTION
  2
CLASSES
  0
CLASS
  1
DICTIONARYVAR
  2
AcDbDictionaryVar
  3
AutoCAD 2000
 90
        0
280
     0
281
     0
  0
CLASS
  1
LWPOLYLINE
  2
AcDbPolyline
  3
AutoCAD 2000
 90
        0
280
     0
281
     1
  0
CLASS
  1
ACDBDICTIONARYWDFLT
  2
AcDbDictionaryWithDefault
  3
AutoCAD 2000
 90
        0
280
     0
281
     0
  0
CLASS
  1
ACDBPLACEHOLDER
  2
AcDbPlaceHolder
  3
ObjectDBX Classes
 90
        0
280
     0
281
     0
  0
CLASS
  1
LAYOUT
  2
AcDbLayout
  3
ObjectDBX Classes
 90
        0
280
     0
281
     0
  0
CLASS
  1
LONG_TRANSACTION
  2
AcDbLongTransaction
  3
AutoCAD 2000
 90
   -65536
280
     1
281
     0
  0
CLASS
  1
LWPOLYLINE
  2
AcDbPolyline
  3
AutoCAD 2000
 90
        0
280
     0
281
     1
  0
CLASS
  1
HATCH
  2
AcDbHatch
  3
AutoCAD 2000
 90
        0
280
     0
281
     1
  0
CLASS
  1
XRECORD
  2
AcDbXrecord
  3
AutoCAD 2000
 90
        0
280
     0
281
     0
  0
CLASS
  1
LONG_TRANSACTION
  2
AcDbLongTransaction
  3
AutoCAD 2000
 90
   -65536
280
     1
281
     0
  0
CLASS
  1
LWPOLYLINE
  2
AcDbPolyline
  3
AutoCAD 2000
 90
        0
280
     0
281
     1
  0
CLASS
  1
HATCH
  2
AcDbHatch
  3
AutoCAD 2000
 90
        0
280
     0
281
     1
  0
CLASS
  1
XRECORD
  2
AcDbXrecord
  3
AutoCAD 2000
 90
        0
280
     0
281
     0
  0
CLASS
  1
LONG_TRANSACTION
  2
AcDbLongTransaction
  3
AutoCAD 2000
 90
   -65536
280
     1
281
     0
  0
CLASS
  1
LWPOLYLINE
  2
AcDbPolyline
  3
AutoCAD 2000
 90
        0
280
     0
281
     1
  0
CLASS
  1
HATCH
  2
AcDbHatch
  3
AutoCAD 2000
 90
        0
280
     0
281
     1
  0
CLASS
  1
XRECORD
  2
AcDbXrecord
  3
AutoCAD 2000
 90
        0
280
     0
281
     0
  0
CLASS
  1
LONG_TRANSACTION
  2
AcDbLongTransaction
  3
AutoCAD 2000
 90
   -65536
280
     1
281
     0
  0
CLASS
  1
LWPOLYLINE
  2
AcDbPolyline
  3
AutoCAD 2000
 90
        0
280
     0
281
     1
  0
CLASS
  1
HATCH
  2
AcDbHatch
  3
AutoCAD 2000
 90
        0
280
     0
281
     1
  0
CLASS
  1
XRECORD
  2
AcDbXrecord
  3
AutoCAD 2000
 90
        0
280
     0
281
     0
  0
CLASS
  1
LONG_TRANSACTION
  2
AcDbLongTransaction
  3
AutoCAD 2000
 90
   -65536
280
     1
281
     0
  0
CLASS
  1
LWPOLYLINE
  2
AcDbPolyline
  3
AutoCAD 2000
 90
        0
280
     0
281
     1
  0
CLASS
  1
HATCH
  2
AcDbHatch
  3
AutoCAD 2000
 90
        0
280
     0
281
     1
  0
CLASS
  1
XRECORD
  2
AcDbXrecord
  3
AutoCAD 2000
 90
        0
280
     0
281
     0
  0
CLASS
  1
LONG_TRANSACTION
  2
AcDbLongTransaction
  3
AutoCAD 2000
 90
   -65536
280
     1
281
     0
  0
CLASS
  1
LWPOLYLINE
  2
AcDbPolyline
  3
AutoCAD 2000
 90
        0
280
     0
281
     1
  0
CLASS
  1
HATCH
  2
AcDbHatch
  3
AutoCAD 2000
 90
        0
280
     0
281
     1
  0
CLASS
  1
XRECORD
  2
AcDbXrecord
  3
AutoCAD 2000
 90
        0
280
     0
281
     0
  0
CLASS
  1
LONG_TRANSACTION
  2
AcDbLongTransaction
  3
AutoCAD 2000
 90
   -65536
280
     1
281
     0
  0
CLASS
  1
LWPOLYLINE
  2
AcDbPolyline
  3
AutoCAD 2000
 90
        0
280
     0
281
     1
  0
CLASS
  1
HATCH
  2
AcDbHatch
  3
AutoCAD 2000
 90
        0
280
     0
281
     1
  0
CLASS
  1
XRECORD
  2
AcDbXrecord
  3
AutoCAD 2000
 90
        0
280
     0
281
     0
  0
CLASS
  1
LONG_TRANSACTION
  2
AcDbLongTransaction
  3
AutoCAD 2000
 90
   -65536
280
     1
281
     0
  0
CLASS
  1
LWPOLYLINE
  2
AcDbPolyline
  3
AutoCAD 2000
 90
        0
280
     0
281
     1
  0
CLASS
  1
HATCH
  2
AcDbHatch
  3
AutoCAD 2000
 90
        0
280
     0
281
     1
  0
CLASS
  1
XRECORD
  2
AcDbXrecord
  3
AutoCAD 2000
 90
        0
280
     0
281
     0
  0
CLASS
  1
LONG_TRANSACTION
  2
AcDbLongTransaction
  3
AutoCAD 2000
 90
   -65536
280
     1
281
     0
  0
CLASS
  1
LWPOLYLINE
  2
AcDbPolyline
  3
AutoCAD 2000
 90
        0
280
     0
281
     1
  0
CLASS
  1
HATCH
  2
AcDbHatch
  3
AutoCAD 2000
 90
        0
280
     0
281
     1
  0
CLASS
  1
XRECORD
  2
AcDbXrecord
  3
AutoCAD 2000
 90
        0
280
     0
281
     0
  0
CLASS
  1
LONG_TRANSACTION
  2
AcDbLongTransaction
  3
AutoCAD 2000
 90
   -65536
280
     1
281
     0
  0
CLASS
  1
LWPOLYLINE
  2
AcDbPolyline
  3
AutoCAD 2000
 90
        0
280
     0
281
     1
  0
CLASS
  1
HATCH
  2
AcDbHatch
  3
AutoCAD 2000
 90
        0
280
     0
281
     1
  0
CLASS
  1
XRECORD
  2
AcDbXrecord
  3
AutoCAD 2000
 90
        0
280
     0
281
     0
  0
CLASS
  1
LONG_TRANSACTION
  2
AcDbLongTransaction
  3
AutoCAD 2000
 90
   -65536
280
     1
281
     0
  0
CLASS
  1
LWPOLYLINE
  2
AcDbPolyline
  3
AutoCAD 2000
 90
        0
280
     0
281
     1
  0
CLASS
  1
HATCH
  2
AcDbHatch
  3
AutoCAD 2000
 90
        0
280
     0
281
     1
  0
CLASS
  1
XRECORD
  2
AcDbXrecord
  3
AutoCAD 2000
 90
        0
280
     0
281
     0
  0
CLASS
  1
LONG_TRANSACTION
  2
AcDbLongTransaction
  3
AutoCAD 2000
 90
   -65536
280
     1
281
     0
  0
CLASS
  1
LWPOLYLINE
  2
AcDbPolyline
  3
AutoCAD 2000
 90
        0
280
     0
281
     1
  0
CLASS
  1
HATCH
  2
AcDbHatch
  3
AutoCAD 2000
 90
        0
280
     0
281
     1
  0
CLASS
  1
XRECORD
  2
AcDbXrecord
  3
AutoCAD 2000
 90
        0
280
     0
281
     0
  0
ENDSEC
  0
SECTION
  2
TABLES
  0
TABLE
  2
VPORT
  5
1D
330
0
100
AcDbSymbolTable
 70
     5
  0
VPORT
  5
138
330
1D
100
AcDbSymbolTableRecord
100
AcDbViewportTableRecord
  2
*Active
 70
     0
 10
0.0
 20
0.0
 11
1.0
 21
1.0
 12
12.84135209064379
 22
13.53005458576821
 13
0.0
 23
0.0
 14
0.0625
 24
0.0625
 15
0.5
 25
0.5
 16
0.0
 26
0.0
 36
1.0
 17
0.0
 27
0.0
 37
0.0
 40
32.45798991264869
 41
1.639846743295019
 42
50.0
 43
0.0
 44
0.0
 50
0.0
 51
0.0
 71
     0
 72
   100
 73
     1
 74
     1
 75
     0
 76
     0
 77
     0
 78
     0
281
     0
 65
     1
110
0.0
120
0.0
130
0.0
111
1.0
121
0.0
131
0.0
112
0.0
122
1.0
132
0.0
 79
     0
146
0.0
  0
ENDTAB
  0
TABLE
  2
LTYPE
  5
18
330
0
100
AcDbSymbolTable
 70
     2
  0
LTYPE
  5
19
330
18
100
AcDbSymbolTableRecord
100
AcDbLinetypeTableRecord
  2
BYBLOCK
 70
     0
  3

 72
    65
 73
     0
 40
0.0
  0
LTYPE
  5
1A
330
18
100
AcDbSymbolTableRecord
100
AcDbLinetypeTableRecord
  2
BYLAYER
 70
     0
  3

 72
    65
 73
     0
 40
0.0
  0
LTYPE
  5
A
330
18
100
AcDbSymbolTableRecord
100
AcDbLinetypeTableRecord
  2
CONTINUOUS
 70
     0
  3
Solid line
 72
    65
 73
     0
 40
0.0
  0
LTYPE
  5
2F
330
18
100
AcDbSymbolTableRecord
100
AcDbLinetypeTableRecord
  2
HIDDEN
 70
     0
  3
_ _ _ _ _ _ _ _ _ _ _ _ _ _ _ _ _ _ _ _ _ _ _
 72
    65
 73
     2
 40
0.375
 49
0.25
 74
     0
 49
-0.125
 74
     0
  0
ENDTAB
  0
TABLE
  2
LAYER
  5
14
330
0
100
AcDbSymbolTable
 70
     1
  0
LAYER
  5
6
330
14
100
AcDbSymbolTableRecord
100
AcDbLayerTableRecord
  2
0
 70
     0
 62
     7
  6
CONTINUOUS
370
    -3
390
7
  0
ENDTAB
  0
TABLE
  2
STYLE
  5
15
330
0
100
AcDbSymbolTable
 70
     1
  0
STYLE
  5
16
330
15
100
AcDbSymbolTableRecord
100
AcDbTextStyleTableRecord
  2
STANDARD
 70
     0
 40
0.0
 41
1.0
 50
0.0
 71
     0
 42
0.27
  3
txt
  4

  0
ENDTAB
  0
TABLE
  2
VIEW
  5
1B
330
0
100
AcDbSymbolTable
 70
     0
  0
ENDTAB
  0
TABLE
  2
UCS
  5
1C
330
0
100
AcDbSymbolTable
 70
     0
  0
ENDTAB
  0
TABLE
  2
APPID
  5
1F
330
0
100
AcDbSymbolTable
 70
     1
  0
APPID
  5
20
330
1F
100
AcDbSymbolTableRecord
100
AcDbRegAppTableRecord
  2
ACAD
 70
     0
  0
ENDTAB
  0
TABLE
  2
DIMSTYLE
  5
21
330
0
100
AcDbSymbolTable
 70
     1
100
AcDbDimStyleTable
  0
DIMSTYLE
105
28
330
21
100
AcDbSymbolTableRecord
100
AcDbDimStyleTableRecord
  2
STANDARD
 70
     0
  3

  4

340
16
  0
ENDTAB
  0
TABLE
  2
BLOCK_RECORD
  5
1
330
0
100
AcDbSymbolTable
 70
     0
  0
BLOCK_RECORD
  5
2
330
1
100
AcDbSymbolTableRecord
100
AcDbBlockTableRecord
  2
*MODEL_SPACE
340
C
  0
BLOCK_RECORD
  5
E
330
1
100
AcDbSymbolTableRecord
100
AcDbBlockTableRecord
  2
*PAPER_SPACE
340
13
  0
ENDTAB
  0
ENDSEC
  0
SECTION
  2
BLOCKS
  0
BLOCK
  5
5
330
2
100
AcDbEntity
  8
0
100
AcDbBlockBegin
  2
*MODEL_SPACE
 70
     0
 10
0.0
 20
0.0
 30
0.0
  3
*MODEL_SPACE
  1

  4

  0
ENDBLK
  5
B
330
2
100
AcDbEntity
  8
0
100
AcDbBlockEnd
  0
BLOCK
  5
11
330
E
100
AcDbEntity
 67
     1
  8
0
100
AcDbBlockBegin
  2
*PAPER_SPACE
 70
     0
 10
0.0
 20
0.0
 30
0.0
  3
*PAPER_SPACE
  1

  4

  0
ENDBLK
  5
12
330
E
100
AcDbEntity
 67
     1
  8
0
100
AcDbBlockEnd
  0
ENDSEC
  0
SECTION
  2
ENTITIES
  0
ARC
  5
5B
330
2
100
AcDbEntity
  8
0
100
AcDbCircle
 10
2.444000000000003
 20
5.0625
 30
0.0
 40
0.1875
100
AcDbArc
 50
0.0000000000000254
 51
90.00000000000003
  0
ARC
  5
5C
330
2
100
AcDbEntity
  8
0
100
AcDbCircle
 10
-2.991999999999999
 20
5.0625
 30
0.0
 40
0.1875
100
AcDbArc
 50
90.0
 51
180.0
  0
LINE
  5
5D
330
2
100
AcDbEntity
  8
0
100
AcDbLine
 10
-2.055
 20
0.8125
 30
0.0
 11
-2.055
 21
6.75
 31
0.0
  0
LINE
  5
5E
330
2
100
AcDbEntity
  8
0
100
AcDbLine
 10
-2.1175
 20
0.8125
 30
0.0
 11
-2.1175
 21
6.75
 31
0.0
  0
LINE
  5
5F
330
2
100
AcDbEntity
  8
0
100
AcDbLine
 10
1.5075
 20
0.8125
 30
0.0
 11
1.5075
 21
6.75
 31
0.0
  0
LINE
  5
60
330
2
100
AcDbEntity
  8
0
100
AcDbLine
 10
1.57
 20
0.8125
 30
0.0
 11
1.57
 21
6.75
 31
0.0
  0
LINE
  5
63
330
2
100
AcDbEntity
  8
0
100
AcDbLine
 10
-2.055
 20
0.0620000000000012
 30
0.0
 11
-2.055
 21
0.8125
 31
0.0
  0
LINE
  5
64
330
2
100
AcDbEntity
  8
0
100
AcDbLine
 10
-2.1175
 20
0.0625
 30
0.0
 11
-2.1175
 21
0.8125
 31
0.0
  0
LINE
  5
65
330
2
100
AcDbEntity
  8
0
100
AcDbLine
 10
1.57
 20
0.0625
 30
0.0
 11
1.57
 21
0.8125
 31
0.0
  0
LINE
  5
66
330
2
100
AcDbEntity
  8
0
100
AcDbLine
 10
1.5075
 20
0.0620000000000012
 30
0.0
 11
1.5075
 21
0.8125
 31
0.0
  0
LINE
  5
67
330
2
100
AcDbEntity
  8
0
100
AcDbLine
 10
-0.4299999999999997
 20
0.0
 30
0.0
 11
0.0
 21
0.0
 31
0.0
  0
LINE
  5
68
330
2
100
AcDbEntity
  8
0
100
AcDbLine
 10
-1.9925
 20
-0.0625
 30
0.0
 11
1.445
 21
-0.0625
 31
0.0
  0
LINE
  5
69
330
2
100
AcDbEntity
  8
0
100
AcDbLine
 10
-1.992999999999999
 20
0.0
 30
0.0
 11
1.445
 21
0.0
 31
0.0
  0
ARC
  5
6A
330
2
100
AcDbEntity
  8
0
100
AcDbCircle
 10
-1.992999999999999
 20
0.0620000000000012
 30
0.0
 40
0.062
100
AcDbArc
 50
180.0
 51
270.0
  0
ARC
  5
6B
330
2
100
AcDbEntity
  8
0
100
AcDbCircle
 10
-1.9925
 20
0.0625
 30
0.0
 40
0.125
100
AcDbArc
 50
180.0
 51
270.0
  0
ARC
  5
6C
330
2
100
AcDbEntity
  8
0
100
AcDbCircle
 10
1.445
 20
0.0625
 30
0.0
 40
0.125
100
AcDbArc
 50
270.0
 51
0.0
  0
ARC
  5
6D
330
2
100
AcDbEntity
  8
0
100
AcDbCircle
 10
1.445500000000003
 20
0.0620000000000012
 30
0.0
 40
0.062
100
AcDbArc
 50
270.0
 51
0.0
  0
LINE
  5
6E
330
2
100
AcDbEntity
  8
0
100
AcDbLine
 10
-3.179499999999999
 20
2.4375
 30
0.0
 11
-3.179499999999999
 21
3.0625
 31
0.0
  0
CIRCLE
  5
6F
330
2
100
AcDbEntity
  8
0
100
AcDbCircle
 10
-2.8675
 20
2.593800000000002
 30
0.0
 40
0.0855
  0
ARC
  5
71
330
2
100
AcDbEntity
  8
0
100
AcDbCircle
 10
-2.1175
 20
2.5
 30
0.0
 40
0.156
100
AcDbArc
 50
90.0
 51
270.0
  0
LINE
  5
72
330
2
100
AcDbEntity
  8
0
100
AcDbLine
 10
-2.1175
 20
0.5624000000000002
 30
0.0
 11
-3.154047148656211
 21
2.343176240467251
 31
0.0
  0
ARC
  5
73
330
2
100
AcDbEntity
  8
0
100
AcDbCircle
 10
-2.991999999999999
 20
2.4375
 30
0.0
 40
0.1875
100
AcDbArc
 50
180.0
 51
210.2026586833964
  0
LWPOLYLINE
  5
75
330
2
100
AcDbEntity
  8
0
100
AcDbPolyline
 90
        9
 70
     0
 43
0.0
 10
-2.163500000000006
 20
1.530239969296044
 42
0.031262465828346
 10
-2.18479011366928
 20
1.523149582950754
 42
0.0975534324105893
 10
-2.24145852262582
 20
1.486145259582901
 42
0.0993905513083445
 10
-2.279527058421891
 20
1.430464201183991
 42
0.1007297757250654
 10
-2.292803823869164
 20
1.36523
 42
0.100729775725069
 10
-2.279527058421891
 20
1.29999579881601
 42
0.0993905513083442
 10
-2.24145852262582
 20
1.244314740417099
 42
0.0975534324105872
 10
-2.18479011366928
 20
1.207310417049246
 42
0.0312624658283472
 10
-2.163500000000006
 20
1.200220030703964
 42
0.0962929789913506
  0
LWPOLYLINE
  5
76
330
2
100
AcDbEntity
  8
0
100
AcDbPolyline
 90
        9
 70
     0
 43
0.0
 10
-2.163500000000006
 20
1.483592907707038
 42
0.0153261494161413
 10
-2.172975809788127
 20
1.480481710069288
 42
0.0930716558460877
 10
-2.218458522625816
 20
1.45361834764832
 42
0.1028033143861014
 10
-2.24972202811167
 20
1.412218996109861
 42
0.1109302324921724
 10
-2.260276911934582
 20
1.36523
 42
0.1109302324921716
 10
-2.24972202811167
 20
1.318241003890147
 42
0.1028033143861016
 10
-2.218458522625816
 20
1.276841652351681
 42
0.09307165584609
 10
-2.172975809788127
 20
1.249978289930713
 42
0.0153261494161413
 10
-2.163500000000006
 20
1.246867092292963
 42
0.0871927587990183
  0
ARC
  5
77
330
2
100
AcDbEntity
  8
0
100
AcDbCircle
 10
-2.169488878756845
 20
1.148576089879949
 30
0.0
 40
0.0519900307039585
100
AcDbArc
 50
359.6185877246039
 51
83.38525270417914
  0
POINT
  5
78
330
2
100
AcDbEntity
  8
0
100
AcDbPoint
 10
-2.1175
 20
1.115230000000004
 30
0.0
  0
ARC
  5
79
330
2
100
AcDbEntity
  8
0
100
AcDbCircle
 10
-2.170136839002005
 20
1.148453534568073
 30
0.0
 40
0.0986370922929614
100
AcDbArc
 50
57.74817661148475
 51
86.14191405494711
  0
ARC
  5
7A
330
2
100
AcDbEntity
  8
0
100
AcDbCircle
 10
-2.170136839002005
 20
1.582006465431935
 30
0.0
 40
0.0986370922929614
100
AcDbArc
 50
273.8580859450529
 51
302.2518233885157
  0
ARC
  5
7B
330
2
100
AcDbEntity
  8
0
100
AcDbCircle
 10
-2.169488878756845
 20
1.581883910120059
 30
0.0
 40
0.0519900307039585
100
AcDbArc
 50
276.6147472958209
 51
0.3814122753966671
  0
LINE
  5
7C
330
2
100
AcDbEntity
  8
0
100
AcDbLine
 10
-2.8675
 20
4.067699999999999
 30
0.0
 11
-2.8675
 21
3.432300000000002
 31
0.0
  0
ARC
  5
7D
330
2
100
AcDbEntity
  8
0
100
AcDbCircle
 10
-2.991999999999999
 20
3.0625
 30
0.0
 40
0.1875
100
AcDbArc
 50
90.0
 51
180.0
  0
ARC
  5
7E
330
2
100
AcDbEntity
  8
0
100
AcDbCircle
 10
-3.055
 20
3.432300000000002
 30
0.0
 40
0.1875
100
AcDbArc
 50
289.6333588975685
 51
0.0
  0
LINE
  5
7F
330
2
100
AcDbEntity
  8
0
100
AcDbLine
 10
-3.179500000000001
 20
4.4375
 30
0.0
 11
-3.179500000000001
 21
5.0625
 31
0.0
  0
ARC
  5
80
330
2
100
AcDbEntity
  8
0
100
AcDbCircle
 10
-3.055
 20
4.067699999999999
 30
0.0
 40
0.1875
100
AcDbArc
 50
0.0
 51
90.0
  0
ARC
  5
81
330
2
100
AcDbEntity
  8
0
100
AcDbCircle
 10
-2.991999999999999
 20
4.4375
 30
0.0
 40
0.1875
100
AcDbArc
 50
180.0
 51
250.3666411024103
  0
CIRCLE
  5
82
330
2
100
AcDbEntity
  8
0
100
AcDbCircle
 10
-2.8675
 20
4.4375
 30
0.0
 40
0.0855
  0
LWPOLYLINE
  5
83
330
2
100
AcDbEntity
  8
0
100
AcDbPolyline
 90
        9
 70
     0
 43
0.0
 10
-2.163500000000008
 20
4.000389969296052
 42
0.031262465828346
 10
-2.184790113669282
 20
3.993299582950762
 42
0.0975534324105893
 10
-2.241458522625822
 20
3.956295259582909
 42
0.0993905513083445
 10
-2.279527058421893
 20
3.900614201183998
 42
0.1007297757250654
 10
-2.292803823869166
 20
3.835380000000008
 42
0.100729775725069
 10
-2.279527058421893
 20
3.770145798816017
 42
0.0993905513083442
 10
-2.241458522625822
 20
3.714464740417107
 42
0.0975534324105872
 10
-2.184790113669282
 20
3.677460417049254
 42
0.0312624658283472
 10
-2.163500000000008
 20
3.670370030703971
 42
0.0962929789913506
  0
LWPOLYLINE
  5
84
330
2
100
AcDbEntity
  8
0
100
AcDbPolyline
 90
        9
 70
     0
 43
0.0
 10
-2.163500000000008
 20
3.953742907707046
 42
0.0153261494161413
 10
-2.172975809788129
 20
3.950631710069295
 42
0.0930716558460877
 10
-2.218458522625818
 20
3.923768347648327
 42
0.1028033143861014
 10
-2.249722028111671
 20
3.882368996109868
 42
0.1109302324921724
 10
-2.260276911934584
 20
3.835380000000008
 42
0.1109302324921716
 10
-2.249722028111671
 20
3.788391003890155
 42
0.1028033143861016
 10
-2.218458522625818
 20
3.746991652351689
 42
0.09307165584609
 10
-2.172975809788129
 20
3.72012828993072
 42
0.0153261494161413
 10
-2.163500000000008
 20
3.71701709229297
 42
0.0871927587990183
  0
ARC
  5
85
330
2
100
AcDbEntity
  8
0
100
AcDbCircle
 10
-2.169488878756846
 20
3.618726089879957
 30
0.0
 40
0.0519900307039585
100
AcDbArc
 50
359.6185877246039
 51
83.38525270417914
  0
POINT
  5
86
330
2
100
AcDbEntity
  8
0
100
AcDbPoint
 10
-2.117500000000002
 20
3.585380000000011
 30
0.0
  0
ARC
  5
87
330
2
100
AcDbEntity
  8
0
100
AcDbCircle
 10
-2.170136839002007
 20
3.618603534568081
 30
0.0
 40
0.0986370922929614
100
AcDbArc
 50
57.74817661148475
 51
86.14191405494711
  0
ARC
  5
88
330
2
100
AcDbEntity
  8
0
100
AcDbCircle
 10
-2.170136839002007
 20
4.052156465431942
 30
0.0
 40
0.0986370922929614
100
AcDbArc
 50
273.8580859450529
 51
302.2518233885157
  0
ARC
  5
89
330
2
100
AcDbEntity
  8
0
100
AcDbCircle
 10
-2.169488878756846
 20
4.052033910120066
 30
0.0
 40
0.0519900307039585
100
AcDbArc
 50
276.6147472958209
 51
0.3814122753966671
  0
CIRCLE
  5
8B
330
2
100
AcDbEntity
  8
0
100
AcDbCircle
 10
2.319500000000001
 20
2.593800000000002
 30
0.0
 40
0.0855
  0
LINE
  5
8C
330
2
100
AcDbEntity
  8
0
100
AcDbLine
 10
2.631500000000003
 20
2.4375
 30
0.0
 11
2.631500000000003
 21
3.0625
 31
0.0
  0
ARC
  5
8D
330
2
100
AcDbEntity
  8
0
100
AcDbCircle
 10
1.57
 20
2.5
 30
0.0
 40
0.156
100
AcDbArc
 50
270.0
 51
90.0
  0
LINE
  5
8E
330
2
100
AcDbEntity
  8
0
100
AcDbLine
 10
1.569500000000001
 20
0.5624000000000002
 30
0.0
 11
2.606047148656213
 21
2.343176240467251
 31
0.0
  0
LINE
  5
8F
330
2
100
AcDbEntity
  8
0
100
AcDbLine
 10
1.57
 20
1.664927300392492
 30
0.0
 11
1.57
 21
0.875
 31
0.0
  0
LWPOLYLINE
  5
90
330
2
100
AcDbEntity
  8
0
100
AcDbPolyline
 90
        9
 70
     0
 43
0.0
 10
1.616000000000007
 20
1.932759362676435
 42
-0.0153261494161413
 10
1.625475809788128
 20
1.929648165038685
 42
-0.0930716558460877
 10
1.670958522625817
 20
1.902784802617717
 42
-0.1028033143861014
 10
1.70222202811167
 20
1.861385451079258
 42
-0.1109302324921724
 10
1.712776911934583
 20
1.814396454969398
 42
-0.1109302324921716
 10
1.70222202811167
 20
1.767407458859545
 42
-0.1028033143861016
 10
1.670958522625817
 20
1.726008107321079
 42
-0.09307165584609
 10
1.625475809788128
 20
1.69914474490011
 42
-0.0153261494161413
 10
1.616000000000007
 20
1.69603354726236
 42
-0.0871927587990183
  0
ARC
  5
91
330
2
100
AcDbEntity
  8
0
100
AcDbCircle
 10
1.622636839002006
 20
1.597619989537471
 30
0.0
 40
0.0986370922929614
100
AcDbArc
 50
93.85808594505291
 51
122.2518233885153
  0
ARC
  5
92
330
2
100
AcDbEntity
  8
0
100
AcDbCircle
 10
1.622636839002006
 20
2.031172920401332
 30
0.0
 40
0.0986370922929614
100
AcDbArc
 50
237.7481766114843
 51
266.1419140549471
  0
ARC
  5
93
330
2
100
AcDbEntity
  8
0
100
AcDbCircle
 10
1.621988878756845
 20
2.031050365089456
 30
0.0
 40
0.0519900307039585
100
AcDbArc
 50
179.6185877246033
 51
263.3852527041792
  0
POINT
  5
94
330
2
100
AcDbEntity
  8
0
100
AcDbPoint
 10
1.57
 20
1.564396454969401
 30
0.0
  0
ARC
  5
95
330
2
100
AcDbEntity
  8
0
100
AcDbCircle
 10
1.621988878756845
 20
1.597742544849346
 30
0.0
 40
0.0519900307039585
100
AcDbArc
 50
96.61474729582088
 51
180.3814122753961
  0
LWPOLYLINE
  5
96
330
2
100
AcDbEntity
  8
0
100
AcDbPolyline
 90
        9
 70
     0
 43
0.0
 10
1.616000000000007
 20
1.979406424265441
 42
-0.031262465828346
 10
1.63729011366928
 20
1.972316037920152
 42
-0.0975534324105893
 10
1.69395852262582
 20
1.935311714552299
 42
-0.0993905513083445
 10
1.732027058421892
 20
1.879630656153388
 42
-0.1007297757250654
 10
1.745303823869165
 20
1.814396454969398
 42
-0.100729775725069
 10
1.732027058421892
 20
1.749162253785407
 42
-0.0993905513083442
 10
1.69395852262582
 20
1.693481195386497
 42
-0.0975534324105872
 10
1.63729011366928
 20
1.656476872018644
 42
-0.0312624658283472
 10
1.616000000000007
 20
1.649386485673361
 42
-0.0962929789913506
  0
ARC
  5
98
330
2
100
AcDbEntity
  8
0
100
AcDbCircle
 10
2.444000000000003
 20
2.4375
 30
0.0
 40
0.1875
100
AcDbArc
 50
329.7973413166037
 51
0.0000000000000254
  0
ARC
  5
99
330
2
100
AcDbEntity
  8
0
100
AcDbCircle
 10
1.621988878756845
 20
3.285242544849346
 30
0.0
 40
0.0519900307039585
100
AcDbArc
 50
96.61474729582088
 51
180.3814122753961
  0
LWPOLYLINE
  5
9A
330
2
100
AcDbEntity
  8
0
100
AcDbPolyline
 90
        9
 70
     0
 43
0.0
 10
1.616000000000007
 20
3.666906424265441
 42
-0.031262465828346
 10
1.63729011366928
 20
3.659816037920152
 42
-0.0975534324105893
 10
1.69395852262582
 20
3.622811714552299
 42
-0.0993905513083445
 10
1.732027058421892
 20
3.567130656153388
 42
-0.1007297757250654
 10
1.745303823869165
 20
3.501896454969398
 42
-0.100729775725069
 10
1.732027058421892
 20
3.436662253785407
 42
-0.0993905513083442
 10
1.69395852262582
 20
3.380981195386497
 42
-0.0975534324105872
 10
1.63729011366928
 20
3.343976872018644
 42
-0.0312624658283472
 10
1.616000000000007
 20
3.336886485673361
 42
-0.0962929789913506
  0
POINT
  5
9B
330
2
100
AcDbEntity
  8
0
100
AcDbPoint
 10
1.57
 20
3.251896454969401
 30
0.0
  0
LWPOLYLINE
  5
9C
330
2
100
AcDbEntity
  8
0
100
AcDbPolyline
 90
        9
 70
     0
 43
0.0
 10
1.616000000000007
 20
3.620259362676435
 42
-0.0153261494161413
 10
1.625475809788128
 20
3.617148165038685
 42
-0.0930716558460877
 10
1.670958522625817
 20
3.590284802617717
 42
-0.1028033143861014
 10
1.70222202811167
 20
3.548885451079258
 42
-0.1109302324921724
 10
1.712776911934583
 20
3.501896454969398
 42
-0.1109302324921716
 10
1.70222202811167
 20
3.454907458859545
 42
-0.1028033143861016
 10
1.670958522625817
 20
3.413508107321079
 42
-0.09307165584609
 10
1.625475809788128
 20
3.38664474490011
 42
-0.0153261494161413
 10
1.616000000000007
 20
3.38353354726236
 42
-0.0871927587990183
  0
ARC
  5
9D
330
2
100
AcDbEntity
  8
0
100
AcDbCircle
 10
1.622636839002006
 20
3.285119989537471
 30
0.0
 40
0.0986370922929614
100
AcDbArc
 50
93.85808594505291
 51
122.2518233885153
  0
ARC
  5
9E
330
2
100
AcDbEntity
  8
0
100
AcDbCircle
 10
1.622636839002006
 20
3.718672920401332
 30
0.0
 40
0.0986370922929614
100
AcDbArc
 50
237.7481766114843
 51
266.1419140549471
  0
ARC
  5
9F
330
2
100
AcDbEntity
  8
0
100
AcDbCircle
 10
1.621988878756845
 20
3.718550365089456
 30
0.0
 40
0.0519900307039585
100
AcDbArc
 50
179.6185877246033
 51
263.3852527041792
  0
LINE
  5
A0
330
2
100
AcDbEntity
  8
0
100
AcDbLine
 10
2.319500000000001
 20
4.067699999999999
 30
0.0
 11
2.319500000000001
 21
3.432300000000002
 31
0.0
  0
ARC
  5
A1
330
2
100
AcDbEntity
  8
0
100
AcDbCircle
 10
2.507000000000001
 20
3.432300000000002
 30
0.0
 40
0.1875
100
AcDbArc
 50
180.0000000000001
 51
250.3666411024315
  0
ARC
  5
A2
330
2
100
AcDbEntity
  8
0
100
AcDbCircle
 10
2.444000000000003
 20
3.0625
 30
0.0
 40
0.1875
100
AcDbArc
 50
0.0000000000000254
 51
90.00000000000003
  0
LINE
  5
A3
330
2
100
AcDbEntity
  8
0
100
AcDbLine
 10
2.631500000000003
 20
4.4375
 30
0.0
 11
2.631500000000003
 21
5.0625
 31
0.0
  0
ARC
  5
A4
330
2
100
AcDbEntity
  8
0
100
AcDbCircle
 10
2.444000000000003
 20
4.4375
 30
0.0
 40
0.1875
100
AcDbArc
 50
289.6333588975897
 51
0.0000000000000254
  0
CIRCLE
  5
A7
330
2
100
AcDbEntity
  8
0
100
AcDbCircle
 10
2.319500000000001
 20
4.4375
 30
0.0
 40
0.0855
  0
ARC
  5
A8
330
2
100
AcDbEntity
  8
0
100
AcDbCircle
 10
2.507000000000001
 20
4.067699999999999
 30
0.0
 40
0.1875
100
AcDbArc
 50
90.00000000000003
 51
180.0000000000001
  0
LINE
  5
CC
330
2
100
AcDbEntity
  8
0
100
AcDbLine
 10
-2.055
 20
6.75
 30
0.0
 11
-3.18
 21
6.75
 31
0.0
  0
LINE
  5
CD
330
2
100
AcDbEntity
  8
0
100
AcDbLine
 10
-2.585089999999999
 20
6.125
 30
0.0
 11
-2.397589999999999
 21
6.125
 31
0.0
  0
LINE
  5
CE
330
2
100
AcDbEntity
  8
0
100
AcDbLine
 10
-2.491339999999999
 20
5.25
 30
0.0
 11
-2.397589999999999
 21
5.375
 31
0.0
  0
LINE
  5
CF
330
2
100
AcDbEntity
  8
0
100
AcDbLine
 10
-2.491339999999999
 20
5.625
 30
0.0
 11
-2.397589999999999
 21
5.75
 31
0.0
  0
ARC
  5
D0
330
2
100
AcDbEntity
  8
0
100
AcDbCircle
 10
-2.991999999999999
 20
6.4375
 30
0.0
 40
0.1875
100
AcDbArc
 50
180.0
 51
250.3666411024103
  0
CIRCLE
  5
D1
330
2
100
AcDbEntity
  8
0
100
AcDbCircle
 10
-2.8675
 20
6.4375
 30
0.0
 40
0.0855
  0
LINE
  5
D3
330
2
100
AcDbEntity
  8
0
100
AcDbLine
 10
-2.8675
 20
5.432299788214706
 30
0.0
 11
-2.8675
 21
6.067699999999999
 31
0.0
  0
LINE
  5
D4
330
2
100
AcDbEntity
  8
0
100
AcDbLine
 10
-2.585089999999999
 20
5.375
 30
0.0
 11
-2.585089999999999
 21
6.125
 31
0.0
  0
ARC
  5
D5
330
2
100
AcDbEntity
  8
0
100
AcDbCircle
 10
-3.055
 20
5.432300000000002
 30
0.0
 40
0.1875
100
AcDbArc
 50
289.6333588975685
 51
0.0
  0
LINE
  5
D6
330
2
100
AcDbEntity
  8
0
100
AcDbLine
 10
-2.491339999999999
 20
5.25
 30
0.0
 11
-2.585089999999999
 21
5.375
 31
0.0
  0
LINE
  5
D7
330
2
100
AcDbEntity
  8
0
100
AcDbLine
 10
-2.491339999999999
 20
5.625
 30
0.0
 11
-2.585089999999999
 21
5.75
 31
0.0
  0
ARC
  5
D8
330
2
100
AcDbEntity
  8
0
100
AcDbCircle
 10
-3.055
 20
6.067699999999999
 30
0.0
 40
0.1875
100
AcDbArc
 50
0.0
 51
90.0
  0
LINE
  5
D9
330
2
100
AcDbEntity
  8
0
100
AcDbLine
 10
-3.179500000000001
 20
6.4375
 30
0.0
 11
-3.179500000000001
 21
6.75
 31
0.0
  0
LINE
  5
DB
330
2
100
AcDbEntity
  8
0
100
AcDbLine
 10
-2.397589999999999
 20
6.125
 30
0.0
 11
-2.397589999999999
 21
5.375
 31
0.0
  0
LINE
  5
DC
330
2
100
AcDbEntity
  8
0
100
AcDbLine
 10
-2.1175
 20
5.754999999999999
 30
0.0
 11
-2.1175
 21
5.658999999999999
 31
0.0
  0
LINE
  5
DD
330
2
100
AcDbEntity
  8
0
100
AcDbLine
 10
-2.1175
 20
5.995000000000001
 30
0.0
 11
-2.1175
 21
6.091000000000001
 31
0.0
  0
LINE
  5
DE
330
2
100
AcDbEntity
  8
0
100
AcDbLine
 10
-2.1175
 20
5.815000000000001
 30
0.0
 11
-2.1175
 21
5.934999999999999
 31
0.0
  0
LINE
  5
DF
330
2
100
AcDbEntity
  8
0
100
AcDbLine
 10
1.5075
 20
6.75
 30
0.0
 11
2.6325
 21
6.75
 31
0.0
  0
LINE
  5
E0
330
2
100
AcDbEntity
  8
0
100
AcDbLine
 10
2.037589999999998
 20
5.375
 30
0.0
 11
2.037589999999998
 21
6.125
 31
0.0
  0
LINE
  5
E1
330
2
100
AcDbEntity
  8
0
100
AcDbLine
 10
1.850090000000002
 20
6.125
 30
0.0
 11
1.850090000000002
 21
5.375
 31
0.0
  0
LINE
  5
E2
330
2
100
AcDbEntity
  8
0
100
AcDbLine
 10
1.943840000000002
 20
5.625
 30
0.0
 11
1.850090000000002
 21
5.75
 31
0.0
  0
LINE
  5
E3
330
2
100
AcDbEntity
  8
0
100
AcDbLine
 10
1.943840000000002
 20
5.625
 30
0.0
 11
2.037589999999998
 21
5.75
 31
0.0
  0
LINE
  5
E4
330
2
100
AcDbEntity
  8
0
100
AcDbLine
 10
1.943840000000002
 20
5.25
 30
0.0
 11
2.037589999999998
 21
5.375
 31
0.0
  0
LINE
  5
E5
330
2
100
AcDbEntity
  8
0
100
AcDbLine
 10
1.943840000000002
 20
5.25
 30
0.0
 11
1.850090000000002
 21
5.375
 31
0.0
  0
LINE
  5
E6
330
2
100
AcDbEntity
  8
0
100
AcDbLine
 10
2.037589999999998
 20
6.125
 30
0.0
 11
1.850090000000002
 21
6.125
 31
0.0
  0
CIRCLE
  5
E8
330
2
100
AcDbEntity
  8
0
100
AcDbCircle
 10
2.319500000000001
 20
6.4375
 30
0.0
 40
0.0855
  0
ARC
  5
E9
330
2
100
AcDbEntity
  8
0
100
AcDbCircle
 10
2.444000000000003
 20
6.4375
 30
0.0
 40
0.1875
100
AcDbArc
 50
289.6333588975897
 51
0.0000000000000254
  0
LINE
  5
EA
330
2
100
AcDbEntity
  8
0
100
AcDbLine
 10
2.319500000000001
 20
5.432299788214706
 30
0.0
 11
2.319500000000001
 21
6.067699999999999
 31
0.0
  0
ARC
  5
EB
330
2
100
AcDbEntity
  8
0
100
AcDbCircle
 10
2.507000000000001
 20
5.432300000000002
 30
0.0
 40
0.1875
100
AcDbArc
 50
180.0000000000001
 51
250.3666411024315
  0
ARC
  5
EC
330
2
100
AcDbEntity
  8
0
100
AcDbCircle
 10
2.507000000000001
 20
6.067699999999999
 30
0.0
 40
0.1875
100
AcDbArc
 50
90.00000000000003
 51
180.0000000000001
  0
LINE
  5
EE
330
2
100
AcDbEntity
  8
0
100
AcDbLine
 10
2.631500000000003
 20
6.4375
 30
0.0
 11
2.631500000000003
 21
6.75
 31
0.0
  0
ENDSEC
  0
SECTION
  2
OBJECTS
  0
DICTIONARY
  5
9
330
0
100
AcDbDictionary
281
     1
  3
ACAD_COLOR
350
13B
  3
ACAD_GROUP
350
23
  3
ACAD_LAYOUT
350
D
  3
ACAD_MATERIAL
350
13D
  3
ACAD_MLINESTYLE
350
24
  3
ACAD_PLOTSETTINGS
350
25
  3
ACAD_PLOTSTYLENAME
350
8
  3
ACDBHEADERROUNDTRIPXREC
350
13A
  3
AcDbVariableDictionary
350
125
  0
DICTIONARY
  5
13B
102
{ACAD_REACTORS
330
9
102
}
330
9
100
AcDbDictionary
281
     1
  0
DICTIONARY
  5
23
102
{ACAD_REACTORS
330
9
102
}
330
9
100
AcDbDictionary
281
     1
  0
DICTIONARY
  5
D
102
{ACAD_REACTORS
330
9
102
}
330
9
100
AcDbDictionary
281
     1
  3
Layout1
350
13
  3
Model
350
C
  0
DICTIONARY
  5
13D
102
{ACAD_REACTORS
330
9
102
}
330
9
100
AcDbDictionary
281
     1
  0
DICTIONARY
  5
24
102
{ACAD_REACTORS
330
9
102
}
330
9
100
AcDbDictionary
281
     1
  3
STANDARD
350
27
  0
DICTIONARY
  5
25
102
{ACAD_REACTORS
330
9
102
}
330
9
100
AcDbDictionary
281
     1
  0
ACDBDICTIONARYWDFLT
  5
8
102
{ACAD_REACTORS
330
9
102
}
330
9
100
AcDbDictionary
281
     1
  3
Normal
350
7
100
AcDbDictionaryWithDefault
340
7
  0
DICTIONARY
  5
13A
102
{ACAD_REACTORS
330
9
102
}
330
9
100
AcDbDictionary
281
     1
  3
COLORDICT
350
13C
  3
MATERIALDICT
350
13E
  0
DICTIONARY
  5
125
102
{ACAD_REACTORS
330
9
102
}
330
9
100
AcDbDictionary
281
     1
  3
HIDETEXT
350
139
  0
LAYOUT
  5
13
102
{ACAD_REACTORS
330
D
102
}
102
{ACAD_XDICTIONARY
360
13F
102
}
330
D
100
AcDbPlotSettings
  1

  2
HP LaserJet 2100 Series PS
  4

  6

 40
0.0
 41
0.0
 42
0.0
 43
0.0
 44
0.0
 45
0.0
 46
0.0
 47
0.0
 48
0.0
 49
0.0
140
0.0
141
0.0
142
1.0
143
1.0
 70
   688
 72
     0
 73
     0
 74
     5
  7

 75
    16
147
1.0
148
0.0
149
0.0
100
AcDbLayout
  1
Layout1
 70
     0
 71
     1
 10
0.0
 20
0.0
 11
12.0
 21
9.0
 12
0.0
 22
0.0
 32
0.0
 14
1.000000000000000E+20
 24
1.000000000000000E+20
 34
1.000000000000000E+20
 15
-1.000000000000000E+20
 25
-1.000000000000000E+20
 35
-1.000000000000000E+20
146
0.0
 13
0.0
 23
0.0
 33
0.0
 16
1.0
 26
0.0
 36
0.0
 17
0.0
 27
1.0
 37
0.0
 76
     0
330
E
  0
LAYOUT
  5
C
102
{ACAD_REACTORS
330
D
102
}
102
{ACAD_XDICTIONARY
360
141
102
}
330
D
100
AcDbPlotSettings
  1

  2
HP LaserJet 2100 Series PS
  4
Letter
  6

 40
5.365749835968018
 41
5.408084392547607
 42
5.4080810546875
 43
5.365753173828125
 44
215.8999938964844
 45
279.3999938964844
 46
0.0
 47
0.0
 48
0.0
 49
0.0
140
0.0
141
0.0
142
1.0
143
1.0
 70
 11952
 72
     0
 73
     1
 74
     0
  7

 75
     0
147
1.0
148
-340.8931971865673
149
28.76728543324822
100
AcDbLayout
  1
Model
 70
     1
 71
     0
 10
0.0
 20
0.0
 11
12.0
 21
9.0
 12
0.0
 22
0.0
 32
0.0
 14
0.0
 24
0.0
 34
0.0
 15
0.0
 25
0.0
 35
0.0
146
0.0
 13
0.0
 23
0.0
 33
0.0
 16
1.0
 26
0.0
 36
0.0
 17
0.0
 27
1.0
 37
0.0
 76
     0
330
2
  0
MLINESTYLE
  5
27
102
{ACAD_REACTORS
330
24
102
}
330
24
100
AcDbMlineStyle
  2
STANDARD
 70
     0
  3

 62
   256
 51
90.0
 52
90.0
 71
     2
 49
0.5
 62
   256
  6
BYLAYER
 49
-0.5
 62
   256
  6
BYLAYER
  0
ACDBPLACEHOLDER
  5
7
102
{ACAD_REACTORS
330
8
102
}
330
8
  0
XRECORD
  5
13C
102
{ACAD_REACTORS
330
13A
102
}
330
13A
100
AcDbXrecord
340
13B
  0
XRECORD
  5
13E
102
{ACAD_REACTORS
330
13A
102
}
330
13A
100
AcDbXrecord
340
13D
  0
DICTIONARYVAR
  5
139
102
{ACAD_REACTORS
330
125
102
}
330
125
100
DictionaryVariables
280
     0
  1
0
  0
DICTIONARY
  5
13F
330
13
100
AcDbDictionary
280
     1
281
     1
  3
ACAD_XREC_ROUNDTRIP
360
140
  0
DICTIONARY
  5
141
330
C
100
AcDbDictionary
280
     1
281
     1
  3
ACAD_XREC_ROUNDTRIP
360
142
  0
XRECORD
  5
140
102
{ACAD_REACTORS
330
13F
102
}
330
13F
100
AcDbXrecord
102
SHADEPLOT
 70
     0
102
SHADEPLOTRESLEVEL
 70
     2
102
SHADEPLOTCUSTOMDPI
 70
   300
  0
XRECORD
  5
142
102
{ACAD_REACTORS
330
141
102
}
330
141
100
AcDbXrecord
102
SHADEPLOT
 70
     0
102
SHADEPLOTRESLEVEL
 70
     2
102
SHADEPLOTCUSTOMDPI
 70
   300
  0
ENDSEC
  0
EOF
