  0
SECTION
  2
HEADER
  9
$ACADVER
  1
AC1015
  9
$ACADMAINTVER
 70
    20
  9
$DWGCODEPAGE
  3
ANSI_1252
  9
$INSBASE
 10
0.0
 20
0.0
 30
0.0
  9
$EXTMIN
 10
-13.99220337098705
 20
-0.0534335495461303
 30
0.0
  9
$EXTMAX
 10
13.99220337098702
 20
24.77696631262537
 30
0.0
  9
$LIMMIN
 10
0.0
 20
0.0
  9
$LIMMAX
 10
40.0
 20
52.5
  9
$ORTHOMODE
 70
     1
  9
$REGENMODE
 70
     1
  9
$FILLMODE
 70
     1
  9
$QTEXTMODE
 70
     0
  9
$MIRRTEXT
 70
     0
  9
$LTSCALE
 40
1.0
  9
$ATTMODE
 70
     1
  9
$TEXTSIZE
 40
0.45
  9
$TRACEWID
 40
0.05
  9
$TEXTSTYLE
  7
STANDARD
  9
$CLAYER
  8
0
  9
$CELTYPE
  6
ByLayer
  9
$CECOLOR
 62
   256
  9
$CELTSCALE
 40
1.0
  9
$DISPSILH
 70
     0
  9
$DIMSCALE
 40
5.0
  9
$DIMASZ
 40
0.125
  9
$DIMEXO
 40
0.062
  9
$DIMDLI
 40
0.375
  9
$DIMRND
 40
0.0
  9
$DIMDLE
 40
0.0
  9
$DIMEXE
 40
0.08
  9
$DIMTP
 40
0.0
  9
$DIMTM
 40
0.0
  9
$DIMTXT
 40
0.09
  9
$DIMCEN
 40
-0.03125
  9
$DIMTSZ
 40
0.0
  9
$DIMTOL
 70
     0
  9
$DIMLIM
 70
     0
  9
$DIMTIH
 70
     1
  9
$DIMTOH
 70
     1
  9
$DIMSE1
 70
     0
  9
$DIMSE2
 70
     0
  9
$DIMTAD
 70
     0
  9
$DIMZIN
 70
     0
  9
$DIMBLK
  1

  9
$DIMASO
 70
     0
  9
$DIMSHO
 70
     0
  9
$DIMPOST
  1

  9
$DIMAPOST
  1

  9
$DIMALT
 70
     0
  9
$DIMALTD
 70
     2
  9
$DIMALTF
 40
25.4
  9
$DIMLFAC
 40
1.0
  9
$DIMTOFL
 70
     0
  9
$DIMTVP
 40
0.0
  9
$DIMTIX
 70
     0
  9
$DIMSOXD
 70
     0
  9
$DIMSAH
 70
     0
  9
$DIMBLK1
  1

  9
$DIMBLK2
  1

  9
$DIMSTYLE
  2
Standard
  9
$DIMCLRD
 70
     0
  9
$DIMCLRE
 70
     0
  9
$DIMCLRT
 70
     0
  9
$DIMTFAC
 40
1.0
  9
$DIMGAP
 40
0.09
  9
$DIMJUST
 70
     0
  9
$DIMSD1
 70
     0
  9
$DIMSD2
 70
     0
  9
$DIMTOLJ
 70
     1
  9
$DIMTZIN
 70
     0
  9
$DIMALTZ
 70
     0
  9
$DIMALTTZ
 70
     0
  9
$DIMUPT
 70
     0
  9
$DIMDEC
 70
     5
  9
$DIMTDEC
 70
     5
  9
$DIMALTU
 70
     2
  9
$DIMALTTD
 70
     2
  9
$DIMTXSTY
  7
STANDARD
  9
$DIMAUNIT
 70
     0
  9
$DIMADEC
 70
     0
  9
$DIMALTRND
 40
0.0
  9
$DIMAZIN
 70
     0
  9
$DIMDSEP
 70
    46
  9
$DIMATFIT
 70
     3
  9
$DIMFRAC
 70
     2
  9
$DIMLDRBLK
  1

  9
$DIMLUNIT
 70
     5
  9
$DIMLWD
 70
    -2
  9
$DIMLWE
 70
    -2
  9
$DIMTMOVE
 70
     2
  9
$LUNITS
 70
     2
  9
$LUPREC
 70
     4
  9
$SKETCHINC
 40
0.1
  9
$FILLETRAD
 40
0.0
  9
$AUNITS
 70
     0
  9
$AUPREC
 70
     0
  9
$MENU
  1
qa
  9
$ELEVATION
 40
0.0
  9
$PELEVATION
 40
0.0
  9
$THICKNESS
 40
0.0
  9
$LIMCHECK
 70
     0
  9
$CHAMFERA
 40
0.0
  9
$CHAMFERB
 40
0.0
  9
$CHAMFERC
 40
0.0
  9
$CHAMFERD
 40
0.0
  9
$SKPOLY
 70
     0
  9
$TDCREATE
 40
2450451.615041551
  9
$TDUCREATE
 40
2450451.906708217
  9
$TDUPDATE
 40
2455369.463490035
  9
$TDUUPDATE
 40
2455369.755156702
  9
$TDINDWG
 40
0.5494501042
  9
$TDUSRTIMER
 40
0.5494501042
  9
$USRTIMER
 70
     1
  9
$ANGBASE
 50
0.0
  9
$ANGDIR
 70
     0
  9
$PDMODE
 70
     0
  9
$PDSIZE
 40
0.0
  9
$PLINEWID
 40
0.0
  9
$SPLFRAME
 70
     0
  9
$SPLINETYPE
 70
     6
  9
$SPLINESEGS
 70
     8
  9
$HANDSEED
  5
3579
  9
$SURFTAB1
 70
     6
  9
$SURFTAB2
 70
     6
  9
$SURFTYPE
 70
     6
  9
$SURFU
 70
     6
  9
$SURFV
 70
     6
  9
$UCSBASE
  2

  9
$UCSNAME
  2

  9
$UCSORG
 10
0.0
 20
0.0
 30
0.0
  9
$UCSXDIR
 10
1.0
 20
0.0
 30
0.0
  9
$UCSYDIR
 10
0.0
 20
1.0
 30
0.0
  9
$UCSORTHOREF
  2

  9
$UCSORTHOVIEW
 70
     0
  9
$UCSORGTOP
 10
0.0
 20
0.0
 30
0.0
  9
$UCSORGBOTTOM
 10
0.0
 20
0.0
 30
0.0
  9
$UCSORGLEFT
 10
0.0
 20
0.0
 30
0.0
  9
$UCSORGRIGHT
 10
0.0
 20
0.0
 30
0.0
  9
$UCSORGFRONT
 10
0.0
 20
0.0
 30
0.0
  9
$UCSORGBACK
 10
0.0
 20
0.0
 30
0.0
  9
$PUCSBASE
  2

  9
$PUCSNAME
  2

  9
$PUCSORG
 10
0.0
 20
0.0
 30
0.0
  9
$PUCSXDIR
 10
1.0
 20
0.0
 30
0.0
  9
$PUCSYDIR
 10
0.0
 20
1.0
 30
0.0
  9
$PUCSORTHOREF
  2

  9
$PUCSORTHOVIEW
 70
     0
  9
$PUCSORGTOP
 10
0.0
 20
0.0
 30
0.0
  9
$PUCSORGBOTTOM
 10
0.0
 20
0.0
 30
0.0
  9
$PUCSORGLEFT
 10
0.0
 20
0.0
 30
0.0
  9
$PUCSORGRIGHT
 10
0.0
 20
0.0
 30
0.0
  9
$PUCSORGFRONT
 10
0.0
 20
0.0
 30
0.0
  9
$PUCSORGBACK
 10
0.0
 20
0.0
 30
0.0
  9
$USERI1
 70
     0
  9
$USERI2
 70
     0
  9
$USERI3
 70
     0
  9
$USERI4
 70
     0
  9
$USERI5
 70
     0
  9
$USERR1
 40
0.0
  9
$USERR2
 40
0.0
  9
$USERR3
 40
0.0
  9
$USERR4
 40
0.0
  9
$USERR5
 40
0.0
  9
$WORLDVIEW
 70
     1
  9
$SHADEDGE
 70
     3
  9
$SHADEDIF
 70
    70
  9
$TILEMODE
 70
     1
  9
$MAXACTVP
 70
    16
  9
$PINSBASE
 10
0.0
 20
0.0
 30
0.0
  9
$PLIMCHECK
 70
     0
  9
$PEXTMIN
 10
1.000000000000000E+20
 20
1.000000000000000E+20
 30
1.000000000000000E+20
  9
$PEXTMAX
 10
-1.000000000000000E+20
 20
-1.000000000000000E+20
 30
-1.000000000000000E+20
  9
$PLIMMIN
 10
0.0
 20
0.0
  9
$PLIMMAX
 10
12.0
 20
9.0
  9
$UNITMODE
 70
     0
  9
$VISRETAIN
 70
     0
  9
$PLINEGEN
 70
     0
  9
$PSLTSCALE
 70
     0
  9
$TREEDEPTH
 70
  3020
  9
$CMLSTYLE
  2
Standard
  9
$CMLJUST
 70
     0
  9
$CMLSCALE
 40
1.0
  9
$PROXYGRAPHICS
 70
     1
  9
$MEASUREMENT
 70
     0
  9
$CELWEIGHT
370
    -1
  9
$ENDCAPS
280
     0
  9
$JOINSTYLE
280
     0
  9
$LWDISPLAY
290
     0
  9
$INSUNITS
 70
     0
  9
$HYPERLINKBASE
  1

  9
$STYLESHEET
  1
monochrome.ctb
  9
$XEDIT
290
     1
  9
$CEPSNTYPE
380
     0
  9
$PSTYLEMODE
290
     1
  9
$FINGERPRINTGUID
  2
{F5ACF291-F55E-4E08-8D6D-566B2514AEA0}
  9
$VERSIONGUID
  2
{AACE9970-B246-4155-A198-B67C70AFE508}
  9
$EXTNAMES
290
     1
  9
$PSVPSCALE
 40
0.0
  9
$OLESTARTUP
290
     0
  0
ENDSEC
  0
SECTION
  2
CLASSES
  0
CLASS
  1
ACDBDICTIONARYWDFLT
  2
AcDbDictionaryWithDefault
  3
ObjectDBX Classes
 90
        0
280
     0
281
     0
  0
CLASS
  1
ACDBPLACEHOLDER
  2
AcDbPlaceHolder
  3
ObjectDBX Classes
 90
        0
280
     0
281
     0
  0
CLASS
  1
LAYOUT
  2
AcDbLayout
  3
ObjectDBX Classes
 90
        0
280
     0
281
     0
  0
CLASS
  1
TABLESTYLE
  2
AcDbTableStyle
  3
ObjectDBX Classes
 90
     2047
280
     0
281
     0
  0
CLASS
  1
SORTENTSTABLE
  2
AcDbSortentsTable
  3
ObjectDBX Classes
 90
        0
280
     0
281
     0
  0
CLASS
  1
DICTIONARYVAR
  2
AcDbDictionaryVar
  3
ObjectDBX Classes
 90
        0
280
     0
281
     0
  0
CLASS
  1
MATERIAL
  2
AcDbMaterial
  3
ObjectDBX Classes
 90
        0
280
     0
281
     0
  0
CLASS
  1
DIMASSOC
  2
AcDbDimAssoc
  3
"AcDbDimAssoc|Product Desc:     AcDim ARX App For Dimension|Company:          Autodesk, Inc.|WEB Address:      www.autodesk.com"
 90
    32768
280
     0
281
     0
  0
CLASS
  1
ACAD_TABLE
  2
AcDbTable
  3
ObjectDBX Classes
 90
    33793
280
     0
281
     1
  0
ENDSEC
  0
SECTION
  2
TABLES
  0
TABLE
  2
VPORT
  5
8
330
0
100
AcDbSymbolTable
 70
     2
  0
VPORT
  5
3573
330
8
100
AcDbSymbolTableRecord
100
AcDbViewportTableRecord
  2
*Active
 70
     0
 10
0.0
 20
0.0
 11
1.0
 21
1.0
 12
5.727055369319799
 22
12.35371223680035
 13
0.0
 23
0.0
 14
0.063
 24
0.063
 15
0.25
 25
0.25
 16
0.0
 26
0.0
 36
1.0
 17
0.0
 27
0.0
 37
0.0
 40
26.26050932168025
 41
1.902325581395348
 42
50.0
 43
0.0
 44
0.0
 50
0.0
 51
0.0
 71
     0
 72
   100
 73
     1
 74
     0
 75
     0
 76
     0
 77
     0
 78
     0
281
     0
 65
     1
110
0.0
120
0.0
130
0.0
111
1.0
121
0.0
131
0.0
112
0.0
122
1.0
132
0.0
 79
     0
146
0.0
  0
ENDTAB
  0
TABLE
  2
LTYPE
  5
5
330
0
100
AcDbSymbolTable
 70
     2
  0
LTYPE
  5
13
330
5
100
AcDbSymbolTableRecord
100
AcDbLinetypeTableRecord
  2
ByBlock
 70
     0
  3

 72
    65
 73
     0
 40
0.0
  0
LTYPE
  5
14
330
5
100
AcDbSymbolTableRecord
100
AcDbLinetypeTableRecord
  2
ByLayer
 70
     0
  3

 72
    65
 73
     0
 40
0.0
  0
LTYPE
  5
15
330
5
100
AcDbSymbolTableRecord
100
AcDbLinetypeTableRecord
  2
CONTINUOUS
 70
     0
  3
Solid line
 72
    65
 73
     0
 40
0.0
  0
LTYPE
  5
30
330
5
100
AcDbSymbolTableRecord
100
AcDbLinetypeTableRecord
  2
HIDDEN
 70
     0
  3
_ _ _ _ _ _ _ _ _ _ _ _ _ _ _ _ _ _ _ _ _ _ _
 72
    65
 73
     2
 40
0.375
 49
0.25
 74
     0
 49
-0.125
 74
     0
  0
ENDTAB
  0
TABLE
  2
LAYER
  5
2
102
{ACAD_XDICTIONARY
360
A75
102
}
330
0
100
AcDbSymbolTable
 70
     3
  0
LAYER
  5
10
330
2
100
AcDbSymbolTableRecord
100
AcDbLayerTableRecord
  2
0
 70
     0
 62
     7
  6
CONTINUOUS
370
    -3
390
F
  0
LAYER
  5
3B
330
2
100
AcDbSymbolTableRecord
100
AcDbLayerTableRecord
  2
DIM
 70
     0
 62
     5
  6
CONTINUOUS
370
    -3
390
F
  0
LAYER
  5
45
330
2
100
AcDbSymbolTableRecord
100
AcDbLayerTableRecord
  2
DEFPOINTS
 70
     0
 62
     7
  6
CONTINUOUS
290
     0
370
    -3
390
F
  0
ENDTAB
  0
TABLE
  2
STYLE
  5
3
330
0
100
AcDbSymbolTable
 70
     1
  0
STYLE
  5
11
330
3
100
AcDbSymbolTableRecord
100
AcDbTextStyleTableRecord
  2
STANDARD
 70
     0
 40
0.0
 41
1.0
 50
0.0
 71
     0
 42
0.45
  3
TXT
  4

  0
ENDTAB
  0
TABLE
  2
VIEW
  5
6
330
0
100
AcDbSymbolTable
 70
     0
  0
ENDTAB
  0
TABLE
  2
UCS
  5
7
330
0
100
AcDbSymbolTable
 70
     0
  0
ENDTAB
  0
TABLE
  2
APPID
  5
9
330
0
100
AcDbSymbolTable
 70
     5
  0
APPID
  5
12
330
9
100
AcDbSymbolTableRecord
100
AcDbRegAppTableRecord
  2
ACAD
 70
     0
  0
APPID
  5
A74
330
9
100
AcDbSymbolTableRecord
100
AcDbRegAppTableRecord
  2
ACAD_PSEXT
 70
     0
  0
APPID
  5
AA9
330
9
100
AcDbSymbolTableRecord
100
AcDbRegAppTableRecord
  2
CONTENTBLOCKICON
 70
     0
  0
APPID
  5
C0C
330
9
100
AcDbSymbolTableRecord
100
AcDbRegAppTableRecord
  2
ACAD_DSTYLE_DIMRADIAL_EXTENSION
 70
     0
  0
APPID
  5
C0D
330
9
100
AcDbSymbolTableRecord
100
AcDbRegAppTableRecord
  2
AcAecLayerStandard
 70
     0
  0
ENDTAB
  0
TABLE
  2
DIMSTYLE
  5
A
330
0
100
AcDbSymbolTable
 70
     1
100
AcDbDimStyleTable
 71
     1
340
436
  0
DIMSTYLE
105
436
330
A
100
AcDbSymbolTableRecord
100
AcDbDimStyleTableRecord
  2
Standard
 70
     0
340
11
  0
ENDTAB
  0
TABLE
  2
BLOCK_RECORD
  5
1
330
0
100
AcDbSymbolTable
 70
     0
  0
BLOCK_RECORD
  5
1E
102
{ACAD_XDICTIONARY
360
E5B
102
}
330
1
100
AcDbSymbolTableRecord
100
AcDbBlockTableRecord
  2
*Model_Space
340
21
  0
BLOCK_RECORD
  5
1A
330
1
100
AcDbSymbolTableRecord
100
AcDbBlockTableRecord
  2
*Paper_Space
340
1D
  0
ENDTAB
  0
ENDSEC
  0
SECTION
  2
BLOCKS
  0
BLOCK
  5
48
330
1E
100
AcDbEntity
  8
0
100
AcDbBlockBegin
  2
*Model_Space
 70
     0
 10
0.0
 20
0.0
 30
0.0
  3
*Model_Space
  1

  0
ENDBLK
  5
49
330
1E
100
AcDbEntity
  8
0
100
AcDbBlockEnd
  0
BLOCK
  5
46
330
1A
100
AcDbEntity
 67
     1
  8
0
100
AcDbBlockBegin
  2
*Paper_Space
 70
     0
 10
0.0
 20
0.0
 30
0.0
  3
*Paper_Space
  1

  0
ENDBLK
  5
47
330
1A
100
AcDbEntity
 67
     1
  8
0
100
AcDbBlockEnd
  0
ENDSEC
  0
SECTION
  2
ENTITIES
  0
LINE
  5
2F1
330
1E
100
AcDbEntity
  8
0
100
AcDbLine
 10
1.781249999999982
 20
0.2580000000000027
 30
0.0
 11
1.781249999999982
 21
11.379
 31
0.0
  0
LINE
  5
2F2
330
1E
100
AcDbEntity
  8
0
100
AcDbLine
 10
1.910250000000029
 20
0.2579999999999991
 30
0.0
 11
1.910249999999988
 21
11.37900000000001
 31
0.0
  0
LINE
  5
2F3
330
1E
100
AcDbEntity
  8
0
100
AcDbLine
 10
1.687500000000181
 20
0.2701999999999742
 30
0.0
 11
1.687499999999975
 21
11.379
 31
0.0
  0
LINE
  5
2F4
330
1E
100
AcDbEntity
  8
0
100
AcDbLine
 10
-1.781250000000024
 20
0.2580000000000027
 30
0.0
 11
-1.781250000000023
 21
11.379
 31
0.0
  0
LINE
  5
2F5
330
1E
100
AcDbEntity
  8
0
100
AcDbLine
 10
-1.910250000000015
 20
0.2579999999999991
 30
0.0
 11
-1.910250000000015
 21
11.37900000000001
 31
0.0
  0
LINE
  5
2F6
330
1E
100
AcDbEntity
  8
0
  6
HIDDEN
100
AcDbLine
 10
-1.687500000000028
 20
11.379
 30
0.0
 11
-1.687499999999996
 21
0.2701999999999707
 31
0.0
  0
LINE
  5
2F7
330
1E
100
AcDbEntity
  8
0
100
AcDbLine
 10
-1.652250000000019
 20
0.1290000000000049
 30
0.0
 11
1.652249999999977
 21
0.1290000000000049
 31
0.0
  0
LINE
  5
2F8
330
1E
100
AcDbEntity
  8
0
100
AcDbLine
 10
-1.652250000000019
 20
0.0
 30
0.0
 11
1.652250000000019
 21
0.0
 31
0.0
  0
LINE
  5
2F9
330
1E
100
AcDbEntity
  8
0
100
AcDbLine
 10
1.781249999999982
 20
0.2701999999999671
 30
0.0
 11
-1.781250000000024
 21
0.2701999999999707
 31
0.0
  0
ARC
  5
2FA
330
1E
100
AcDbEntity
  8
0
100
AcDbCircle
 10
-1.652250000000019
 20
0.2580000000000027
 30
0.0
 40
0.129
100
AcDbArc
 50
180.0
 51
270.0
  0
ARC
  5
2FB
330
1E
100
AcDbEntity
  8
0
100
AcDbCircle
 10
-1.652250000000019
 20
0.2579999999999991
 30
0.0
 40
0.258
100
AcDbArc
 50
180.0
 51
270.0
  0
ARC
  5
2FC
330
1E
100
AcDbEntity
  8
0
100
AcDbCircle
 10
1.652250000000019
 20
0.2579999999999991
 30
0.0
 40
0.258
100
AcDbArc
 50
270.0
 51
0.0000000000001145
  0
ARC
  5
2FE
330
1E
100
AcDbEntity
  8
0
100
AcDbCircle
 10
1.652249999999977
 20
0.2580000000000027
 30
0.0
 40
0.129
100
AcDbArc
 50
270.0
 51
0.0
  0
LINE
  5
30B
330
1E
100
AcDbEntity
  8
0
100
AcDbLine
 10
1.910249999999983
 20
11.379
 30
0.0
 11
-1.910250000000019
 21
11.379
 31
0.0
  0
LINE
  5
31E
330
1E
100
AcDbEntity
  8
0
  6
HIDDEN
100
AcDbLine
 10
13.86320337098702
 20
0.2701539999999767
 30
0.0
 11
13.86320337098703
 21
11.379
 31
0.0
  0
LINE
  5
31F
330
1E
100
AcDbEntity
  8
0
100
AcDbLine
 10
10.11320337098702
 20
11.379
 30
0.0
 11
10.11320337098702
 21
0.0
 31
0.0
  0
LINE
  5
320
330
1E
100
AcDbEntity
  8
0
100
AcDbLine
 10
13.99220337098701
 20
0.2701539999999731
 30
0.0
 11
13.99220337098702
 21
11.379
 31
0.0
  0
LINE
  5
321
330
1E
100
AcDbEntity
  8
0
  6
HIDDEN
100
AcDbLine
 10
13.83595337098704
 20
0.2701999999999742
 30
0.0
 11
13.83595337098702
 21
11.379
 31
0.0
  0
LINE
  5
322
330
1E
100
AcDbEntity
  8
0
  6
HIDDEN
100
AcDbLine
 10
13.70695337098703
 20
0.2701999999999742
 30
0.0
 11
13.70695337098702
 21
11.379
 31
0.0
  0
LINE
  5
323
330
1E
100
AcDbEntity
  8
0
100
AcDbLine
 10
13.72220337098703
 20
0.2701999999999707
 30
0.0
 11
13.99220337098701
 21
0.2701539999999731
 31
0.0
  0
LINE
  5
324
330
1E
100
AcDbEntity
  8
0
  6
HIDDEN
100
AcDbLine
 10
10.11320337098702
 20
0.1290000000000049
 30
0.0
 11
13.36320337098702
 21
0.1290000000000013
 31
0.0
  0
LINE
  5
325
330
1E
100
AcDbEntity
  8
0
100
AcDbLine
 10
10.11320337098702
 20
0.0
 30
0.0
 11
13.61320337098702
 21
0.0000000000000036
 31
0.0
  0
ARC
  5
327
330
1E
100
AcDbEntity
  8
0
100
AcDbCircle
 10
13.72220337098701
 20
0.1611539999999785
 30
0.0
 40
0.1089999999999947
100
AcDbArc
 50
89.99999999999252
 51
179.9999999999925
  0
ARC
  5
328
330
1E
100
AcDbEntity
  8
0
100
AcDbCircle
 10
13.72220337098704
 20
0.1611999999999476
 30
0.0
 40
0.1090000000000231
100
AcDbArc
 50
90.00000000000746
 51
180.0000000000075
  0
LINE
  5
329
330
1E
100
AcDbEntity
  8
0
100
AcDbLine
 10
13.61320337098702
 20
0.0
 30
0.0
 11
13.61320337098702
 21
0.1611539999999927
 31
0.0
  0
LINE
  5
32A
330
1E
100
AcDbEntity
  8
0
100
AcDbLine
 10
13.61320337098702
 20
0.1611999999999334
 30
0.0
 11
13.61320337098702
 21
0.0000000000000036
 31
0.0
  0
LINE
  5
33E
330
1E
100
AcDbEntity
  8
0
100
AcDbLine
 10
13.99220337098702
 20
11.379
 30
0.0
 11
10.11320337098702
 21
11.379
 31
0.0
  0
TEXT
  5
3B9
330
1E
100
AcDbEntity
  8
DIM
100
AcDbText
 10
34.25312204039783
 20
18.44030000486302
 30
0.0
 40
0.45
  1
   
 72
     1
 11
34.92812204039783
 21
18.66530000486302
 31
0.0
100
AcDbText
 73
     2
  0
LINE
  5
662
330
1E
100
AcDbEntity
  8
0
100
AcDbLine
 10
1.656749999999979
 20
24.46346274428296
 30
0.0
 11
1.656749999999979
 21
24.59246274428296
 31
0.0
  0
LINE
  5
673
330
1E
100
AcDbEntity
  8
0
100
AcDbLine
 10
1.910249999999988
 20
20.59866274428296
 30
0.0
 11
1.91024999999998
 21
24.47966274428297
 31
0.0
  0
LINE
  5
674
330
1E
100
AcDbEntity
  8
0
100
AcDbLine
 10
1.781249999999982
 20
20.59866274428295
 30
0.0
 11
1.78124999999998
 21
24.47966274428295
 31
0.0
  0
LINE
  5
675
330
1E
100
AcDbEntity
  8
0
100
AcDbLine
 10
-1.781250000000028
 20
20.59866274428293
 30
0.0
 11
-1.781250000000019
 21
24.33446274428296
 31
0.0
  0
LINE
  5
676
330
1E
100
AcDbEntity
  8
0
100
AcDbLine
 10
-1.910250000000015
 20
20.59866274428293
 30
0.0
 11
-1.910250000000019
 21
24.33446274428297
 31
0.0
  0
LINE
  5
679
330
1E
100
AcDbEntity
  8
0
100
AcDbLine
 10
1.910249999999987
 20
20.59866274428295
 30
0.0
 11
-1.910250000000015
 21
20.59866274428294
 31
0.0
  0
LINE
  5
67B
330
1E
100
AcDbEntity
  8
0
100
AcDbLine
 10
1.656749999999979
 20
24.46346274428295
 30
0.0
 11
-1.652250000000019
 21
24.46346274428295
 31
0.0
  0
LINE
  5
67C
330
1E
100
AcDbEntity
  8
0
100
AcDbLine
 10
1.652249999999979
 20
24.73766274428297
 30
0.0
 11
-1.65675000000002
 21
24.73766274428297
 31
0.0
  0
LINE
  5
67D
330
1E
100
AcDbEntity
  8
0
100
AcDbLine
 10
1.652249999999979
 20
24.60866274428295
 30
0.0
 11
-1.65675000000002
 21
24.60866274428296
 31
0.0
  0
LINE
  5
67E
330
1E
100
AcDbEntity
  8
0
100
AcDbLine
 10
1.656749999999979
 20
24.59246274428296
 30
0.0
 11
-1.652250000000019
 21
24.59246274428297
 31
0.0
  0
LINE
  5
67F
330
1E
100
AcDbEntity
  8
0
100
AcDbLine
 10
-1.781250000000021
 20
24.09866274428295
 30
0.0
 11
1.781249999999975
 21
24.09866274428296
 31
0.0
  0
ARC
  5
683
330
1E
100
AcDbEntity
  8
0
100
AcDbCircle
 10
1.652249999999979
 20
24.47966274428297
 30
0.0
 40
0.258
100
AcDbArc
 50
0.0
 51
82.14723559181509
  0
ARC
  5
684
330
1E
100
AcDbEntity
  8
0
100
AcDbCircle
 10
1.652249999999979
 20
24.47966274428297
 30
0.0
 40
0.258
100
AcDbArc
 50
82.14723559181548
 51
90.0
  0
ARC
  5
685
330
1E
100
AcDbEntity
  8
0
100
AcDbCircle
 10
1.652249999999979
 20
24.47966274428295
 30
0.0
 40
0.129
100
AcDbArc
 50
74.14190100668837
 51
90.0
  0
ARC
  5
686
330
1E
100
AcDbEntity
  8
0
100
AcDbCircle
 10
1.652249999999979
 20
24.47966274428295
 30
0.0
 40
0.129
100
AcDbArc
 50
0.0
 51
74.14190100664097
  0
LINE
  5
E5A
330
1E
100
AcDbEntity
  8
0
100
AcDbLine
 10
-1.656750000000021
 20
24.60866274428295
 30
0.0
 11
-1.65675000000002
 21
24.73766274428297
 31
0.0
  0
ARC
  5
E5E
330
1E
100
AcDbEntity
  8
0
100
AcDbCircle
 10
-1.652250000000019
 20
24.33446274428297
 30
0.0
 40
0.258
100
AcDbArc
 50
97.85276440818492
 51
180.0
  0
ARC
  5
E5F
330
1E
100
AcDbEntity
  8
0
100
AcDbCircle
 10
-1.652250000000021
 20
24.33446274428297
 30
0.0
 40
0.258
100
AcDbArc
 50
90.0
 51
97.85276440818451
  0
ARC
  5
E60
330
1E
100
AcDbEntity
  8
0
100
AcDbCircle
 10
-1.652250000000019
 20
24.33446274428296
 30
0.0
 40
0.129
100
AcDbArc
 50
90.0
 51
105.8580989933116
  0
ARC
  5
E61
330
1E
100
AcDbEntity
  8
0
100
AcDbCircle
 10
-1.652250000000019
 20
24.33446274428296
 30
0.0
 40
0.129
100
AcDbArc
 50
105.858098993359
 51
180.0
  0
CIRCLE
  5
1345
330
1E
100
AcDbEntity
  8
0
100
AcDbCircle
 10
-0.0000000000000142
 20
2.238899999999969
 30
0.0
 40
0.4216250000000001
  0
CIRCLE
  5
1346
330
1E
100
AcDbEntity
  8
0
100
AcDbCircle
 10
-0.0000000000000142
 20
8.863399999999924
 30
0.0
 40
0.4216250000000001
  0
CIRCLE
  5
1347
330
1E
100
AcDbEntity
  8
0
100
AcDbCircle
 10
-0.0000000000000142
 20
8.863400000000037
 30
0.0
 40
0.4060000000000001
  0
CIRCLE
  5
1348
330
1E
100
AcDbEntity
  8
0
100
AcDbCircle
 10
-0.0000000000000142
 20
2.238899999999969
 30
0.0
 40
0.4060000000000001
  0
CIRCLE
  5
34DD
330
1E
100
AcDbEntity
  8
0
100
AcDbCircle
 10
11.9882533709869
 20
8.127750000000002
 30
0.0
 40
0.1325
  0
CIRCLE
  5
34DE
330
1E
100
AcDbEntity
  8
0
100
AcDbCircle
 10
11.30125337098691
 20
7.127750000000002
 30
0.0
 40
0.1325
  0
CIRCLE
  5
34DF
330
1E
100
AcDbEntity
  8
0
100
AcDbCircle
 10
10.61325337098691
 20
5.627750000000002
 30
0.0
 40
0.1325
  0
CIRCLE
  5
34E0
330
1E
100
AcDbEntity
  8
0
100
AcDbCircle
 10
11.9882533709869
 20
4.127750000000002
 30
0.0
 40
0.1325
  0
CIRCLE
  5
34E1
330
1E
100
AcDbEntity
  8
0
100
AcDbCircle
 10
11.30125337098691
 20
3.127750000000002
 30
0.0
 40
0.1325
  0
CIRCLE
  5
34E2
330
1E
100
AcDbEntity
  8
0
100
AcDbCircle
 10
10.61325337098691
 20
1.627750000000002
 30
0.0
 40
0.1325
  0
LINE
  5
352E
330
1E
100
AcDbEntity
  8
0
  6
HIDDEN
100
AcDbLine
 10
-13.86320337098704
 20
0.2701539999999767
 30
0.0
 11
-13.86320337098706
 21
11.379
 31
0.0
  0
LINE
  5
352F
330
1E
100
AcDbEntity
  8
0
100
AcDbLine
 10
-10.11320337098704
 20
11.379
 30
0.0
 11
-10.11320337098704
 21
0.0
 31
0.0
  0
LINE
  5
3530
330
1E
100
AcDbEntity
  8
0
100
AcDbLine
 10
-13.99220337098703
 20
0.2701539999999731
 30
0.0
 11
-13.99220337098705
 21
11.379
 31
0.0
  0
LINE
  5
3531
330
1E
100
AcDbEntity
  8
0
  6
HIDDEN
100
AcDbLine
 10
-13.83595337098706
 20
0.2701999999999742
 30
0.0
 11
-13.83595337098705
 21
11.379
 31
0.0
  0
LINE
  5
3532
330
1E
100
AcDbEntity
  8
0
  6
HIDDEN
100
AcDbLine
 10
-13.70695337098706
 20
0.2701999999999742
 30
0.0
 11
-13.70695337098705
 21
11.379
 31
0.0
  0
LINE
  5
3533
330
1E
100
AcDbEntity
  8
0
100
AcDbLine
 10
-13.72220337098705
 20
0.2701999999999707
 30
0.0
 11
-13.99220337098703
 21
0.2701539999999731
 31
0.0
  0
LINE
  5
3534
330
1E
100
AcDbEntity
  8
0
  6
HIDDEN
100
AcDbLine
 10
-10.11320337098704
 20
0.1290000000000049
 30
0.0
 11
-13.36320337098704
 21
0.1290000000000013
 31
0.0
  0
LINE
  5
3535
330
1E
100
AcDbEntity
  8
0
100
AcDbLine
 10
-10.11320337098704
 20
0.0
 30
0.0
 11
-13.61320337098704
 21
0.0000000000000036
 31
0.0
  0
ARC
  5
3536
330
1E
100
AcDbEntity
  8
0
100
AcDbCircle
 10
-13.72220337098704
 20
0.1611539999999785
 30
0.0
 40
0.1089999999999947
100
AcDbArc
 50
0.0000000000075131
 51
90.00000000000746
  0
ARC
  5
3537
330
1E
100
AcDbEntity
  8
0
100
AcDbCircle
 10
-13.72220337098706
 20
0.1611999999999476
 30
0.0
 40
0.1090000000000231
100
AcDbArc
 50
359.9999999999925
 51
89.99999999999253
  0
LINE
  5
3538
330
1E
100
AcDbEntity
  8
0
100
AcDbLine
 10
-13.61320337098704
 20
0.0
 30
0.0
 11
-13.61320337098704
 21
0.1611539999999927
 31
0.0
  0
LINE
  5
3539
330
1E
100
AcDbEntity
  8
0
100
AcDbLine
 10
-13.61320337098704
 20
0.1611999999999334
 30
0.0
 11
-13.61320337098704
 21
0.0000000000000036
 31
0.0
  0
LINE
  5
353A
330
1E
100
AcDbEntity
  8
0
100
AcDbLine
 10
-13.99220337098705
 20
11.379
 30
0.0
 11
-10.11320337098704
 21
11.379
 31
0.0
  0
CIRCLE
  5
354D
330
1E
100
AcDbEntity
  8
0
100
AcDbCircle
 10
-11.30125337098693
 20
8.627749999999995
 30
0.0
 40
0.1325
  0
CIRCLE
  5
354E
330
1E
100
AcDbEntity
  8
0
100
AcDbCircle
 10
-10.61325337098693
 20
7.627749999999995
 30
0.0
 40
0.1325
  0
CIRCLE
  5
354F
330
1E
100
AcDbEntity
  8
0
100
AcDbCircle
 10
-11.98825337098693
 20
6.127749999999995
 30
0.0
 40
0.1325
  0
CIRCLE
  5
3550
330
1E
100
AcDbEntity
  8
0
100
AcDbCircle
 10
-11.30125337098693
 20
5.127749999999995
 30
0.0
 40
0.1325
  0
CIRCLE
  5
3551
330
1E
100
AcDbEntity
  8
0
100
AcDbCircle
 10
-10.61325337098693
 20
3.627749999999995
 30
0.0
 40
0.1325
  0
CIRCLE
  5
3552
330
1E
100
AcDbEntity
  8
0
100
AcDbCircle
 10
-11.98825337098693
 20
2.127749999999995
 30
0.0
 40
0.1325
  0
ENDSEC
  0
SECTION
  2
OBJECTS
  0
DICTIONARY
  5
C
330
0
100
AcDbDictionary
281
     1
  3
ACAD_COLOR
350
A65
  3
ACAD_GROUP
350
D
  3
ACAD_LAYOUT
350
19
  3
ACAD_MATERIAL
350
A64
  3
ACAD_MLINESTYLE
350
16
  3
ACAD_PLOTSETTINGS
350
18
  3
ACAD_PLOTSTYLENAME
350
E
  3
ACAD_TABLESTYLE
350
A66
  3
ACDBHEADERROUNDTRIPXREC
350
3574
  3
AcDbVariableDictionary
350
AD4
  3
AEC_CLASSIFICATION_SYSTEM_DEFS
350
1BA8
  3
AEC_PROPERTY_SET_DEFS
350
1BA9
  0
DICTIONARY
  5
A75
330
2
100
AcDbDictionary
280
     1
281
     1
  3
ACAD_LAYERFILTERS
360
1362
  3
ACAD_LAYERSTATES
360
A76
  3
ACLYDICTIONARY
360
1361
  0
DICTIONARY
  5
E5B
330
1E
100
AcDbDictionary
280
     1
281
     1
  3
ACAD_SORTENTS
360
E5C
  0
DICTIONARY
  5
A65
102
{ACAD_REACTORS
330
C
102
}
330
C
100
AcDbDictionary
281
     1
  0
DICTIONARY
  5
D
102
{ACAD_REACTORS
330
C
102
}
330
C
100
AcDbDictionary
281
     1
  0
DICTIONARY
  5
19
102
{ACAD_REACTORS
330
C
102
}
330
C
100
AcDbDictionary
281
     1
  3
Layout1
350
1D
  3
Model
350
21
  0
DICTIONARY
  5
A64
102
{ACAD_REACTORS
330
C
102
}
330
C
100
AcDbDictionary
281
     1
  3
Global
350
C0E
  0
DICTIONARY
  5
16
102
{ACAD_REACTORS
330
C
102
}
330
C
100
AcDbDictionary
281
     1
  3
Standard
350
17
  0
DICTIONARY
  5
18
102
{ACAD_REACTORS
330
C
102
}
330
C
100
AcDbDictionary
281
     1
  0
ACDBDICTIONARYWDFLT
  5
E
102
{ACAD_REACTORS
330
C
102
}
330
C
100
AcDbDictionary
281
     1
  3
Normal
350
F
100
AcDbDictionaryWithDefault
340
F
  0
DICTIONARY
  5
A66
102
{ACAD_REACTORS
330
C
102
}
330
C
100
AcDbDictionary
281
     1
  3
Standard
350
A67
  0
DICTIONARY
  5
3574
102
{ACAD_REACTORS
330
C
102
}
330
C
100
AcDbDictionary
281
     1
  0
DICTIONARY
  5
AD4
102
{ACAD_REACTORS
330
C
102
}
330
C
100
AcDbDictionary
281
     1
  3
CTABLESTYLE
350
AD5
  3
DIMASSOC
350
AD6
  3
PROJECTNAME
350
AD7
  0
DICTIONARY
  5
1BA8
102
{ACAD_REACTORS
330
C
102
}
330
C
100
AcDbDictionary
281
     1
  0
DICTIONARY
  5
1BA9
102
{ACAD_REACTORS
330
C
102
}
330
C
100
AcDbDictionary
281
     1
  0
DICTIONARY
  5
1362
102
{ACAD_REACTORS
330
A75
102
}
330
A75
100
AcDbDictionary
281
     1
  0
DICTIONARY
  5
A76
102
{ACAD_REACTORS
330
A75
102
}
330
A75
100
AcDbDictionary
281
     1
  0
DICTIONARY
  5
1361
102
{ACAD_REACTORS
330
A75
102
}
330
A75
100
AcDbDictionary
281
     1
1001
ACAD
1000
<All
  0
SORTENTSTABLE
  5
E5C
102
{ACAD_REACTORS
330
E5B
102
}
330
E5B
100
AcDbSortentsTable
330
1E
331
E5E
  5
1222
331
328
  5
328
331
675
  5
678
331
2FA
  5
2FA
331
322
  5
322
331
2F4
  5
2F4
331
67C
  5
67E
331
1346
  5
14C2
331
E5F
  5
1223
331
329
  5
329
331
676
  5
679
331
683
  5
685
331
2FB
  5
2FB
331
323
  5
323
331
2F5
  5
2F5
331
67D
  5
67F
331
1347
  5
14C3
331
3B9
  5
3B9
331
E60
  5
1224
331
684
  5
686
331
2FC
  5
2FC
331
32A
  5
32A
331
E5A
  5
668
331
324
  5
324
331
67E
  5
680
331
1348
  5
14C4
331
30B
  5
30B
331
2F6
  5
2F6
331
31E
  5
31E
331
685
  5
687
331
E61
  5
1225
331
325
  5
325
331
67F
  5
682
331
2F7
  5
2F7
331
31F
  5
31F
331
686
  5
68E
331
2F1
  5
2F1
331
2FE
  5
2FE
331
679
  5
67B
331
673
  5
675
331
2F8
  5
2F8
331
2F2
  5
2F2
331
320
  5
320
331
674
  5
676
331
327
  5
327
331
2F9
  5
2F9
331
33E
  5
33E
331
1345
  5
14C1
331
321
  5
321
331
2F3
  5
2F3
331
662
  5
662
331
67B
  5
67D
  0
LAYOUT
  5
1D
102
{ACAD_XDICTIONARY
360
3575
102
}
102
{ACAD_REACTORS
330
19
102
}
330
19
100
AcDbPlotSettings
  1

  2
HP LaserJet 2100 Series PS
  4

  6

 40
0.0
 41
0.0
 42
0.0
 43
0.0
 44
0.0
 45
0.0
 46
0.0
 47
0.0
 48
0.0
 49
0.0
140
0.0
141
0.0
142
1.0
143
1.0
 70
   688
 72
     0
 73
     0
 74
     5
  7
monochrome.ctb
 75
    16
147
1.0
148
0.0
149
0.0
100
AcDbLayout
  1
Layout1
 70
     0
 71
     1
 10
0.0
 20
0.0
 11
12.0
 21
9.0
 12
0.0
 22
0.0
 32
0.0
 14
1.000000000000000E+20
 24
1.000000000000000E+20
 34
1.000000000000000E+20
 15
-1.000000000000000E+20
 25
-1.000000000000000E+20
 35
-1.000000000000000E+20
146
0.0
 13
0.0
 23
0.0
 33
0.0
 16
1.0
 26
0.0
 36
0.0
 17
0.0
 27
1.0
 37
0.0
 76
     0
330
1A
  0
LAYOUT
  5
21
102
{ACAD_XDICTIONARY
360
3577
102
}
102
{ACAD_REACTORS
330
19
102
}
330
19
100
AcDbPlotSettings
  1

  2
HP LaserJet 2100 Series PS
  4
Letter
  6

 40
5.365749835968017
 41
5.535080909729003
 42
5.1964111328125
 43
5.027069091796875
 44
215.8999938964844
 45
279.3999938964844
 46
0.0
 47
0.0
 48
0.0
 49
0.0
140
0.0
141
0.0
142
1.0
143
4.960239156363086
 70
 11952
 72
     0
 73
     0
 74
     2
  7
monochrome.ctb
 75
     0
147
0.2016031825234034
148
0.0
149
0.0
100
AcDbLayout
  1
Model
 70
     1
 71
     0
 10
0.0
 20
0.0
 11
12.0
 21
9.0
 12
0.0
 22
0.0
 32
0.0
 14
0.0
 24
0.0
 34
0.0
 15
0.0
 25
0.0
 35
0.0
146
0.0
 13
0.0
 23
0.0
 33
0.0
 16
1.0
 26
0.0
 36
0.0
 17
0.0
 27
1.0
 37
0.0
 76
     0
330
1E
1001
ACAD_PSEXT
1000
HP LaserJet 2100 Series PS
1000
HP LaserJet 2100 Series PS
1000
LPT1:
1000

1070
     0
  0
MATERIAL
  5
C0E
102
{ACAD_XDICTIONARY
360
C0F
102
}
102
{ACAD_REACTORS
330
A64
102
}
330
A64
100
AcDbMaterial
  1
Global
 72
     0
 73
     2
 43
0.0208333333333333
 43
0.0
 43
0.0
 43
0.0
 43
0.0
 43
0.0208333333333333
 43
0.0
 43
0.0
 43
0.0
 43
0.0
 43
1.0
 43
0.0
 43
0.0
 43
0.0
 43
0.0
 43
1.0
 77
     0
 78
     2
 47
0.0208333333333333
 47
0.0
 47
0.0
 47
0.0
 47
0.0
 47
0.0208333333333333
 47
0.0
 47
0.0
 47
0.0
 47
0.0
 47
1.0
 47
0.0
 47
0.0
 47
0.0
 47
0.0
 47
1.0
171
     0
172
     2
 49
0.0208333333333333
 49
0.0
 49
0.0
 49
0.0
 49
0.0
 49
0.0208333333333333
 49
0.0
 49
0.0
 49
0.0
 49
0.0
 49
1.0
 49
0.0
 49
0.0
 49
0.0
 49
0.0
 49
1.0
175
     0
176
     2
142
0.0208333333333333
142
0.0
142
0.0
142
0.0
142
0.0
142
0.0208333333333333
142
0.0
142
0.0
142
0.0
142
0.0
142
1.0
142
0.0
142
0.0
142
0.0
142
0.0
142
1.0
179
     0
270
     2
144
0.0208333333333333
144
0.0
144
0.0
144
0.0
144
0.0
144
0.0208333333333333
144
0.0
144
0.0
144
0.0
144
0.0
144
1.0
144
0.0
144
0.0
144
0.0
144
0.0
144
1.0
274
     2
147
0.0208333333333333
147
0.0
147
0.0
147
0.0
147
0.0
147
0.0208333333333333
147
0.0
147
0.0
147
0.0
147
0.0
147
1.0
147
0.0
147
0.0
147
0.0
147
0.0
147
1.0
  0
MLINESTYLE
  5
17
102
{ACAD_REACTORS
330
16
102
}
330
16
100
AcDbMlineStyle
  2
STANDARD
 70
     0
  3

 62
   256
 51
90.0
 52
90.0
 71
     2
 49
0.5
 62
   256
  6
BYLAYER
 49
-0.5
 62
   256
  6
BYLAYER
  0
ACDBPLACEHOLDER
  5
F
102
{ACAD_REACTORS
330
E
102
}
330
E
  0
TABLESTYLE
  5
A67
102
{ACAD_REACTORS
330
A66
102
}
330
A66
100
AcDbTableStyle
  3
Standard
 70
     0
 71
     0
 40
0.06
 41
0.06
280
     0
281
     0
  7
STANDARD
140
0.18
170
     2
 62
     0
 63
     7
283
     0
274
    -2
284
     1
 64
     0
275
    -2
285
     1
 65
     0
276
    -2
286
     1
 66
     0
277
    -2
287
     1
 67
     0
278
    -2
288
     1
 68
     0
279
    -2
289
     1
 69
     0
  7
STANDARD
140
0.25
170
     5
 62
     0
 63
     7
283
     0
274
    -2
284
     1
 64
     0
275
    -2
285
     1
 65
     0
276
    -2
286
     1
 66
     0
277
    -2
287
     1
 67
     0
278
    -2
288
     1
 68
     0
279
    -2
289
     1
 69
     0
  7
STANDARD
140
0.18
170
     5
 62
     0
 63
     7
283
     0
274
    -2
284
     1
 64
     0
275
    -2
285
     1
 65
     0
276
    -2
286
     1
 66
     0
277
    -2
287
     1
 67
     0
278
    -2
288
     1
 68
     0
279
    -2
289
     1
 69
     0
  0
DICTIONARYVAR
  5
AD5
102
{ACAD_REACTORS
330
AD4
102
}
330
AD4
100
DictionaryVariables
280
     0
  1
STANDARD
  0
DICTIONARYVAR
  5
AD6
102
{ACAD_REACTORS
330
AD4
102
}
330
AD4
100
DictionaryVariables
280
     0
  1
2
  0
DICTIONARYVAR
  5
AD7
102
{ACAD_REACTORS
330
AD4
102
}
330
AD4
100
DictionaryVariables
280
     0
  1

  0
DICTIONARY
  5
3575
330
1D
100
AcDbDictionary
280
     1
281
     1
  3
ACAD_XREC_ROUNDTRIP
360
3576
  0
DICTIONARY
  5
3577
330
21
100
AcDbDictionary
280
     1
281
     1
  3
ACAD_XREC_ROUNDTRIP
360
3578
  0
DICTIONARY
  5
C0F
330
C0E
100
AcDbDictionary
280
     1
281
     1
  3
ACAD_XREC_ROUNDTRIP
360
C10
  3
BUMPTILE
360
C11
  3
DIFFUSETILE
360
C12
  3
OPACITYTILE
360
C13
  3
REFLECTIONTILE
360
C14
  3
REFRACTIONTILE
360
C15
  3
SPECULARTILE
360
C16
  0
XRECORD
  5
3576
102
{ACAD_REACTORS
330
3575
102
}
330
3575
100
AcDbXrecord
280
     1
102
SHADEPLOT
 70
     0
102
SHADEPLOTRESLEVEL
 70
     2
102
SHADEPLOTCUSTOMDPI
 70
   300
  0
XRECORD
  5
3578
102
{ACAD_REACTORS
330
3577
102
}
330
3577
100
AcDbXrecord
280
     1
102
SHADEPLOT
 70
     0
102
SHADEPLOTRESLEVEL
 70
     2
102
SHADEPLOTCUSTOMDPI
 70
   300
  0
XRECORD
  5
C10
102
{ACAD_REACTORS
330
C0F
102
}
330
C0F
100
AcDbXrecord
280
     1
102
MATERIAL
148
0.0
149
0.0
149
0.0
 93
        0
 94
      127
282
     0
 72
     0
 77
     0
171
     0
175
     0
179
     0
273
     0
  0
XRECORD
  5
C11
102
{ACAD_REACTORS
330
C0F
102
}
330
C0F
100
AcDbXrecord
280
     1
270
     1
271
     1
  0
XRECORD
  5
C12
102
{ACAD_REACTORS
330
C0F
102
}
330
C0F
100
AcDbXrecord
280
     1
270
     1
271
     1
  0
XRECORD
  5
C13
102
{ACAD_REACTORS
330
C0F
102
}
330
C0F
100
AcDbXrecord
280
     1
270
     1
271
     1
  0
XRECORD
  5
C14
102
{ACAD_REACTORS
330
C0F
102
}
330
C0F
100
AcDbXrecord
280
     1
270
     1
271
     1
  0
XRECORD
  5
C15
102
{ACAD_REACTORS
330
C0F
102
}
330
C0F
100
AcDbXrecord
280
     1
270
     1
271
     1
  0
XRECORD
  5
C16
102
{ACAD_REACTORS
330
C0F
102
}
330
C0F
100
AcDbXrecord
280
     1
270
     1
271
     1
  0
ENDSEC
  0
EOF
