  0
SECTION
  2
HEADER
  9
$ACADVER
  1
AC1015
  9
$ACADMAINTVER
 70
     6
  9
$DWGCODEPAGE
  3
ANSI_1252
  9
$INSBASE
 10
0.0
 20
0.0
 30
0.0
  9
$EXTMIN
 10
-1.922239948462654
 20
-0.0258883476483184
 30
0.0
  9
$EXTMAX
 10
1.917769246523139
 20
14.78125000000001
 30
0.0
  9
$LIMMIN
 10
0.0
 20
0.0
  9
$LIMMAX
 10
24.0
 20
31.5
  9
$ORTHOMODE
 70
     0
  9
$REGENMODE
 70
     1
  9
$FILLMODE
 70
     1
  9
$QTEXTMODE
 70
     0
  9
$MIRRTEXT
 70
     0
  9
$LTSCALE
 40
0.5
  9
$ATTMODE
 70
     1
  9
$TEXTSIZE
 40
0.27
  9
$TRACEWID
 40
0.05
  9
$TEXTSTYLE
  7
STANDARD
  9
$CLAYER
  8
0
  9
$CELTYPE
  6
CONTINUOUS
  9
$CECOLOR
 62
   256
  9
$CELTSCALE
 40
1.0
  9
$DISPSILH
 70
     0
  9
$DIMSCALE
 40
3.0
  9
$DIMASZ
 40
0.125
  9
$DIMEXO
 40
0.062
  9
$DIMDLI
 40
0.375
  9
$DIMRND
 40
0.0
  9
$DIMDLE
 40
0.0
  9
$DIMEXE
 40
0.08
  9
$DIMTP
 40
0.0
  9
$DIMTM
 40
0.0
  9
$DIMTXT
 40
0.09
  9
$DIMCEN
 40
-0.03125
  9
$DIMTSZ
 40
0.0
  9
$DIMTOL
 70
     0
  9
$DIMLIM
 70
     0
  9
$DIMTIH
 70
     1
  9
$DIMTOH
 70
     1
  9
$DIMSE1
 70
     0
  9
$DIMSE2
 70
     0
  9
$DIMTAD
 70
     0
  9
$DIMZIN
 70
     0
  9
$DIMBLK
  1

  9
$DIMASO
 70
     1
  9
$DIMSHO
 70
     0
  9
$DIMPOST
  1

  9
$DIMAPOST
  1

  9
$DIMALT
 70
     0
  9
$DIMALTD
 70
     2
  9
$DIMALTF
 40
25.4
  9
$DIMLFAC
 40
1.0
  9
$DIMTOFL
 70
     0
  9
$DIMTVP
 40
0.0
  9
$DIMTIX
 70
     0
  9
$DIMSOXD
 70
     0
  9
$DIMSAH
 70
     0
  9
$DIMBLK1
  1

  9
$DIMBLK2
  1

  9
$DIMSTYLE
  2
STANDARD
  9
$DIMCLRD
 70
     0
  9
$DIMCLRE
 70
     0
  9
$DIMCLRT
 70
     0
  9
$DIMTFAC
 40
1.0
  9
$DIMGAP
 40
0.09375
  9
$DIMJUST
 70
     0
  9
$DIMSD1
 70
     0
  9
$DIMSD2
 70
     0
  9
$DIMTOLJ
 70
     1
  9
$DIMTZIN
 70
     0
  9
$DIMALTZ
 70
     0
  9
$DIMALTTZ
 70
     0
  9
$DIMUPT
 70
     1
  9
$DIMDEC
 70
     5
  9
$DIMTDEC
 70
     4
  9
$DIMALTU
 70
     2
  9
$DIMALTTD
 70
     2
  9
$DIMTXSTY
  7
STANDARD
  9
$DIMAUNIT
 70
     0
  9
$DIMADEC
 70
     0
  9
$DIMALTRND
 40
0.0
  9
$DIMAZIN
 70
     0
  9
$DIMDSEP
 70
    46
  9
$DIMATFIT
 70
     3
  9
$DIMFRAC
 70
     2
  9
$DIMLDRBLK
  1

  9
$DIMLUNIT
 70
     5
  9
$DIMLWD
 70
    -2
  9
$DIMLWE
 70
    -2
  9
$DIMTMOVE
 70
     0
  9
$LUNITS
 70
     5
  9
$LUPREC
 70
     5
  9
$SKETCHINC
 40
0.03125
  9
$FILLETRAD
 40
0.0937
  9
$AUNITS
 70
     0
  9
$AUPREC
 70
     0
  9
$MENU
  1
ACAD
  9
$ELEVATION
 40
0.0
  9
$PELEVATION
 40
0.0
  9
$THICKNESS
 40
0.0
  9
$LIMCHECK
 70
     0
  9
$CHAMFERA
 40
0.0
  9
$CHAMFERB
 40
0.0
  9
$CHAMFERC
 40
0.0
  9
$CHAMFERD
 40
0.0
  9
$SKPOLY
 70
     0
  9
$TDCREATE
 40
2449282.963589584
  9
$TDUCREATE
 40
2449283.296922917
  9
$TDUPDATE
 40
2454181.832607894
  9
$TDUUPDATE
 40
2454182.165941227
  9
$TDINDWG
 40
0.4411504514
  9
$TDUSRTIMER
 40
0.4411504514
  9
$USRTIMER
 70
     1
  9
$ANGBASE
 50
0.0
  9
$ANGDIR
 70
     0
  9
$PDMODE
 70
     0
  9
$PDSIZE
 40
0.0
  9
$PLINEWID
 40
0.0
  9
$SPLFRAME
 70
     0
  9
$SPLINETYPE
 70
     6
  9
$SPLINESEGS
 70
     8
  9
$HANDSEED
  5
10C
  9
$SURFTAB1
 70
     6
  9
$SURFTAB2
 70
     6
  9
$SURFTYPE
 70
     6
  9
$SURFU
 70
     6
  9
$SURFV
 70
     6
  9
$UCSBASE
  2

  9
$UCSNAME
  2

  9
$UCSORG
 10
0.0
 20
0.0
 30
0.0
  9
$UCSXDIR
 10
1.0
 20
0.0
 30
0.0
  9
$UCSYDIR
 10
0.0
 20
1.0
 30
0.0
  9
$UCSORTHOREF
  2

  9
$UCSORTHOVIEW
 70
     0
  9
$UCSORGTOP
 10
0.0
 20
0.0
 30
0.0
  9
$UCSORGBOTTOM
 10
0.0
 20
0.0
 30
0.0
  9
$UCSORGLEFT
 10
0.0
 20
0.0
 30
0.0
  9
$UCSORGRIGHT
 10
0.0
 20
0.0
 30
0.0
  9
$UCSORGFRONT
 10
0.0
 20
0.0
 30
0.0
  9
$UCSORGBACK
 10
0.0
 20
0.0
 30
0.0
  9
$PUCSBASE
  2

  9
$PUCSNAME
  2

  9
$PUCSORG
 10
0.0
 20
0.0
 30
0.0
  9
$PUCSXDIR
 10
1.0
 20
0.0
 30
0.0
  9
$PUCSYDIR
 10
0.0
 20
1.0
 30
0.0
  9
$PUCSORTHOREF
  2

  9
$PUCSORTHOVIEW
 70
     0
  9
$PUCSORGTOP
 10
0.0
 20
0.0
 30
0.0
  9
$PUCSORGBOTTOM
 10
0.0
 20
0.0
 30
0.0
  9
$PUCSORGLEFT
 10
0.0
 20
0.0
 30
0.0
  9
$PUCSORGRIGHT
 10
0.0
 20
0.0
 30
0.0
  9
$PUCSORGFRONT
 10
0.0
 20
0.0
 30
0.0
  9
$PUCSORGBACK
 10
0.0
 20
0.0
 30
0.0
  9
$USERI1
 70
     0
  9
$USERI2
 70
     0
  9
$USERI3
 70
     0
  9
$USERI4
 70
     0
  9
$USERI5
 70
     0
  9
$USERR1
 40
0.0
  9
$USERR2
 40
0.0
  9
$USERR3
 40
0.0
  9
$USERR4
 40
0.0
  9
$USERR5
 40
0.0
  9
$WORLDVIEW
 70
     1
  9
$SHADEDGE
 70
     3
  9
$SHADEDIF
 70
    70
  9
$TILEMODE
 70
     1
  9
$MAXACTVP
 70
    16
  9
$PINSBASE
 10
0.0
 20
0.0
 30
0.0
  9
$PLIMCHECK
 70
     0
  9
$PEXTMIN
 10
1.000000000000000E+20
 20
1.000000000000000E+20
 30
1.000000000000000E+20
  9
$PEXTMAX
 10
-1.000000000000000E+20
 20
-1.000000000000000E+20
 30
-1.000000000000000E+20
  9
$PLIMMIN
 10
0.0
 20
0.0
  9
$PLIMMAX
 10
12.0
 20
9.0
  9
$UNITMODE
 70
     0
  9
$VISRETAIN
 70
     0
  9
$PLINEGEN
 70
     0
  9
$PSLTSCALE
 70
     0
  9
$TREEDEPTH
 70
  3020
  9
$CMLSTYLE
  2
STANDARD
  9
$CMLJUST
 70
     0
  9
$CMLSCALE
 40
1.0
  9
$PROXYGRAPHICS
 70
     1
  9
$MEASUREMENT
 70
     0
  9
$CELWEIGHT
370
    -1
  9
$ENDCAPS
280
     0
  9
$JOINSTYLE
280
     0
  9
$LWDISPLAY
290
     0
  9
$INSUNITS
 70
     0
  9
$HYPERLINKBASE
  1

  9
$STYLESHEET
  1

  9
$XEDIT
290
     1
  9
$CEPSNTYPE
380
     0
  9
$PSTYLEMODE
290
     1
  9
$FINGERPRINTGUID
  2
{9AEF6402-B412-4E58-88B6-13A735751DF0}
  9
$VERSIONGUID
  2
{BBBCF4A7-2020-48E4-97F6-58DFFAA52804}
  9
$EXTNAMES
290
     1
  9
$PSVPSCALE
 40
0.0
  9
$OLESTARTUP
290
     0
  0
ENDSEC
  0
SECTION
  2
CLASSES
  0
CLASS
  1
DICTIONARYVAR
  2
AcDbDictionaryVar
  3
AutoCAD 2000
 90
        0
280
     0
281
     0
  0
CLASS
  1
LWPOLYLINE
  2
AcDbPolyline
  3
AutoCAD 2000
 90
        0
280
     0
281
     1
  0
CLASS
  1
ACDBDICTIONARYWDFLT
  2
AcDbDictionaryWithDefault
  3
AutoCAD 2000
 90
        0
280
     0
281
     0
  0
CLASS
  1
ACDBPLACEHOLDER
  2
AcDbPlaceHolder
  3
ObjectDBX Classes
 90
        0
280
     0
281
     0
  0
CLASS
  1
LAYOUT
  2
AcDbLayout
  3
ObjectDBX Classes
 90
        0
280
     0
281
     0
  0
CLASS
  1
TABLESTYLE
  2
AcDbTableStyle
  3
ObjectDBX Classes
 90
     2047
280
     1
281
     0
  0
CLASS
  1
SORTENTSTABLE
  2
AcDbSortentsTable
  3
AutoCAD 2000
 90
        0
280
     0
281
     0
  0
ENDSEC
  0
SECTION
  2
TABLES
  0
TABLE
  2
VPORT
  5
19
330
0
100
AcDbSymbolTable
 70
     2
  0
VPORT
  5
FE
330
19
100
AcDbSymbolTableRecord
100
AcDbViewportTableRecord
  2
*Active
 70
     0
 10
0.0
 20
0.0
 11
1.0
 21
1.0
 12
15.23922457586114
 22
15.73630145877402
 13
0.0
 23
0.0
 14
0.063
 24
0.063
 15
0.25
 25
0.25
 16
0.0
 26
0.0
 36
1.0
 17
0.0
 27
0.0
 37
0.0
 40
31.77022684175197
 41
1.814583333333333
 42
50.0
 43
0.0
 44
0.0
 50
0.0
 51
0.0
 71
     0
 72
   100
 73
     1
 74
     0
 75
     0
 76
     0
 77
     0
 78
     2
281
     0
 65
     1
110
0.0
120
0.0
130
0.0
111
1.0
121
0.0
131
0.0
112
0.0
122
1.0
132
0.0
 79
     0
146
0.0
  0
ENDTAB
  0
TABLE
  2
LTYPE
  5
14
330
0
100
AcDbSymbolTable
 70
     2
  0
LTYPE
  5
15
330
14
100
AcDbSymbolTableRecord
100
AcDbLinetypeTableRecord
  2
BYBLOCK
 70
     0
  3

 72
    65
 73
     0
 40
0.0
  0
LTYPE
  5
16
330
14
100
AcDbSymbolTableRecord
100
AcDbLinetypeTableRecord
  2
BYLAYER
 70
     0
  3

 72
    65
 73
     0
 40
0.0
  0
LTYPE
  5
8
330
14
100
AcDbSymbolTableRecord
100
AcDbLinetypeTableRecord
  2
CONTINUOUS
 70
     0
  3
Solid line
 72
    65
 73
     0
 40
0.0
  0
LTYPE
  5
52
330
14
100
AcDbSymbolTableRecord
100
AcDbLinetypeTableRecord
  2
HIDDEN2
 70
     0
  3
Hidden (.5x) _ _ _ _ _ _ _ _ _ _ _ _ _ _ _ _ _
 72
    65
 73
     2
 40
0.1875
 49
0.125
 74
     0
 49
-0.0625
 74
     0
  0
ENDTAB
  0
TABLE
  2
LAYER
  5
10
330
0
100
AcDbSymbolTable
 70
     2
  0
LAYER
  5
4
330
10
100
AcDbSymbolTableRecord
100
AcDbLayerTableRecord
  2
0
 70
     0
 62
     7
  6
CONTINUOUS
370
    -3
390
5
  0
LAYER
  5
22
330
10
100
AcDbSymbolTableRecord
100
AcDbLayerTableRecord
  2
OBJECT
 70
     0
 62
     7
  6
CONTINUOUS
370
    -3
390
5
  0
ENDTAB
  0
TABLE
  2
STYLE
  5
11
330
0
100
AcDbSymbolTable
 70
     1
  0
STYLE
  5
12
330
11
100
AcDbSymbolTableRecord
100
AcDbTextStyleTableRecord
  2
STANDARD
 70
     0
 40
0.0
 41
1.0
 50
0.0
 71
     0
 42
0.27
  3
TXT
  4

  0
ENDTAB
  0
TABLE
  2
VIEW
  5
17
330
0
100
AcDbSymbolTable
 70
     0
  0
ENDTAB
  0
TABLE
  2
UCS
  5
18
330
0
100
AcDbSymbolTable
 70
     0
  0
ENDTAB
  0
TABLE
  2
APPID
  5
1B
330
0
100
AcDbSymbolTable
 70
     1
  0
APPID
  5
1C
330
1B
100
AcDbSymbolTableRecord
100
AcDbRegAppTableRecord
  2
ACAD
 70
     0
  0
ENDTAB
  0
TABLE
  2
DIMSTYLE
  5
1D
330
0
100
AcDbSymbolTable
 70
     1
100
AcDbDimStyleTable
  0
DIMSTYLE
105
24
330
1D
100
AcDbSymbolTableRecord
100
AcDbDimStyleTableRecord
  2
STANDARD
 70
     0
  3

  4

340
12
  0
ENDTAB
  0
TABLE
  2
BLOCK_RECORD
  5
1
330
0
100
AcDbSymbolTable
 70
     1
  0
BLOCK_RECORD
  5
2
102
{ACAD_XDICTIONARY
360
F0
102
}
330
1
100
AcDbSymbolTableRecord
100
AcDbBlockTableRecord
  2
*MODEL_SPACE
340
A
  0
BLOCK_RECORD
  5
C
330
1
100
AcDbSymbolTableRecord
100
AcDbBlockTableRecord
  2
*PAPER_SPACE
340
F
  0
BLOCK_RECORD
  5
40
330
1
100
AcDbSymbolTableRecord
100
AcDbBlockTableRecord
  2
A$C0B730322
340
0
102
{BLKREFS
331
AE
331
C5
102
}
  0
ENDTAB
  0
ENDSEC
  0
SECTION
  2
BLOCKS
  0
BLOCK
  5
3
330
2
100
AcDbEntity
  8
0
100
AcDbBlockBegin
  2
*MODEL_SPACE
 70
     0
 10
0.0
 20
0.0
 30
0.0
  3
*MODEL_SPACE
  1

  4

  0
ENDBLK
  5
9
330
2
100
AcDbEntity
  8
0
100
AcDbBlockEnd
  0
BLOCK
  5
D
330
C
100
AcDbEntity
 67
     1
  8
0
100
AcDbBlockBegin
  2
*PAPER_SPACE
 70
     0
 10
0.0
 20
0.0
 30
0.0
  3
*PAPER_SPACE
  1

  4

  0
ENDBLK
  5
E
330
C
100
AcDbEntity
 67
     1
  8
0
100
AcDbBlockEnd
  0
BLOCK
  5
47
330
40
100
AcDbEntity
  8
0
100
AcDbBlockBegin
  2
A$C0B730322
 70
     0
 10
0.0
 20
0.0
 30
0.0
  3
A$C0B730322
  1

  4

  0
ARC
  5
41
330
40
100
AcDbEntity
  8
OBJECT
100
AcDbCircle
 10
0.2852612510982731
 20
0.4117232809782259
 30
0.0
 40
0.1881
100
AcDbArc
 50
135.0
 51
205.033699837247
  0
ARC
  5
42
330
40
100
AcDbEntity
  8
OBJECT
100
AcDbCircle
 10
0.3699461014123742
 20
0.2303945602099518
 30
0.0
 40
0.3762
100
AcDbArc
 50
135.0
 51
204.0763743990387
  0
LINE
  5
43
330
40
100
AcDbEntity
  8
OBJECT
100
AcDbLine
 10
0.195598223669279
 20
0.1591894630226669
 30
0.0
 11
0.114831542366904
 21
0.3321285300096974
 31
0.0
  0
ARC
  5
44
330
40
100
AcDbEntity
  8
OBJECT
100
AcDbCircle
 10
-0.1452611937934556
 20
-0.0000000389143828
 30
0.0
 40
0.3762
100
AcDbArc
 50
0.0000000000001018
 51
25.03369983724715
  0
ARC
  5
45
330
40
100
AcDbEntity
  8
OBJECT
100
AcDbCircle
 10
-0.1452611937934485
 20
0.0001861047469411
 30
0.0
 40
0.1881
100
AcDbArc
 50
0.0000000000002976
 51
24.07637439904274
  0
LINE
  5
46
330
40
100
AcDbEntity
  8
OBJECT
100
AcDbLine
 10
0.1039325303299989
 20
0.4964081312923305
 30
0.0
 11
0.2309388062065452
 21
0.6234144071688768
 31
0.0
  0
ENDBLK
  5
48
330
40
100
AcDbEntity
  8
0
100
AcDbBlockEnd
  0
ENDSEC
  0
SECTION
  2
ENTITIES
  0
LINE
  5
99
330
2
100
AcDbEntity
  8
0
100
AcDbLine
 10
0.1537646490302533
 20
2.46361502044477
 30
0.0
 11
0.1537646490302533
 21
14.65624999999999
 31
0.0
  0
LINE
  5
9A
330
2
100
AcDbEntity
  8
0
 48
10.0
100
AcDbLine
 10
1.77876464903028
 20
14.65625000000001
 30
0.0
 11
1.782935350969761
 21
3.437612512137005
 31
0.0
  0
LINE
  5
9B
330
2
100
AcDbEntity
  8
0
 48
10.0
100
AcDbLine
 10
-1.783235350969796
 20
14.65625000000001
 30
0.0
 11
-1.787406052909277
 21
3.437612512137005
 31
0.0
  0
LINE
  5
9C
330
2
100
AcDbEntity
  8
0
100
AcDbLine
 10
-0.1582353509697692
 20
2.46361502044477
 30
0.0
 11
-0.1582353509697692
 21
14.65624999999999
 31
0.0
  0
LINE
  5
9D
330
2
100
AcDbEntity
  8
0
 48
10.0
100
AcDbLine
 10
-1.787706052909272
 20
0.4675665227196504
 30
0.0
 11
1.783235350969757
 21
0.4675665227196504
 31
0.0
  0
LINE
  5
9E
330
2
100
AcDbEntity
  8
0
 48
10.0
100
AcDbLine
 10
-1.751985350969757
 20
0.0
 30
0.0
 11
1.751985350969757
 21
0.0
 31
0.0
  0
LINE
  5
9F
330
2
100
AcDbEntity
  8
0
 48
10.0
100
AcDbLine
 10
-1.721235350969757
 20
0.09375
 30
0.0
 11
1.721235350969756
 21
0.09375
 31
0.0
  0
CIRCLE
  5
A0
330
2
100
AcDbEntity
  8
0
 48
10.0
100
AcDbCircle
 10
-0.9082353509697692
 20
2.232638888888872
 30
0.0
 40
0.078
  0
LINE
  5
A1
330
2
100
AcDbEntity
  8
0
 48
10.0
100
AcDbLine
 10
-0.1582353509697692
 20
2.46361502044477
 30
0.0
 11
-1.689485350969769
 21
0.6387399034730148
 31
0.0
  0
LINE
  5
A2
330
2
100
AcDbEntity
  8
0
  6
Continuous
100
AcDbLine
 10
-1.787706052909273
 20
0.1557499999999994
 30
0.0
 11
-1.787706052909273
 21
3.125998360926037
 31
0.0
  0
LINE
  5
A3
330
2
100
AcDbEntity
  8
0
  6
Continuous
100
AcDbLine
 10
-1.881456052909273
 20
0.125
 30
0.0
 11
-1.881456052909273
 21
3.125998360926037
 31
0.0
  0
ARC
  5
A4
330
2
100
AcDbEntity
  8
0
100
AcDbCircle
 10
-1.756456052909273
 20
0.125
 30
0.0
 40
0.125
100
AcDbArc
 50
180.0
 51
270.0
  0
LINE
  5
A5
330
2
100
AcDbEntity
  8
0
  6
Continuous
100
AcDbLine
 10
-1.772081052909273
 20
0.3863766411148468
 30
0.0
 11
-1.740831052909273
 21
0.4405032288513819
 31
0.0
  0
ARC
  5
A6
330
2
100
AcDbEntity
  8
0
100
AcDbCircle
 10
-1.725706052909271
 20
0.1557499999999994
 30
0.0
 40
0.062
100
AcDbArc
 50
180.0
 51
270.0
  0
POINT
  5
A7
330
2
100
AcDbEntity
  8
0
  6
ByBlock
 48
10.0
100
AcDbPoint
 10
-1.783235350969757
 20
0.1557499999999994
 30
0.0
  0
LINE
  5
A8
330
2
100
AcDbEntity
  8
0
  6
Continuous
100
AcDbLine
 10
-1.36123535096976
 20
0.09375
 30
0.0
 11
-1.36123535096976
 21
0.0
 31
0.0
  0
LINE
  5
A9
330
2
100
AcDbEntity
  8
0
  6
Continuous
100
AcDbLine
 10
-1.080235350969754
 20
0.09375
 30
0.0
 11
-1.080235350969754
 21
0.0
 31
0.0
  0
ELLIPSE
  5
AA
330
2
100
AcDbEntity
  8
0
  6
Continuous
100
AcDbEllipse
 10
-1.778334135193705
 20
0.5684606763358744
 30
0.0
 11
0.02516453530990528
 21
-0.09163408023333187
 31
0.0
210
0.0
220
0.0
230
1.0
 40
0.933289939707793
 41
-0.341179514948071
 42
1.366392480241568
  0
LINE
  5
AB
330
2
100
AcDbEntity
  8
0
  6
Continuous
100
AcDbLine
 10
-1.689485350969773
 20
0.7506426416597449
 30
0.0
 11
-1.689485350969769
 21
0.5728573583401939
 31
0.0
  0
ELLIPSE
  5
AC
330
2
100
AcDbEntity
  8
0
  6
Continuous
100
AcDbEllipse
 10
-1.778334135193709
 20
0.7550393236640609
 30
0.0
 11
0.02516453530990182
 21
0.09163408023333282
 31
0.0
210
0.0
220
0.0
230
-1.0
 40
0.9332899397077927
 41
-0.341179514948071
 42
1.366392480241568
  0
LINE
  5
AD
330
2
100
AcDbEntity
  8
0
  6
Continuous
100
AcDbLine
 10
-1.881456052909273
 20
0.4999999999999982
 30
0.0
 11
-1.787706052909273
 21
0.5
 31
0.0
  0
INSERT
  5
AE
330
2
100
AcDbEntity
  8
0
  6
Continuous
100
AcDbBlockReference
  2
A$C0B730322
 10
-1.902875456012549
 20
3.125905308552564
 30
0.0
 41
0.5
 42
0.5
 43
0.5
  0
CIRCLE
  5
AF
330
2
100
AcDbEntity
  8
0
 48
10.0
100
AcDbCircle
 10
-0.9707353509697407
 20
4.281250000000007
 30
0.0
 40
0.078
  0
CIRCLE
  5
B0
330
2
100
AcDbEntity
  8
0
 48
10.0
100
AcDbCircle
 10
-0.9707353509697407
 20
5.281250000000007
 30
0.0
 40
0.078
  0
CIRCLE
  5
B1
330
2
100
AcDbEntity
  8
0
 48
10.0
100
AcDbCircle
 10
-0.9707353509697407
 20
6.281250000000007
 30
0.0
 40
0.078
  0
CIRCLE
  5
B2
330
2
100
AcDbEntity
  8
0
 48
10.0
100
AcDbCircle
 10
-1.533235350969741
 20
7.031250000000007
 30
0.0
 40
0.078
  0
LINE
  5
B3
330
2
100
AcDbEntity
  8
0
  6
Continuous
100
AcDbLine
 10
1.783235350969757
 20
0.1557499999999994
 30
0.0
 11
1.783235350969757
 21
3.125998360926037
 31
0.0
  0
LINE
  5
B4
330
2
100
AcDbEntity
  8
0
  6
Continuous
100
AcDbLine
 10
1.876985350969757
 20
0.125
 30
0.0
 11
1.876985350969757
 21
3.125998360926037
 31
0.0
  0
LINE
  5
B5
330
2
100
AcDbEntity
  8
0
  6
HIDDEN2
100
AcDbLine
 10
0.3102646490302359
 20
0.4675665227196486
 30
0.0
 11
0.3102646490302359
 21
0.09375
 31
0.0
  0
LINE
  5
B6
330
2
100
AcDbEntity
  8
0
  6
HIDDEN2
100
AcDbLine
 10
-0.3459853509697641
 20
0.4675665227196486
 30
0.0
 11
-0.3459853509697641
 21
0.09375
 31
0.0
  0
LINE
  5
B7
330
2
100
AcDbEntity
  8
0
  6
Continuous
100
AcDbLine
 10
1.01376464903024
 20
0.09375
 30
0.0
 11
1.013764649030242
 21
0.0
 31
0.0
  0
LINE
  5
B8
330
2
100
AcDbEntity
  8
0
  6
Continuous
100
AcDbLine
 10
1.294764649030245
 20
0.09375
 30
0.0
 11
1.294764649030243
 21
0.0000000000000018
 31
0.0
  0
LINE
  5
B9
330
2
100
AcDbEntity
  8
0
  6
Continuous
100
AcDbLine
 10
1.767610350969757
 20
0.3863766411148468
 30
0.0
 11
1.736360350969757
 21
0.4405032288513819
 31
0.0
  0
POINT
  5
BA
330
2
100
AcDbEntity
  8
0
  6
ByBlock
 48
10.0
100
AcDbPoint
 10
1.778764649030241
 20
0.1557499999999994
 30
0.0
  0
ARC
  5
BB
330
2
100
AcDbEntity
  8
0
100
AcDbCircle
 10
1.721235350969756
 20
0.1557499999999994
 30
0.0
 40
0.062
100
AcDbArc
 50
270.0
 51
0.000000000000007
  0
ARC
  5
BC
330
2
100
AcDbEntity
  8
0
100
AcDbCircle
 10
1.751985350969757
 20
0.125
 30
0.0
 40
0.125
100
AcDbArc
 50
270.0
 51
0.000000000000007
  0
CIRCLE
  5
BD
330
2
100
AcDbEntity
  8
0
 48
10.0
100
AcDbCircle
 10
0.5287646490302533
 20
2.843750000000007
 30
0.0
 40
0.078
  0
LINE
  5
BE
330
2
100
AcDbEntity
  8
0
 48
10.0
100
AcDbLine
 10
0.1537646490302533
 20
2.46361502044477
 30
0.0
 11
1.689485350969757
 21
0.6334119212853935
 31
0.0
  0
CIRCLE
  5
BF
330
2
100
AcDbEntity
  8
0
 48
10.0
100
AcDbCircle
 10
-0.5332353509697692
 20
2.843750000000007
 30
0.0
 40
0.078
  0
LINE
  5
C0
330
2
100
AcDbEntity
  8
0
  6
Continuous
100
AcDbLine
 10
1.689485350969757
 20
0.7506426416597769
 30
0.0
 11
1.689485350969757
 21
0.5728573583402259
 31
0.0
  0
ELLIPSE
  5
C1
330
2
100
AcDbEntity
  8
0
  6
Continuous
100
AcDbEllipse
 10
1.778334135193693
 20
0.5684606763359081
 30
0.0
 11
-0.02516453530990354
 21
-0.09163408023333235
 31
0.0
210
0.0
220
0.0
230
-1.0
 40
0.933289939707793
 41
-0.341179514948071
 42
1.366392480241568
  0
ELLIPSE
  5
C2
330
2
100
AcDbEntity
  8
0
  6
Continuous
100
AcDbEllipse
 10
1.778334135193693
 20
0.7550393236640947
 30
0.0
 11
-0.02516453530990354
 21
0.09163408023333235
 31
0.0
210
0.0
220
0.0
230
1.0
 40
0.933289939707793
 41
-0.341179514948071
 42
1.366392480241568
  0
LINE
  5
C3
330
2
100
AcDbEntity
  8
0
  6
Continuous
100
AcDbLine
 10
1.876985350969757
 20
0.4999999999999982
 30
0.0
 11
1.783235350969757
 21
0.5
 31
0.0
  0
CIRCLE
  5
C4
330
2
100
AcDbEntity
  8
0
 48
10.0
100
AcDbCircle
 10
0.9037646490302533
 20
2.232638888888872
 30
0.0
 40
0.078
  0
INSERT
  5
C5
330
2
100
AcDbEntity
  8
0
  6
Continuous
100
AcDbBlockReference
  2
A$C0B730322
 10
1.898404754073034
 20
3.125905308552564
 30
0.0
 41
-0.5
 42
0.5
 43
0.5
  0
CIRCLE
  5
C6
330
2
100
AcDbEntity
  8
0
 48
10.0
100
AcDbCircle
 10
0.9662646490302249
 20
4.281250000000007
 30
0.0
 40
0.078
  0
CIRCLE
  5
C7
330
2
100
AcDbEntity
  8
0
 48
10.0
100
AcDbCircle
 10
0.9662646490302249
 20
5.281250000000007
 30
0.0
 40
0.078
  0
CIRCLE
  5
C8
330
2
100
AcDbEntity
  8
0
 48
10.0
100
AcDbCircle
 10
-0.4082353509697407
 20
7.531250000000007
 30
0.0
 40
0.078
  0
CIRCLE
  5
C9
330
2
100
AcDbEntity
  8
0
 48
10.0
100
AcDbCircle
 10
0.4037646490303244
 20
7.031250000000007
 30
0.0
 40
0.078
  0
CIRCLE
  5
CA
330
2
100
AcDbEntity
  8
0
 48
10.0
100
AcDbCircle
 10
0.9662646490302249
 20
6.281250000000007
 30
0.0
 40
0.078
  0
CIRCLE
  5
CB
330
2
100
AcDbEntity
  8
0
 48
10.0
100
AcDbCircle
 10
1.528764649030324
 20
7.531250000000007
 30
0.0
 40
0.078
  0
LINE
  5
CC
330
2
100
AcDbEntity
  8
0
 48
10.0
100
AcDbLine
 10
-0.2832353509697834
 20
14.78125000000001
 30
0.0
 11
-1.658235350969796
 21
14.78125000000001
 31
0.0
  0
CIRCLE
  5
CD
330
2
100
AcDbEntity
  8
0
 48
10.0
100
AcDbCircle
 10
-1.533235350969741
 20
9.031250000000007
 30
0.0
 40
0.078
  0
CIRCLE
  5
CE
330
2
100
AcDbEntity
  8
0
 48
10.0
100
AcDbCircle
 10
-1.533235350969741
 20
8.031250000000007
 30
0.0
 40
0.078
  0
CIRCLE
  5
CF
330
2
100
AcDbEntity
  8
0
 48
10.0
100
AcDbCircle
 10
-1.533235350969741
 20
10.03125000000001
 30
0.0
 40
0.078
  0
CIRCLE
  5
D0
330
2
100
AcDbEntity
  8
0
 48
10.0
100
AcDbCircle
 10
-1.533235350969739
 20
11.03125000000001
 30
0.0
 40
0.078
  0
CIRCLE
  5
D1
330
2
100
AcDbEntity
  8
0
 48
10.0
100
AcDbCircle
 10
-1.533235350969739
 20
12.03125000000001
 30
0.0
 40
0.078
  0
CIRCLE
  5
D2
330
2
100
AcDbEntity
  8
0
 48
10.0
100
AcDbCircle
 10
-1.533235350969739
 20
14.03125000000002
 30
0.0
 40
0.078
  0
CIRCLE
  5
D3
330
2
100
AcDbEntity
  8
0
 48
10.0
100
AcDbCircle
 10
-1.533235350969739
 20
13.03125000000001
 30
0.0
 40
0.078
  0
LINE
  5
D4
330
2
100
AcDbEntity
  8
0
100
AcDbLine
 10
-1.658235350969796
 20
14.78125000000001
 30
0.0
 11
-1.783235350969796
 21
14.65625000000001
 31
0.0
  0
CIRCLE
  5
D5
330
2
100
AcDbEntity
  8
0
 48
10.0
100
AcDbCircle
 10
0.4037646490303244
 20
9.031250000000007
 30
0.0
 40
0.078
  0
CIRCLE
  5
D6
330
2
100
AcDbEntity
  8
0
 48
10.0
100
AcDbCircle
 10
-0.4082353509697407
 20
8.531250000000007
 30
0.0
 40
0.078
  0
CIRCLE
  5
D7
330
2
100
AcDbEntity
  8
0
 48
10.0
100
AcDbCircle
 10
0.4037646490303244
 20
8.031250000000007
 30
0.0
 40
0.078
  0
CIRCLE
  5
D8
330
2
100
AcDbEntity
  8
0
 48
10.0
100
AcDbCircle
 10
-0.4082353509697407
 20
9.531250000000007
 30
0.0
 40
0.078
  0
CIRCLE
  5
D9
330
2
100
AcDbEntity
  8
0
 48
10.0
100
AcDbCircle
 10
0.4037646490303244
 20
10.03125000000001
 30
0.0
 40
0.078
  0
CIRCLE
  5
DA
330
2
100
AcDbEntity
  8
0
 48
10.0
100
AcDbCircle
 10
1.528764649030324
 20
8.531250000000007
 30
0.0
 40
0.078
  0
CIRCLE
  5
DB
330
2
100
AcDbEntity
  8
0
 48
10.0
100
AcDbCircle
 10
1.528764649030324
 20
9.531250000000007
 30
0.0
 40
0.078
  0
CIRCLE
  5
DC
330
2
100
AcDbEntity
  8
0
 48
10.0
100
AcDbCircle
 10
-0.4082353509697407
 20
11.53125000000001
 30
0.0
 40
0.078
  0
CIRCLE
  5
DD
330
2
100
AcDbEntity
  8
0
 48
10.0
100
AcDbCircle
 10
-0.4082353509697407
 20
10.53125000000001
 30
0.0
 40
0.078
  0
CIRCLE
  5
DE
330
2
100
AcDbEntity
  8
0
 48
10.0
100
AcDbCircle
 10
0.4037646490303262
 20
11.03125000000001
 30
0.0
 40
0.078
  0
CIRCLE
  5
DF
330
2
100
AcDbEntity
  8
0
 48
10.0
100
AcDbCircle
 10
-0.4082353509697407
 20
12.53125000000001
 30
0.0
 40
0.078
  0
CIRCLE
  5
E0
330
2
100
AcDbEntity
  8
0
 48
10.0
100
AcDbCircle
 10
0.4037646490303262
 20
12.03125000000001
 30
0.0
 40
0.078
  0
CIRCLE
  5
E1
330
2
100
AcDbEntity
  8
0
 48
10.0
100
AcDbCircle
 10
1.528764649030324
 20
11.53125000000001
 30
0.0
 40
0.078
  0
CIRCLE
  5
E2
330
2
100
AcDbEntity
  8
0
 48
10.0
100
AcDbCircle
 10
1.528764649030324
 20
10.53125000000001
 30
0.0
 40
0.078
  0
CIRCLE
  5
E3
330
2
100
AcDbEntity
  8
0
 48
10.0
100
AcDbCircle
 10
1.528764649030324
 20
12.53125000000001
 30
0.0
 40
0.078
  0
LINE
  5
E4
330
2
100
AcDbEntity
  8
0
 48
10.0
100
AcDbLine
 10
0.2787646490302675
 20
14.78125000000001
 30
0.0
 11
1.65376464903028
 21
14.78125000000001
 31
0.0
  0
CIRCLE
  5
E5
330
2
100
AcDbEntity
  8
0
 48
10.0
100
AcDbCircle
 10
0.4037646490303262
 20
14.03125000000002
 30
0.0
 40
0.078
  0
CIRCLE
  5
E6
330
2
100
AcDbEntity
  8
0
 48
10.0
100
AcDbCircle
 10
-0.4082353509697407
 20
13.53125000000001
 30
0.0
 40
0.078
  0
CIRCLE
  5
E7
330
2
100
AcDbEntity
  8
0
 48
10.0
100
AcDbCircle
 10
0.4037646490303262
 20
13.03125000000001
 30
0.0
 40
0.078
  0
LINE
  5
E8
330
2
100
AcDbEntity
  8
0
100
AcDbLine
 10
-0.1582353509697834
 20
14.53125000000001
 30
0.0
 11
-0.1582353509697834
 21
14.53125000000001
 31
0.0
  0
CIRCLE
  5
E9
330
2
100
AcDbEntity
  8
0
 48
10.0
100
AcDbCircle
 10
-0.4082353509697407
 20
14.53125000000002
 30
0.0
 40
0.078
  0
LINE
  5
EA
330
2
100
AcDbEntity
  8
0
100
AcDbLine
 10
-0.1582353509697834
 20
14.65625000000001
 30
0.0
 11
-0.2832353509697834
 21
14.78125000000001
 31
0.0
  0
LINE
  5
EB
330
2
100
AcDbEntity
  8
0
100
AcDbLine
 10
0.1537646490302675
 20
14.53125000000001
 30
0.0
 11
0.1537646490302675
 21
14.53125000000001
 31
0.0
  0
LINE
  5
EC
330
2
100
AcDbEntity
  8
0
100
AcDbLine
 10
0.1537646490302675
 20
14.65625000000001
 30
0.0
 11
0.2787646490302675
 21
14.78125000000001
 31
0.0
  0
CIRCLE
  5
ED
330
2
100
AcDbEntity
  8
0
 48
10.0
100
AcDbCircle
 10
1.528764649030324
 20
13.53125000000001
 30
0.0
 40
0.078
  0
CIRCLE
  5
EE
330
2
100
AcDbEntity
  8
0
 48
10.0
100
AcDbCircle
 10
1.528764649030324
 20
14.53125000000002
 30
0.0
 40
0.078
  0
LINE
  5
EF
330
2
100
AcDbEntity
  8
0
100
AcDbLine
 10
1.65376464903028
 20
14.78125000000001
 30
0.0
 11
1.77876464903028
 21
14.65625000000001
 31
0.0
  0
ENDSEC
  0
SECTION
  2
OBJECTS
  0
DICTIONARY
  5
7
330
0
100
AcDbDictionary
281
     1
  3
ACAD_COLOR
350
94
  3
ACAD_GROUP
350
1F
  3
ACAD_LAYOUT
350
B
  3
ACAD_MATERIAL
350
93
  3
ACAD_MLINESTYLE
350
20
  3
ACAD_PLOTSETTINGS
350
21
  3
ACAD_PLOTSTYLENAME
350
6
  3
ACAD_TABLESTYLE
350
95
  3
ACDBHEADERROUNDTRIPXREC
350
105
  3
AcDbVariableDictionary
350
8F
  0
DICTIONARY
  5
F0
330
2
100
AcDbDictionary
280
     1
281
     1
  3
ACAD_SORTENTS
360
F1
  0
DICTIONARY
  5
94
102
{ACAD_REACTORS
330
7
102
}
330
7
100
AcDbDictionary
281
     1
  0
DICTIONARY
  5
1F
102
{ACAD_REACTORS
330
7
102
}
330
7
100
AcDbDictionary
281
     1
  0
DICTIONARY
  5
B
102
{ACAD_REACTORS
330
7
102
}
330
7
100
AcDbDictionary
281
     1
  3
Layout1
350
F
  3
Model
350
A
  0
DICTIONARY
  5
93
102
{ACAD_REACTORS
330
7
102
}
330
7
100
AcDbDictionary
281
     1
  0
DICTIONARY
  5
20
102
{ACAD_REACTORS
330
7
102
}
330
7
100
AcDbDictionary
281
     1
  3
STANDARD
350
23
  0
DICTIONARY
  5
21
102
{ACAD_REACTORS
330
7
102
}
330
7
100
AcDbDictionary
281
     1
  0
ACDBDICTIONARYWDFLT
  5
6
102
{ACAD_REACTORS
330
7
102
}
330
7
100
AcDbDictionary
281
     1
  3
Normal
350
5
100
AcDbDictionaryWithDefault
340
5
  0
DICTIONARY
  5
95
102
{ACAD_REACTORS
330
7
102
}
330
7
100
AcDbDictionary
281
     1
  3
Standard
350
96
  0
DICTIONARY
  5
105
102
{ACAD_REACTORS
330
7
102
}
330
7
100
AcDbDictionary
281
     1
  3
COLORDICT
350
106
  3
MATERIALDICT
350
107
  0
DICTIONARY
  5
8F
102
{ACAD_REACTORS
330
7
102
}
330
7
100
AcDbDictionary
281
     1
  3
CTABLESTYLE
350
F9
  3
HIDETEXT
350
104
  0
SORTENTSTABLE
  5
F1
102
{ACAD_REACTORS
330
F0
102
}
330
F0
100
AcDbSortentsTable
330
2
331
E3
  5
E3
331
E6
  5
E6
331
E5
  5
E5
331
DD
  5
DD
331
BB
  5
BB
331
B6
  5
B6
331
EF
  5
EF
331
AE
  5
AE
331
B4
  5
B4
331
DB
  5
DB
331
A8
  5
A8
331
C2
  5
C2
331
E9
  5
E9
331
D0
  5
D0
331
C9
  5
C9
331
D6
  5
D6
331
A2
  5
A2
331
DE
  5
DE
331
CE
  5
CE
331
E7
  5
E7
331
E8
  5
E8
331
A0
  5
A0
331
D8
  5
D8
331
9F
  5
9F
331
9B
  5
9B
331
A6
  5
A6
331
A9
  5
A9
331
D7
  5
D7
331
DC
  5
DC
331
B0
  5
B0
331
C5
  5
C5
331
D2
  5
D2
331
E4
  5
E4
331
EB
  5
EB
331
AC
  5
AC
331
B5
  5
B5
331
C4
  5
C4
331
A3
  5
A3
331
CC
  5
CC
331
BA
  5
BA
331
C1
  5
C1
331
B1
  5
B1
331
B2
  5
B2
331
BE
  5
BE
331
EA
  5
EA
331
DA
  5
DA
331
DF
  5
DF
331
B3
  5
B3
331
D3
  5
D3
331
AA
  5
AA
331
E0
  5
E0
331
9A
  5
9A
331
A5
  5
A5
331
D9
  5
D9
331
BD
  5
BD
331
CF
  5
CF
331
C8
  5
C8
331
E1
  5
E1
331
B7
  5
B7
331
99
  5
99
331
AD
  5
AD
331
BF
  5
BF
331
CB
  5
CB
331
9D
  5
9D
331
D5
  5
D5
331
B9
  5
B9
331
C0
  5
C0
331
EE
  5
EE
331
D4
  5
D4
331
EC
  5
EC
331
BC
  5
BC
331
A7
  5
A7
331
A1
  5
A1
331
A4
  5
A4
331
CA
  5
CA
331
AF
  5
AF
331
C3
  5
C3
331
9C
  5
9C
331
CD
  5
CD
331
AB
  5
AB
331
C6
  5
C6
331
E2
  5
E2
331
D1
  5
D1
331
9E
  5
9E
331
ED
  5
ED
331
B8
  5
B8
331
C7
  5
C7
  0
LAYOUT
  5
F
102
{ACAD_REACTORS
330
B
102
}
102
{ACAD_XDICTIONARY
360
108
102
}
330
B
100
AcDbPlotSettings
  1

  2
X:\Program Files\AutoCAD2002\plotters\DWF ePlot (optimized for plotting).pc3
  4

  6

 40
0.0
 41
0.0
 42
0.0
 43
0.0
 44
0.0
 45
0.0
 46
0.0
 47
0.0
 48
0.0
 49
0.0
140
0.0
141
0.0
142
1.0
143
1.0
 70
   688
 72
     0
 73
     0
 74
     5
  7

 75
    16
147
1.0
148
0.0
149
0.0
100
AcDbLayout
  1
Layout1
 70
     0
 71
     1
 10
0.0
 20
0.0
 11
12.0
 21
9.0
 12
0.0
 22
0.0
 32
0.0
 14
1.000000000000000E+20
 24
1.000000000000000E+20
 34
1.000000000000000E+20
 15
-1.000000000000000E+20
 25
-1.000000000000000E+20
 35
-1.000000000000000E+20
146
0.0
 13
0.0
 23
0.0
 33
0.0
 16
1.0
 26
0.0
 36
0.0
 17
0.0
 27
1.0
 37
0.0
 76
     0
330
C
  0
LAYOUT
  5
A
102
{ACAD_REACTORS
330
B
102
}
102
{ACAD_XDICTIONARY
360
10A
102
}
330
B
100
AcDbPlotSettings
  1

  2
X:\Program Files\AutoCAD2002\plotters\DWF ePlot (optimized for plotting).pc3
  4

  6

 40
0.0
 41
0.0
 42
0.0
 43
0.0
 44
0.0
 45
0.0
 46
0.0
 47
0.0
 48
0.0
 49
0.0
140
0.0
141
0.0
142
1.0
143
1.0
 70
  1712
 72
     0
 73
     0
 74
     0
  7

 75
     0
147
1.0
148
0.0
149
0.0
100
AcDbLayout
  1
Model
 70
     1
 71
     0
 10
0.0
 20
0.0
 11
12.0
 21
9.0
 12
0.0
 22
0.0
 32
0.0
 14
0.0
 24
0.0
 34
0.0
 15
0.0
 25
0.0
 35
0.0
146
0.0
 13
0.0
 23
0.0
 33
0.0
 16
1.0
 26
0.0
 36
0.0
 17
0.0
 27
1.0
 37
0.0
 76
     0
330
2
  0
MLINESTYLE
  5
23
102
{ACAD_REACTORS
330
20
102
}
330
20
100
AcDbMlineStyle
  2
STANDARD
 70
     0
  3

 62
   256
 51
90.0
 52
90.0
 71
     2
 49
0.5
 62
   256
  6
BYLAYER
 49
-0.5
 62
   256
  6
BYLAYER
  0
ACDBPLACEHOLDER
  5
5
102
{ACAD_REACTORS
330
6
102
}
330
6
  0
ACAD_PROXY_OBJECT
  5
96
102
{ACAD_REACTORS
330
95
102
}
330
95
100
AcDbProxyObject
 90
      499
 91
      505
 95
   983063
 70
     0
 93
     1841
310
4214DD185B99185C9928B81E85EB51B8AE3F2E07A17AD46E2B8FC02B5E8DC0F42B1CFD028000000C1008070000C3001FDFF8000000C1003FBFF000000182007F7FE00000030400FEFFC00000060801FDFF8000000C1003FBFF00000018200000000000000681FA0B0000001820100E000186003FBFF000000182007F7FE000
310
00030400FEFFC00000060801FDFF8000000C1003FBFF000000182007F7FE000000304000AD7A3703D0AC73F4160000003040201C00030C007F7FE00000030400FEFFC00000060801FDFF8000000C1003FBFF000000182007F7FE00000030400FEFFC000000608000
340
12
340
12
340
12
 94
        0
  0
XRECORD
  5
106
102
{ACAD_REACTORS
330
105
102
}
330
105
100
AcDbXrecord
340
94
  0
XRECORD
  5
107
102
{ACAD_REACTORS
330
105
102
}
330
105
100
AcDbXrecord
340
93
  0
DICTIONARYVAR
  5
F9
102
{ACAD_REACTORS
330
8F
102
}
330
8F
100
DictionaryVariables
280
     0
  1
STANDARD
  0
DICTIONARYVAR
  5
104
102
{ACAD_REACTORS
330
8F
102
}
330
8F
100
DictionaryVariables
280
     0
  1
1
  0
DICTIONARY
  5
108
330
F
100
AcDbDictionary
280
     1
281
     1
  3
ACAD_XREC_ROUNDTRIP
360
109
  0
DICTIONARY
  5
10A
330
A
100
AcDbDictionary
280
     1
281
     1
  3
ACAD_XREC_ROUNDTRIP
360
10B
  0
XRECORD
  5
109
102
{ACAD_REACTORS
330
108
102
}
330
108
100
AcDbXrecord
102
SHADEPLOT
 70
     0
102
SHADEPLOTRESLEVEL
 70
     2
102
SHADEPLOTCUSTOMDPI
 70
   300
  0
XRECORD
  5
10B
102
{ACAD_REACTORS
330
10A
102
}
330
10A
100
AcDbXrecord
102
SHADEPLOT
 70
     0
102
SHADEPLOTRESLEVEL
 70
     2
102
SHADEPLOTCUSTOMDPI
 70
   300
  0
ENDSEC
  0
EOF
