  0
SECTION
  2
HEADER
  9
$ACADVER
  1
AC1015
  9
$ACADMAINTVER
 70
     6
  9
$DWGCODEPAGE
  3
ANSI_1252
  9
$INSBASE
 10
0.0
 20
0.0
 30
0.0
  9
$EXTMIN
 10
-1.966536821564579
 20
0.0
 30
0.0
  9
$EXTMAX
 10
1.966536821564579
 20
2.406000000000002
 30
0.0
  9
$LIMMIN
 10
0.0
 20
0.0
  9
$LIMMAX
 10
24.0
 20
31.5
  9
$ORTHOMODE
 70
     0
  9
$REGENMODE
 70
     1
  9
$FILLMODE
 70
     1
  9
$QTEXTMODE
 70
     0
  9
$MIRRTEXT
 70
     0
  9
$LTSCALE
 40
0.5
  9
$ATTMODE
 70
     1
  9
$TEXTSIZE
 40
0.27
  9
$TRACEWID
 40
0.05
  9
$TEXTSTYLE
  7
STANDARD
  9
$CLAYER
  8
0
  9
$CELTYPE
  6
CONTINUOUS
  9
$CECOLOR
 62
   256
  9
$CELTSCALE
 40
1.0
  9
$DISPSILH
 70
     0
  9
$DIMSCALE
 40
3.0
  9
$DIMASZ
 40
0.125
  9
$DIMEXO
 40
0.062
  9
$DIMDLI
 40
0.375
  9
$DIMRND
 40
0.0
  9
$DIMDLE
 40
0.0
  9
$DIMEXE
 40
0.08
  9
$DIMTP
 40
0.0
  9
$DIMTM
 40
0.0
  9
$DIMTXT
 40
0.09
  9
$DIMCEN
 40
-0.03125
  9
$DIMTSZ
 40
0.0
  9
$DIMTOL
 70
     0
  9
$DIMLIM
 70
     0
  9
$DIMTIH
 70
     1
  9
$DIMTOH
 70
     1
  9
$DIMSE1
 70
     0
  9
$DIMSE2
 70
     0
  9
$DIMTAD
 70
     0
  9
$DIMZIN
 70
     0
  9
$DIMBLK
  1

  9
$DIMASO
 70
     1
  9
$DIMSHO
 70
     0
  9
$DIMPOST
  1

  9
$DIMAPOST
  1

  9
$DIMALT
 70
     0
  9
$DIMALTD
 70
     2
  9
$DIMALTF
 40
25.4
  9
$DIMLFAC
 40
1.0
  9
$DIMTOFL
 70
     0
  9
$DIMTVP
 40
0.0
  9
$DIMTIX
 70
     0
  9
$DIMSOXD
 70
     0
  9
$DIMSAH
 70
     0
  9
$DIMBLK1
  1

  9
$DIMBLK2
  1

  9
$DIMSTYLE
  2
STANDARD
  9
$DIMCLRD
 70
     0
  9
$DIMCLRE
 70
     0
  9
$DIMCLRT
 70
     0
  9
$DIMTFAC
 40
1.0
  9
$DIMGAP
 40
0.09375
  9
$DIMJUST
 70
     0
  9
$DIMSD1
 70
     0
  9
$DIMSD2
 70
     0
  9
$DIMTOLJ
 70
     1
  9
$DIMTZIN
 70
     0
  9
$DIMALTZ
 70
     0
  9
$DIMALTTZ
 70
     0
  9
$DIMUPT
 70
     1
  9
$DIMDEC
 70
     5
  9
$DIMTDEC
 70
     4
  9
$DIMALTU
 70
     2
  9
$DIMALTTD
 70
     2
  9
$DIMTXSTY
  7
STANDARD
  9
$DIMAUNIT
 70
     0
  9
$DIMADEC
 70
     0
  9
$DIMALTRND
 40
0.0
  9
$DIMAZIN
 70
     0
  9
$DIMDSEP
 70
    46
  9
$DIMATFIT
 70
     3
  9
$DIMFRAC
 70
     2
  9
$DIMLDRBLK
  1

  9
$DIMLUNIT
 70
     5
  9
$DIMLWD
 70
    -2
  9
$DIMLWE
 70
    -2
  9
$DIMTMOVE
 70
     0
  9
$LUNITS
 70
     5
  9
$LUPREC
 70
     5
  9
$SKETCHINC
 40
0.03125
  9
$FILLETRAD
 40
0.0937
  9
$AUNITS
 70
     0
  9
$AUPREC
 70
     0
  9
$MENU
  1
ACAD
  9
$ELEVATION
 40
0.0
  9
$PELEVATION
 40
0.0
  9
$THICKNESS
 40
0.0
  9
$LIMCHECK
 70
     0
  9
$CHAMFERA
 40
0.0
  9
$CHAMFERB
 40
0.0
  9
$CHAMFERC
 40
0.0
  9
$CHAMFERD
 40
0.0
  9
$SKPOLY
 70
     0
  9
$TDCREATE
 40
2449282.963589584
  9
$TDUCREATE
 40
2449283.296922917
  9
$TDUPDATE
 40
2454181.832853113
  9
$TDUUPDATE
 40
2454182.166186447
  9
$TDINDWG
 40
0.4413479282
  9
$TDUSRTIMER
 40
0.4413479282
  9
$USRTIMER
 70
     1
  9
$ANGBASE
 50
0.0
  9
$ANGDIR
 70
     0
  9
$PDMODE
 70
     0
  9
$PDSIZE
 40
0.0
  9
$PLINEWID
 40
0.0
  9
$SPLFRAME
 70
     0
  9
$SPLINETYPE
 70
     6
  9
$SPLINESEGS
 70
     8
  9
$HANDSEED
  5
AE
  9
$SURFTAB1
 70
     6
  9
$SURFTAB2
 70
     6
  9
$SURFTYPE
 70
     6
  9
$SURFU
 70
     6
  9
$SURFV
 70
     6
  9
$UCSBASE
  2

  9
$UCSNAME
  2

  9
$UCSORG
 10
0.0
 20
0.0
 30
0.0
  9
$UCSXDIR
 10
1.0
 20
0.0
 30
0.0
  9
$UCSYDIR
 10
0.0
 20
1.0
 30
0.0
  9
$UCSORTHOREF
  2

  9
$UCSORTHOVIEW
 70
     0
  9
$UCSORGTOP
 10
0.0
 20
0.0
 30
0.0
  9
$UCSORGBOTTOM
 10
0.0
 20
0.0
 30
0.0
  9
$UCSORGLEFT
 10
0.0
 20
0.0
 30
0.0
  9
$UCSORGRIGHT
 10
0.0
 20
0.0
 30
0.0
  9
$UCSORGFRONT
 10
0.0
 20
0.0
 30
0.0
  9
$UCSORGBACK
 10
0.0
 20
0.0
 30
0.0
  9
$PUCSBASE
  2

  9
$PUCSNAME
  2

  9
$PUCSORG
 10
0.0
 20
0.0
 30
0.0
  9
$PUCSXDIR
 10
1.0
 20
0.0
 30
0.0
  9
$PUCSYDIR
 10
0.0
 20
1.0
 30
0.0
  9
$PUCSORTHOREF
  2

  9
$PUCSORTHOVIEW
 70
     0
  9
$PUCSORGTOP
 10
0.0
 20
0.0
 30
0.0
  9
$PUCSORGBOTTOM
 10
0.0
 20
0.0
 30
0.0
  9
$PUCSORGLEFT
 10
0.0
 20
0.0
 30
0.0
  9
$PUCSORGRIGHT
 10
0.0
 20
0.0
 30
0.0
  9
$PUCSORGFRONT
 10
0.0
 20
0.0
 30
0.0
  9
$PUCSORGBACK
 10
0.0
 20
0.0
 30
0.0
  9
$USERI1
 70
     0
  9
$USERI2
 70
     0
  9
$USERI3
 70
     0
  9
$USERI4
 70
     0
  9
$USERI5
 70
     0
  9
$USERR1
 40
0.0
  9
$USERR2
 40
0.0
  9
$USERR3
 40
0.0
  9
$USERR4
 40
0.0
  9
$USERR5
 40
0.0
  9
$WORLDVIEW
 70
     1
  9
$SHADEDGE
 70
     3
  9
$SHADEDIF
 70
    70
  9
$TILEMODE
 70
     1
  9
$MAXACTVP
 70
    16
  9
$PINSBASE
 10
0.0
 20
0.0
 30
0.0
  9
$PLIMCHECK
 70
     0
  9
$PEXTMIN
 10
1.000000000000000E+20
 20
1.000000000000000E+20
 30
1.000000000000000E+20
  9
$PEXTMAX
 10
-1.000000000000000E+20
 20
-1.000000000000000E+20
 30
-1.000000000000000E+20
  9
$PLIMMIN
 10
0.0
 20
0.0
  9
$PLIMMAX
 10
12.0
 20
9.0
  9
$UNITMODE
 70
     0
  9
$VISRETAIN
 70
     0
  9
$PLINEGEN
 70
     0
  9
$PSLTSCALE
 70
     0
  9
$TREEDEPTH
 70
  3020
  9
$CMLSTYLE
  2
STANDARD
  9
$CMLJUST
 70
     0
  9
$CMLSCALE
 40
1.0
  9
$PROXYGRAPHICS
 70
     1
  9
$MEASUREMENT
 70
     0
  9
$CELWEIGHT
370
    -1
  9
$ENDCAPS
280
     0
  9
$JOINSTYLE
280
     0
  9
$LWDISPLAY
290
     0
  9
$INSUNITS
 70
     0
  9
$HYPERLINKBASE
  1

  9
$STYLESHEET
  1

  9
$XEDIT
290
     1
  9
$CEPSNTYPE
380
     0
  9
$PSTYLEMODE
290
     1
  9
$FINGERPRINTGUID
  2
{9AEF6402-B412-4E58-88B6-13A735751DF0}
  9
$VERSIONGUID
  2
{5FB72A5F-2FB6-4C13-B212-01EBA46206DD}
  9
$EXTNAMES
290
     1
  9
$PSVPSCALE
 40
0.0
  9
$OLESTARTUP
290
     0
  0
ENDSEC
  0
SECTION
  2
CLASSES
  0
CLASS
  1
DICTIONARYVAR
  2
AcDbDictionaryVar
  3
AutoCAD 2000
 90
        0
280
     0
281
     0
  0
CLASS
  1
LWPOLYLINE
  2
AcDbPolyline
  3
AutoCAD 2000
 90
        0
280
     0
281
     1
  0
CLASS
  1
ACDBDICTIONARYWDFLT
  2
AcDbDictionaryWithDefault
  3
AutoCAD 2000
 90
        0
280
     0
281
     0
  0
CLASS
  1
ACDBPLACEHOLDER
  2
AcDbPlaceHolder
  3
ObjectDBX Classes
 90
        0
280
     0
281
     0
  0
CLASS
  1
LAYOUT
  2
AcDbLayout
  3
ObjectDBX Classes
 90
        0
280
     0
281
     0
  0
CLASS
  1
TABLESTYLE
  2
AcDbTableStyle
  3
ObjectDBX Classes
 90
     2047
280
     1
281
     0
  0
CLASS
  1
SORTENTSTABLE
  2
AcDbSortentsTable
  3
AutoCAD 2000
 90
        0
280
     0
281
     0
  0
ENDSEC
  0
SECTION
  2
TABLES
  0
TABLE
  2
VPORT
  5
19
330
0
100
AcDbSymbolTable
 70
     2
  0
VPORT
  5
A0
330
19
100
AcDbSymbolTableRecord
100
AcDbViewportTableRecord
  2
*Active
 70
     0
 10
0.0
 20
0.0
 11
1.0
 21
1.0
 12
15.21372945229932
 22
15.7495193848148
 13
0.0
 23
0.0
 14
0.063
 24
0.063
 15
0.25
 25
0.25
 16
0.0
 26
0.0
 36
1.0
 17
0.0
 27
0.0
 37
0.0
 40
31.74358737591882
 41
1.814583333333333
 42
50.0
 43
0.0
 44
0.0
 50
0.0
 51
0.0
 71
     0
 72
   100
 73
     1
 74
     0
 75
     0
 76
     0
 77
     0
 78
     2
281
     0
 65
     1
110
0.0
120
0.0
130
0.0
111
1.0
121
0.0
131
0.0
112
0.0
122
1.0
132
0.0
 79
     0
146
0.0
  0
ENDTAB
  0
TABLE
  2
LTYPE
  5
14
330
0
100
AcDbSymbolTable
 70
     2
  0
LTYPE
  5
15
330
14
100
AcDbSymbolTableRecord
100
AcDbLinetypeTableRecord
  2
BYBLOCK
 70
     0
  3

 72
    65
 73
     0
 40
0.0
  0
LTYPE
  5
16
330
14
100
AcDbSymbolTableRecord
100
AcDbLinetypeTableRecord
  2
BYLAYER
 70
     0
  3

 72
    65
 73
     0
 40
0.0
  0
LTYPE
  5
8
330
14
100
AcDbSymbolTableRecord
100
AcDbLinetypeTableRecord
  2
CONTINUOUS
 70
     0
  3
Solid line
 72
    65
 73
     0
 40
0.0
  0
LTYPE
  5
31
330
14
100
AcDbSymbolTableRecord
100
AcDbLinetypeTableRecord
  2
HIDDEN2
 70
     0
  3
Hidden (.5x) _ _ _ _ _ _ _ _ _ _ _ _ _ _ _ _ _
 72
    65
 73
     2
 40
0.1875
 49
0.125
 74
     0
 49
-0.0625
 74
     0
  0
ENDTAB
  0
TABLE
  2
LAYER
  5
10
330
0
100
AcDbSymbolTable
 70
     2
  0
LAYER
  5
4
330
10
100
AcDbSymbolTableRecord
100
AcDbLayerTableRecord
  2
0
 70
     0
 62
     7
  6
CONTINUOUS
370
    -3
390
5
  0
ENDTAB
  0
TABLE
  2
STYLE
  5
11
330
0
100
AcDbSymbolTable
 70
     1
  0
STYLE
  5
12
330
11
100
AcDbSymbolTableRecord
100
AcDbTextStyleTableRecord
  2
STANDARD
 70
     0
 40
0.0
 41
1.0
 50
0.0
 71
     0
 42
0.27
  3
TXT
  4

  0
ENDTAB
  0
TABLE
  2
VIEW
  5
17
330
0
100
AcDbSymbolTable
 70
     0
  0
ENDTAB
  0
TABLE
  2
UCS
  5
18
330
0
100
AcDbSymbolTable
 70
     0
  0
ENDTAB
  0
TABLE
  2
APPID
  5
1B
330
0
100
AcDbSymbolTable
 70
     1
  0
APPID
  5
1C
330
1B
100
AcDbSymbolTableRecord
100
AcDbRegAppTableRecord
  2
ACAD
 70
     0
  0
ENDTAB
  0
TABLE
  2
DIMSTYLE
  5
1D
330
0
100
AcDbSymbolTable
 70
     1
100
AcDbDimStyleTable
  0
DIMSTYLE
105
24
330
1D
100
AcDbSymbolTableRecord
100
AcDbDimStyleTableRecord
  2
STANDARD
 70
     0
  3

  4

340
12
  0
ENDTAB
  0
TABLE
  2
BLOCK_RECORD
  5
1
330
0
100
AcDbSymbolTable
 70
     0
  0
BLOCK_RECORD
  5
2
102
{ACAD_XDICTIONARY
360
92
102
}
330
1
100
AcDbSymbolTableRecord
100
AcDbBlockTableRecord
  2
*MODEL_SPACE
340
A
  0
BLOCK_RECORD
  5
C
330
1
100
AcDbSymbolTableRecord
100
AcDbBlockTableRecord
  2
*PAPER_SPACE
340
F
  0
ENDTAB
  0
ENDSEC
  0
SECTION
  2
BLOCKS
  0
BLOCK
  5
3
330
2
100
AcDbEntity
  8
0
100
AcDbBlockBegin
  2
*MODEL_SPACE
 70
     0
 10
0.0
 20
0.0
 30
0.0
  3
*MODEL_SPACE
  1

  4

  0
ENDBLK
  5
9
330
2
100
AcDbEntity
  8
0
100
AcDbBlockEnd
  0
BLOCK
  5
D
330
C
100
AcDbEntity
 67
     1
  8
0
100
AcDbBlockBegin
  2
*PAPER_SPACE
 70
     0
 10
0.0
 20
0.0
 30
0.0
  3
*PAPER_SPACE
  1

  4

  0
ENDBLK
  5
E
330
C
100
AcDbEntity
 67
     1
  8
0
100
AcDbBlockEnd
  0
ENDSEC
  0
SECTION
  2
ENTITIES
  0
LINE
  5
64
330
2
100
AcDbEntity
  8
0
  6
Continuous
100
AcDbLine
 10
-1.750000000000008
 20
2.406000000000002
 30
0.0
 11
1.749999999999993
 21
2.406000000000002
 31
0.0
  0
LINE
  5
65
330
2
100
AcDbEntity
  8
0
 48
10.0
100
AcDbLine
 10
-1.879220701939515
 20
2.21875
 30
0.0
 11
-0.1560000000000112
 21
2.21875
 31
0.0
  0
LINE
  5
66
330
2
100
AcDbEntity
  8
0
 48
10.0
100
AcDbLine
 10
1.879220701939515
 20
0.0
 30
0.0
 11
-1.879220701939515
 21
0.0000000000000036
 31
0.0
  0
LINE
  5
67
330
2
100
AcDbEntity
  8
0
 48
10.0
100
AcDbLine
 10
-1.879220701939515
 20
2.3125
 30
0.0
 11
1.879220701939515
 21
2.312499999999996
 31
0.0
  0
LINE
  5
68
330
2
100
AcDbEntity
  8
0
  6
Continuous
100
AcDbLine
 10
-1.750000000000008
 20
2.218749999999996
 30
0.0
 11
-1.750000000000009
 21
0.0
 31
0.0
  0
LINE
  5
69
330
2
100
AcDbEntity
  8
0
  6
Continuous
100
AcDbLine
 10
-1.879220701939515
 20
0.0000000000000071
 30
0.0
 11
-1.879220701939515
 21
2.01094091736001
 31
0.0
  0
LINE
  5
6A
330
2
100
AcDbEntity
  8
0
  6
Continuous
100
AcDbLine
 10
-1.78517070193952
 20
0.0000000000000036
 30
0.0
 11
-1.785170701939519
 21
2.010847845529348
 31
0.0
  0
ARC
  5
6B
330
2
100
AcDbEntity
  8
0
  6
HIDDEN2
 48
10.0
100
AcDbCircle
 10
-1.25
 20
0.0
 30
0.0
 40
0.078
100
AcDbArc
 50
90.0
 51
155.2157154469224
  0
ARC
  5
6C
330
2
100
AcDbEntity
  8
0
  6
HIDDEN2
 48
10.0
100
AcDbCircle
 10
-1.125
 20
0.0
 30
0.0
 40
0.078
100
AcDbArc
 50
24.78428455307765
 51
90.0
  0
ARC
  5
6D
330
2
100
AcDbEntity
  8
0
100
AcDbCircle
 10
-1.813460711146274
 20
2.178732957799532
 30
0.0
 40
0.1490570292478246
100
AcDbArc
 50
116.1787702665364
 51
240.2599389129782
  0
ARC
  5
6E
330
2
100
AcDbEntity
  8
0
100
AcDbCircle
 10
-1.691270790406485
 20
2.243746489382264
 30
0.0
 40
0.1896048357155339
100
AcDbArc
 50
187.5756232851317
 51
233.9539400845412
  0
LINE
  5
6F
330
2
100
AcDbEntity
  8
0
  6
Continuous
100
AcDbLine
 10
-1.691420701939518
 20
1.291892641659779
 30
0.0
 11
-1.691420701939514
 21
1.114107358340227
 31
0.0
  0
ELLIPSE
  5
70
330
2
100
AcDbEntity
  8
0
  6
Continuous
100
AcDbEllipse
 10
-1.780269486163451
 20
1.109710676335908
 30
0.0
 11
0.02516453530990528
 21
-0.09163408023333187
 31
0.0
210
0.0
220
0.0
230
1.0
 40
0.933289939707793
 41
-0.341179514948071
 42
1.366392480241568
  0
ELLIPSE
  5
71
330
2
100
AcDbEntity
  8
0
  6
Continuous
100
AcDbEllipse
 10
-1.780269486163454
 20
1.296289323664094
 30
0.0
 11
0.02516453530990182
 21
0.09163408023333282
 31
0.0
210
0.0
220
0.0
230
-1.0
 40
0.9332899397077927
 41
-0.341179514948071
 42
1.366392480241568
  0
ARC
  5
72
330
2
100
AcDbEntity
  8
0
100
AcDbCircle
 10
-1.973270701939516
 20
2.01094091736001
 30
0.0
 40
0.09405
100
AcDbArc
 50
0.0000000000003123
 51
24.07637439904275
  0
ARC
  5
73
330
2
100
AcDbEntity
  8
0
100
AcDbCircle
 10
-1.973270701939519
 20
2.010847845529348
 30
0.0
 40
0.1881
100
AcDbArc
 50
0.0000000000001088
 51
25.03369983724715
  0
ARC
  5
74
330
2
100
AcDbEntity
  8
0
  6
HIDDEN2
 48
10.0
100
AcDbCircle
 10
-1.25
 20
2.218749999999993
 30
0.0
 40
0.078
100
AcDbArc
 50
204.7842845530776
 51
270.0
  0
ARC
  5
75
330
2
100
AcDbEntity
  8
0
  6
HIDDEN2
 48
10.0
100
AcDbCircle
 10
-1.125
 20
2.218749999999993
 30
0.0
 40
0.078
100
AcDbArc
 50
270.0
 51
335.2157154469224
  0
LINE
  5
76
330
2
100
AcDbEntity
  8
0
  6
Continuous
100
AcDbLine
 10
-1.750000000000008
 20
2.406000000000002
 30
0.0
 11
-1.750000000000009
 21
2.312499999999996
 31
0.0
  0
LINE
  5
77
330
2
100
AcDbEntity
  8
0
  6
Continuous
100
AcDbLine
 10
-1.879220701939515
 20
2.218749999999996
 30
0.0
 11
-1.879220701939515
 21
2.312499999999996
 31
0.0
  0
POINT
  5
78
330
2
100
AcDbEntity
  8
0
  6
ByBlock
 48
10.0
100
AcDbPoint
 10
-1.749999999999993
 20
2.312499999999986
 30
0.0
  0
LINE
  5
79
330
2
100
AcDbEntity
  8
0
  6
Continuous
100
AcDbLine
 10
-1.656000000000038
 20
2.21875
 30
0.0
 11
-1.656000000000038
 21
2.312500000000004
 31
0.0
  0
ARC
  5
7A
330
2
100
AcDbEntity
  8
0
100
AcDbCircle
 10
1.813460711146274
 20
2.178732957799532
 30
0.0
 40
0.1490570292478246
100
AcDbArc
 50
299.7400610870217
 51
63.82122973346362
  0
LINE
  5
7B
330
2
100
AcDbEntity
  8
0
  6
Continuous
100
AcDbLine
 10
1.749999999999991
 20
2.218749999999993
 30
0.0
 11
1.749999999999993
 21
0.0
 31
0.0
  0
LINE
  5
7C
330
2
100
AcDbEntity
  8
0
  6
Continuous
100
AcDbLine
 10
1.879220701939515
 20
0.0
 30
0.0
 11
1.879220701939516
 21
2.01094091736001
 31
0.0
  0
LINE
  5
7D
330
2
100
AcDbEntity
  8
0
  6
Continuous
100
AcDbLine
 10
1.785475437749883
 20
0.0
 30
0.0
 11
1.785170701939519
 21
2.010847845529348
 31
0.0
  0
CIRCLE
  5
7E
330
2
100
AcDbEntity
  8
0
100
AcDbCircle
 10
-0.0000000000000071
 20
1.231250000000003
 30
0.0
 40
0.34375
  0
ARC
  5
7F
330
2
100
AcDbEntity
  8
0
  6
HIDDEN2
 48
10.0
100
AcDbCircle
 10
1.249999999999986
 20
0.0
 30
0.0
 40
0.078
100
AcDbArc
 50
24.78428455307765
 51
90.0
  0
ARC
  5
80
330
2
100
AcDbEntity
  8
0
  6
HIDDEN2
 48
10.0
100
AcDbCircle
 10
1.124999999999986
 20
0.0
 30
0.0
 40
0.078
100
AcDbArc
 50
90.0
 51
155.2157154469224
  0
LINE
  5
81
330
2
100
AcDbEntity
  8
0
 48
10.0
100
AcDbLine
 10
0.1560000000000112
 20
2.21875
 30
0.0
 11
1.879220701939515
 21
2.218749999999996
 31
0.0
  0
LINE
  5
82
330
2
100
AcDbEntity
  8
0
  6
Continuous
100
AcDbLine
 10
-0.1560000000000112
 20
2.21875
 30
0.0
 11
-0.1560000000000112
 21
2.312499999999996
 31
0.0
  0
LINE
  5
83
330
2
100
AcDbEntity
  8
0
  6
Continuous
100
AcDbLine
 10
-0.2810000000000255
 20
2.218749999999996
 30
0.0
 11
-0.2810000000000255
 21
2.312499999999996
 31
0.0
  0
LINE
  5
84
330
2
100
AcDbEntity
  8
0
  6
Continuous
100
AcDbLine
 10
0.1560000000000112
 20
2.21875
 30
0.0
 11
0.1560000000000112
 21
2.312499999999996
 31
0.0
  0
LINE
  5
85
330
2
100
AcDbEntity
  8
0
  6
Continuous
100
AcDbLine
 10
0.2810000000000255
 20
2.21875
 30
0.0
 11
0.2810000000000255
 21
2.3125
 31
0.0
  0
ARC
  5
86
330
2
100
AcDbEntity
  8
0
100
AcDbCircle
 10
1.691270790406485
 20
2.243746489382264
 30
0.0
 40
0.1896048357155339
100
AcDbArc
 50
306.0460599154588
 51
352.4243767148682
  0
ARC
  5
87
330
2
100
AcDbEntity
  8
0
  6
HIDDEN2
 48
10.0
100
AcDbCircle
 10
1.249999999999986
 20
2.218749999999993
 30
0.0
 40
0.078
100
AcDbArc
 50
270.0
 51
335.2157154469224
  0
ARC
  5
88
330
2
100
AcDbEntity
  8
0
  6
HIDDEN2
 48
10.0
100
AcDbCircle
 10
1.124999999999986
 20
2.218749999999993
 30
0.0
 40
0.078
100
AcDbArc
 50
204.7842845530776
 51
270.0
  0
LINE
  5
89
330
2
100
AcDbEntity
  8
0
  6
Continuous
100
AcDbLine
 10
1.691420701939505
 20
1.291892641659779
 30
0.0
 11
1.691420701939501
 21
1.114107358340227
 31
0.0
  0
ELLIPSE
  5
8A
330
2
100
AcDbEntity
  8
0
  6
Continuous
100
AcDbEllipse
 10
1.780269486163439
 20
1.109710676335908
 30
0.0
 11
-0.02516453530990528
 21
-0.09163408023333187
 31
0.0
210
0.0
220
0.0
230
-1.0
 40
0.933289939707793
 41
-0.341179514948071
 42
1.366392480241568
  0
ELLIPSE
  5
8B
330
2
100
AcDbEntity
  8
0
  6
Continuous
100
AcDbEllipse
 10
1.780269486163443
 20
1.296289323664094
 30
0.0
 11
-0.02516453530990182
 21
0.09163408023333282
 31
0.0
210
0.0
220
0.0
230
1.0
 40
0.9332899397077927
 41
-0.341179514948071
 42
1.366392480241568
  0
ARC
  5
8C
330
2
100
AcDbEntity
  8
0
100
AcDbCircle
 10
1.973270701939516
 20
2.01094091736001
 30
0.0
 40
0.09405
100
AcDbArc
 50
155.9236256009573
 51
179.9999999999997
  0
ARC
  5
8D
330
2
100
AcDbEntity
  8
0
100
AcDbCircle
 10
1.973270701939519
 20
2.010847845529348
 30
0.0
 40
0.1881
100
AcDbArc
 50
154.9663001627528
 51
179.9999999999999
  0
LINE
  5
8E
330
2
100
AcDbEntity
  8
0
  6
Continuous
100
AcDbLine
 10
1.749999999999993
 20
2.406000000000002
 30
0.0
 11
1.749999999999991
 21
2.312499999999996
 31
0.0
  0
LINE
  5
8F
330
2
100
AcDbEntity
  8
0
  6
Continuous
100
AcDbLine
 10
1.879220701939515
 20
2.218749999999996
 30
0.0
 11
1.879220701939515
 21
2.312499999999996
 31
0.0
  0
LINE
  5
90
330
2
100
AcDbEntity
  8
0
  6
Continuous
100
AcDbLine
 10
1.656000000000038
 20
2.218749999999996
 30
0.0
 11
1.656000000000038
 21
2.312499999999996
 31
0.0
  0
POINT
  5
91
330
2
100
AcDbEntity
  8
0
  6
ByBlock
 48
10.0
100
AcDbPoint
 10
1.749999999999993
 20
2.312499999999986
 30
0.0
  0
ENDSEC
  0
SECTION
  2
OBJECTS
  0
DICTIONARY
  5
7
330
0
100
AcDbDictionary
281
     1
  3
ACAD_COLOR
350
5F
  3
ACAD_GROUP
350
1F
  3
ACAD_LAYOUT
350
B
  3
ACAD_MATERIAL
350
5E
  3
ACAD_MLINESTYLE
350
20
  3
ACAD_PLOTSETTINGS
350
21
  3
ACAD_PLOTSTYLENAME
350
6
  3
ACAD_TABLESTYLE
350
60
  3
ACDBHEADERROUNDTRIPXREC
350
A7
  3
AcDbVariableDictionary
350
5A
  0
DICTIONARY
  5
92
330
2
100
AcDbDictionary
280
     1
281
     1
  3
ACAD_SORTENTS
360
93
  0
DICTIONARY
  5
5F
102
{ACAD_REACTORS
330
7
102
}
330
7
100
AcDbDictionary
281
     1
  0
DICTIONARY
  5
1F
102
{ACAD_REACTORS
330
7
102
}
330
7
100
AcDbDictionary
281
     1
  0
DICTIONARY
  5
B
102
{ACAD_REACTORS
330
7
102
}
330
7
100
AcDbDictionary
281
     1
  3
Layout1
350
F
  3
Model
350
A
  0
DICTIONARY
  5
5E
102
{ACAD_REACTORS
330
7
102
}
330
7
100
AcDbDictionary
281
     1
  0
DICTIONARY
  5
20
102
{ACAD_REACTORS
330
7
102
}
330
7
100
AcDbDictionary
281
     1
  3
STANDARD
350
23
  0
DICTIONARY
  5
21
102
{ACAD_REACTORS
330
7
102
}
330
7
100
AcDbDictionary
281
     1
  0
ACDBDICTIONARYWDFLT
  5
6
102
{ACAD_REACTORS
330
7
102
}
330
7
100
AcDbDictionary
281
     1
  3
Normal
350
5
100
AcDbDictionaryWithDefault
340
5
  0
DICTIONARY
  5
60
102
{ACAD_REACTORS
330
7
102
}
330
7
100
AcDbDictionary
281
     1
  3
Standard
350
61
  0
DICTIONARY
  5
A7
102
{ACAD_REACTORS
330
7
102
}
330
7
100
AcDbDictionary
281
     1
  3
COLORDICT
350
A8
  3
MATERIALDICT
350
A9
  0
DICTIONARY
  5
5A
102
{ACAD_REACTORS
330
7
102
}
330
7
100
AcDbDictionary
281
     1
  3
CTABLESTYLE
350
9B
  3
HIDETEXT
350
A6
  0
SORTENTSTABLE
  5
93
102
{ACAD_REACTORS
330
92
102
}
330
92
100
AcDbSortentsTable
330
2
331
6E
  5
6E
331
75
  5
75
331
70
  5
70
331
7A
  5
7A
331
90
  5
90
331
8D
  5
8D
331
65
  5
65
331
6D
  5
6D
331
80
  5
80
331
64
  5
64
331
82
  5
82
331
7C
  5
7C
331
79
  5
79
331
66
  5
66
331
73
  5
73
331
76
  5
76
331
6F
  5
6F
331
67
  5
67
331
72
  5
72
331
71
  5
71
331
8A
  5
8A
331
89
  5
89
331
78
  5
78
331
86
  5
86
331
7D
  5
7D
331
6C
  5
6C
331
87
  5
87
331
88
  5
88
331
68
  5
68
331
84
  5
84
331
7B
  5
7B
331
7F
  5
7F
331
7E
  5
7E
331
69
  5
69
331
74
  5
74
331
8F
  5
8F
331
85
  5
85
331
6B
  5
6B
331
77
  5
77
331
8B
  5
8B
331
8E
  5
8E
331
83
  5
83
331
8C
  5
8C
331
81
  5
81
331
91
  5
91
331
6A
  5
6A
  0
LAYOUT
  5
F
102
{ACAD_REACTORS
330
B
102
}
102
{ACAD_XDICTIONARY
360
AA
102
}
330
B
100
AcDbPlotSettings
  1

  2
X:\Program Files\AutoCAD2002\plotters\DWF ePlot (optimized for plotting).pc3
  4

  6

 40
0.0
 41
0.0
 42
0.0
 43
0.0
 44
0.0
 45
0.0
 46
0.0
 47
0.0
 48
0.0
 49
0.0
140
0.0
141
0.0
142
1.0
143
1.0
 70
   688
 72
     0
 73
     0
 74
     5
  7

 75
    16
147
1.0
148
0.0
149
0.0
100
AcDbLayout
  1
Layout1
 70
     0
 71
     1
 10
0.0
 20
0.0
 11
12.0
 21
9.0
 12
0.0
 22
0.0
 32
0.0
 14
1.000000000000000E+20
 24
1.000000000000000E+20
 34
1.000000000000000E+20
 15
-1.000000000000000E+20
 25
-1.000000000000000E+20
 35
-1.000000000000000E+20
146
0.0
 13
0.0
 23
0.0
 33
0.0
 16
1.0
 26
0.0
 36
0.0
 17
0.0
 27
1.0
 37
0.0
 76
     0
330
C
  0
LAYOUT
  5
A
102
{ACAD_REACTORS
330
B
102
}
102
{ACAD_XDICTIONARY
360
AC
102
}
330
B
100
AcDbPlotSettings
  1

  2
X:\Program Files\AutoCAD2002\plotters\DWF ePlot (optimized for plotting).pc3
  4

  6

 40
0.0
 41
0.0
 42
0.0
 43
0.0
 44
0.0
 45
0.0
 46
0.0
 47
0.0
 48
0.0
 49
0.0
140
0.0
141
0.0
142
1.0
143
1.0
 70
  1712
 72
     0
 73
     0
 74
     0
  7

 75
     0
147
1.0
148
0.0
149
0.0
100
AcDbLayout
  1
Model
 70
     1
 71
     0
 10
0.0
 20
0.0
 11
12.0
 21
9.0
 12
0.0
 22
0.0
 32
0.0
 14
0.0
 24
0.0
 34
0.0
 15
0.0
 25
0.0
 35
0.0
146
0.0
 13
0.0
 23
0.0
 33
0.0
 16
1.0
 26
0.0
 36
0.0
 17
0.0
 27
1.0
 37
0.0
 76
     0
330
2
  0
MLINESTYLE
  5
23
102
{ACAD_REACTORS
330
20
102
}
330
20
100
AcDbMlineStyle
  2
STANDARD
 70
     0
  3

 62
   256
 51
90.0
 52
90.0
 71
     2
 49
0.5
 62
   256
  6
BYLAYER
 49
-0.5
 62
   256
  6
BYLAYER
  0
ACDBPLACEHOLDER
  5
5
102
{ACAD_REACTORS
330
6
102
}
330
6
  0
ACAD_PROXY_OBJECT
  5
61
102
{ACAD_REACTORS
330
60
102
}
330
60
100
AcDbProxyObject
 90
      499
 91
      505
 95
   983063
 70
     0
 93
     1841
310
4214DD185B99185C9928B81E85EB51B8AE3F2E07A17AD46E2B8FC02B5E8DC0F42B1CFD028000000C1008070000C3001FDFF8000000C1003FBFF000000182007F7FE00000030400FEFFC00000060801FDFF8000000C1003FBFF00000018200000000000000681FA0B0000001820100E000186003FBFF000000182007F7FE000
310
00030400FEFFC00000060801FDFF8000000C1003FBFF000000182007F7FE000000304000AD7A3703D0AC73F4160000003040201C00030C007F7FE00000030400FEFFC00000060801FDFF8000000C1003FBFF000000182007F7FE00000030400FEFFC000000608000
340
12
340
12
340
12
 94
        0
  0
XRECORD
  5
A8
102
{ACAD_REACTORS
330
A7
102
}
330
A7
100
AcDbXrecord
340
5F
  0
XRECORD
  5
A9
102
{ACAD_REACTORS
330
A7
102
}
330
A7
100
AcDbXrecord
340
5E
  0
DICTIONARYVAR
  5
9B
102
{ACAD_REACTORS
330
5A
102
}
330
5A
100
DictionaryVariables
280
     0
  1
STANDARD
  0
DICTIONARYVAR
  5
A6
102
{ACAD_REACTORS
330
5A
102
}
330
5A
100
DictionaryVariables
280
     0
  1
1
  0
DICTIONARY
  5
AA
330
F
100
AcDbDictionary
280
     1
281
     1
  3
ACAD_XREC_ROUNDTRIP
360
AB
  0
DICTIONARY
  5
AC
330
A
100
AcDbDictionary
280
     1
281
     1
  3
ACAD_XREC_ROUNDTRIP
360
AD
  0
XRECORD
  5
AB
102
{ACAD_REACTORS
330
AA
102
}
330
AA
100
AcDbXrecord
102
SHADEPLOT
 70
     0
102
SHADEPLOTRESLEVEL
 70
     2
102
SHADEPLOTCUSTOMDPI
 70
   300
  0
XRECORD
  5
AD
102
{ACAD_REACTORS
330
AC
102
}
330
AC
100
AcDbXrecord
102
SHADEPLOT
 70
     0
102
SHADEPLOTRESLEVEL
 70
     2
102
SHADEPLOTCUSTOMDPI
 70
   300
  0
ENDSEC
  0
EOF
