  0
SECTION
  2
HEADER
  9
$ACADVER
  1
AC1015
  9
$ACADMAINTVER
 70
     6
  9
$DWGCODEPAGE
  3
ANSI_1252
  9
$INSBASE
 10
0.0
 20
0.0
 30
0.0
  9
$EXTMIN
 10
-11.13883629536591
 20
-0.0268503680081125
 30
-0.0015258207003583
  9
$EXTMAX
 10
11.13845208442904
 20
21.62025923420264
 30
0.0000000349246037
  9
$LIMMIN
 10
0.0
 20
0.0
  9
$LIMMAX
 10
24.0
 20
31.5
  9
$ORTHOMODE
 70
     1
  9
$REGENMODE
 70
     1
  9
$FILLMODE
 70
     1
  9
$QTEXTMODE
 70
     0
  9
$MIRRTEXT
 70
     0
  9
$LTSCALE
 40
0.5
  9
$ATTMODE
 70
     1
  9
$TEXTSIZE
 40
0.27
  9
$TRACEWID
 40
0.05
  9
$TEXTSTYLE
  7
STANDARD
  9
$CLAYER
  8
0
  9
$CELTYPE
  6
CONTINUOUS
  9
$CECOLOR
 62
   256
  9
$CELTSCALE
 40
1.0
  9
$DISPSILH
 70
     0
  9
$DIMSCALE
 40
3.0
  9
$DIMASZ
 40
0.125
  9
$DIMEXO
 40
0.062
  9
$DIMDLI
 40
0.375
  9
$DIMRND
 40
0.0
  9
$DIMDLE
 40
0.0
  9
$DIMEXE
 40
0.08
  9
$DIMTP
 40
0.0
  9
$DIMTM
 40
0.0
  9
$DIMTXT
 40
0.09
  9
$DIMCEN
 40
-0.03125
  9
$DIMTSZ
 40
0.0
  9
$DIMTOL
 70
     0
  9
$DIMLIM
 70
     0
  9
$DIMTIH
 70
     1
  9
$DIMTOH
 70
     1
  9
$DIMSE1
 70
     0
  9
$DIMSE2
 70
     0
  9
$DIMTAD
 70
     0
  9
$DIMZIN
 70
     0
  9
$DIMBLK
  1

  9
$DIMASO
 70
     1
  9
$DIMSHO
 70
     0
  9
$DIMPOST
  1

  9
$DIMAPOST
  1

  9
$DIMALT
 70
     0
  9
$DIMALTD
 70
     2
  9
$DIMALTF
 40
25.4
  9
$DIMLFAC
 40
1.0
  9
$DIMTOFL
 70
     0
  9
$DIMTVP
 40
0.0
  9
$DIMTIX
 70
     0
  9
$DIMSOXD
 70
     0
  9
$DIMSAH
 70
     0
  9
$DIMBLK1
  1

  9
$DIMBLK2
  1

  9
$DIMSTYLE
  2
STANDARD
  9
$DIMCLRD
 70
     0
  9
$DIMCLRE
 70
     0
  9
$DIMCLRT
 70
     0
  9
$DIMTFAC
 40
1.0
  9
$DIMGAP
 40
0.09375
  9
$DIMJUST
 70
     0
  9
$DIMSD1
 70
     0
  9
$DIMSD2
 70
     0
  9
$DIMTOLJ
 70
     1
  9
$DIMTZIN
 70
     0
  9
$DIMALTZ
 70
     0
  9
$DIMALTTZ
 70
     0
  9
$DIMUPT
 70
     1
  9
$DIMDEC
 70
     5
  9
$DIMTDEC
 70
     4
  9
$DIMALTU
 70
     2
  9
$DIMALTTD
 70
     2
  9
$DIMTXSTY
  7
STANDARD
  9
$DIMAUNIT
 70
     0
  9
$DIMADEC
 70
     0
  9
$DIMALTRND
 40
0.0
  9
$DIMAZIN
 70
     0
  9
$DIMDSEP
 70
    46
  9
$DIMATFIT
 70
     3
  9
$DIMFRAC
 70
     2
  9
$DIMLDRBLK
  1

  9
$DIMLUNIT
 70
     5
  9
$DIMLWD
 70
    -2
  9
$DIMLWE
 70
    -2
  9
$DIMTMOVE
 70
     0
  9
$LUNITS
 70
     5
  9
$LUPREC
 70
     5
  9
$SKETCHINC
 40
0.03125
  9
$FILLETRAD
 40
0.0937
  9
$AUNITS
 70
     0
  9
$AUPREC
 70
     0
  9
$MENU
  1
ACAD
  9
$ELEVATION
 40
0.0
  9
$PELEVATION
 40
0.0
  9
$THICKNESS
 40
0.0
  9
$LIMCHECK
 70
     0
  9
$CHAMFERA
 40
0.0
  9
$CHAMFERB
 40
0.0
  9
$CHAMFERC
 40
0.0
  9
$CHAMFERD
 40
0.0
  9
$SKPOLY
 70
     0
  9
$TDCREATE
 40
2449282.963589584
  9
$TDUCREATE
 40
2449283.296922917
  9
$TDUPDATE
 40
2454181.832322697
  9
$TDUUPDATE
 40
2454182.16565603
  9
$TDINDWG
 40
0.4420204977
  9
$TDUSRTIMER
 40
0.4420204977
  9
$USRTIMER
 70
     1
  9
$ANGBASE
 50
0.0
  9
$ANGDIR
 70
     0
  9
$PDMODE
 70
     0
  9
$PDSIZE
 40
0.0
  9
$PLINEWID
 40
0.0
  9
$SPLFRAME
 70
     0
  9
$SPLINETYPE
 70
     6
  9
$SPLINESEGS
 70
     8
  9
$HANDSEED
  5
1D3
  9
$SURFTAB1
 70
     6
  9
$SURFTAB2
 70
     6
  9
$SURFTYPE
 70
     6
  9
$SURFU
 70
     6
  9
$SURFV
 70
     6
  9
$UCSBASE
  2

  9
$UCSNAME
  2

  9
$UCSORG
 10
0.0
 20
0.0
 30
0.0
  9
$UCSXDIR
 10
1.0
 20
0.0
 30
0.0
  9
$UCSYDIR
 10
0.0
 20
1.0
 30
0.0
  9
$UCSORTHOREF
  2

  9
$UCSORTHOVIEW
 70
     0
  9
$UCSORGTOP
 10
0.0
 20
0.0
 30
0.0
  9
$UCSORGBOTTOM
 10
0.0
 20
0.0
 30
0.0
  9
$UCSORGLEFT
 10
0.0
 20
0.0
 30
0.0
  9
$UCSORGRIGHT
 10
0.0
 20
0.0
 30
0.0
  9
$UCSORGFRONT
 10
0.0
 20
0.0
 30
0.0
  9
$UCSORGBACK
 10
0.0
 20
0.0
 30
0.0
  9
$PUCSBASE
  2

  9
$PUCSNAME
  2

  9
$PUCSORG
 10
0.0
 20
0.0
 30
0.0
  9
$PUCSXDIR
 10
1.0
 20
0.0
 30
0.0
  9
$PUCSYDIR
 10
0.0
 20
1.0
 30
0.0
  9
$PUCSORTHOREF
  2

  9
$PUCSORTHOVIEW
 70
     0
  9
$PUCSORGTOP
 10
0.0
 20
0.0
 30
0.0
  9
$PUCSORGBOTTOM
 10
0.0
 20
0.0
 30
0.0
  9
$PUCSORGLEFT
 10
0.0
 20
0.0
 30
0.0
  9
$PUCSORGRIGHT
 10
0.0
 20
0.0
 30
0.0
  9
$PUCSORGFRONT
 10
0.0
 20
0.0
 30
0.0
  9
$PUCSORGBACK
 10
0.0
 20
0.0
 30
0.0
  9
$USERI1
 70
     0
  9
$USERI2
 70
     0
  9
$USERI3
 70
     0
  9
$USERI4
 70
     0
  9
$USERI5
 70
     0
  9
$USERR1
 40
0.0
  9
$USERR2
 40
0.0
  9
$USERR3
 40
0.0
  9
$USERR4
 40
0.0
  9
$USERR5
 40
0.0
  9
$WORLDVIEW
 70
     1
  9
$SHADEDGE
 70
     3
  9
$SHADEDIF
 70
    70
  9
$TILEMODE
 70
     1
  9
$MAXACTVP
 70
    16
  9
$PINSBASE
 10
0.0
 20
0.0
 30
0.0
  9
$PLIMCHECK
 70
     0
  9
$PEXTMIN
 10
1.000000000000000E+20
 20
1.000000000000000E+20
 30
1.000000000000000E+20
  9
$PEXTMAX
 10
-1.000000000000000E+20
 20
-1.000000000000000E+20
 30
-1.000000000000000E+20
  9
$PLIMMIN
 10
0.0
 20
0.0
  9
$PLIMMAX
 10
12.0
 20
9.0
  9
$UNITMODE
 70
     0
  9
$VISRETAIN
 70
     0
  9
$PLINEGEN
 70
     0
  9
$PSLTSCALE
 70
     0
  9
$TREEDEPTH
 70
  3020
  9
$CMLSTYLE
  2
STANDARD
  9
$CMLJUST
 70
     0
  9
$CMLSCALE
 40
1.0
  9
$PROXYGRAPHICS
 70
     1
  9
$MEASUREMENT
 70
     0
  9
$CELWEIGHT
370
    -1
  9
$ENDCAPS
280
     0
  9
$JOINSTYLE
280
     0
  9
$LWDISPLAY
290
     0
  9
$INSUNITS
 70
     0
  9
$HYPERLINKBASE
  1

  9
$STYLESHEET
  1

  9
$XEDIT
290
     1
  9
$CEPSNTYPE
380
     0
  9
$PSTYLEMODE
290
     1
  9
$FINGERPRINTGUID
  2
{9AEF6402-B412-4E58-88B6-13A735751DF0}
  9
$VERSIONGUID
  2
{A3D2A28E-21D2-483D-9D48-3BA6DF31FC7A}
  9
$EXTNAMES
290
     1
  9
$PSVPSCALE
 40
0.0
  9
$OLESTARTUP
290
     0
  0
ENDSEC
  0
SECTION
  2
CLASSES
  0
CLASS
  1
DICTIONARYVAR
  2
AcDbDictionaryVar
  3
AutoCAD 2000
 90
        0
280
     0
281
     0
  0
CLASS
  1
LWPOLYLINE
  2
AcDbPolyline
  3
AutoCAD 2000
 90
        0
280
     0
281
     1
  0
CLASS
  1
ACDBDICTIONARYWDFLT
  2
AcDbDictionaryWithDefault
  3
AutoCAD 2000
 90
        0
280
     0
281
     0
  0
CLASS
  1
ACDBPLACEHOLDER
  2
AcDbPlaceHolder
  3
ObjectDBX Classes
 90
        0
280
     0
281
     0
  0
CLASS
  1
LAYOUT
  2
AcDbLayout
  3
ObjectDBX Classes
 90
        0
280
     0
281
     0
  0
CLASS
  1
TABLESTYLE
  2
AcDbTableStyle
  3
ObjectDBX Classes
 90
     2047
280
     1
281
     0
  0
CLASS
  1
SORTENTSTABLE
  2
AcDbSortentsTable
  3
AutoCAD 2000
 90
        0
280
     0
281
     0
  0
ENDSEC
  0
SECTION
  2
TABLES
  0
TABLE
  2
VPORT
  5
19
330
0
100
AcDbSymbolTable
 70
     2
  0
VPORT
  5
1C5
330
19
100
AcDbSymbolTableRecord
100
AcDbViewportTableRecord
  2
*Active
 70
     0
 10
0.0
 20
0.0
 11
1.0
 21
1.0
 12
6.430581852317044
 22
15.73657481599594
 13
0.0
 23
0.0
 14
0.063
 24
0.063
 15
0.25
 25
0.25
 16
0.0
 26
0.0
 36
1.0
 17
0.0
 27
0.0
 37
0.0
 40
31.92011669276497
 41
1.814583333333333
 42
50.0
 43
0.0
 44
0.0
 50
0.0
 51
0.0
 71
     0
 72
   100
 73
     1
 74
     0
 75
     0
 76
     0
 77
     0
 78
     2
281
     0
 65
     1
110
0.0
120
0.0
130
0.0
111
1.0
121
0.0
131
0.0
112
0.0
122
1.0
132
0.0
 79
     0
146
0.0
  0
ENDTAB
  0
TABLE
  2
LTYPE
  5
14
330
0
100
AcDbSymbolTable
 70
     3
  0
LTYPE
  5
15
330
14
100
AcDbSymbolTableRecord
100
AcDbLinetypeTableRecord
  2
BYBLOCK
 70
     0
  3

 72
    65
 73
     0
 40
0.0
  0
LTYPE
  5
16
330
14
100
AcDbSymbolTableRecord
100
AcDbLinetypeTableRecord
  2
BYLAYER
 70
     0
  3

 72
    65
 73
     0
 40
0.0
  0
LTYPE
  5
8
330
14
100
AcDbSymbolTableRecord
100
AcDbLinetypeTableRecord
  2
CONTINUOUS
 70
     0
  3
Solid line
 72
    65
 73
     0
 40
0.0
  0
LTYPE
  5
2D
330
14
100
AcDbSymbolTableRecord
100
AcDbLinetypeTableRecord
  2
HIDDEN
 70
     0
  3
_ _ _ _ _ _ _ _ _ _ _ _ _ _ _ _ _ _ _ _ _ _ _
 72
    65
 73
     2
 40
0.375
 49
0.25
 74
     0
 49
-0.125
 74
     0
  0
LTYPE
  5
35
330
14
100
AcDbSymbolTableRecord
100
AcDbLinetypeTableRecord
  2
HIDDEN2
 70
     0
  3
Hidden (.5x) _ _ _ _ _ _ _ _ _ _ _ _ _ _ _ _ _
 72
    65
 73
     2
 40
0.1875
 49
0.125
 74
     0
 49
-0.0625
 74
     0
  0
ENDTAB
  0
TABLE
  2
LAYER
  5
10
330
0
100
AcDbSymbolTable
 70
     2
  0
LAYER
  5
4
330
10
100
AcDbSymbolTableRecord
100
AcDbLayerTableRecord
  2
0
 70
     0
 62
     7
  6
CONTINUOUS
370
    -3
390
5
  0
LAYER
  5
22
330
10
100
AcDbSymbolTableRecord
100
AcDbLayerTableRecord
  2
OBJECT
 70
     0
 62
     7
  6
CONTINUOUS
370
    -3
390
5
  0
ENDTAB
  0
TABLE
  2
STYLE
  5
11
330
0
100
AcDbSymbolTable
 70
     1
  0
STYLE
  5
12
330
11
100
AcDbSymbolTableRecord
100
AcDbTextStyleTableRecord
  2
STANDARD
 70
     0
 40
0.0
 41
1.0
 50
0.0
 71
     0
 42
0.27
  3
TXT
  4

  0
ENDTAB
  0
TABLE
  2
VIEW
  5
17
330
0
100
AcDbSymbolTable
 70
     0
  0
ENDTAB
  0
TABLE
  2
UCS
  5
18
330
0
100
AcDbSymbolTable
 70
     0
  0
ENDTAB
  0
TABLE
  2
APPID
  5
1B
330
0
100
AcDbSymbolTable
 70
     2
  0
APPID
  5
1C
330
1B
100
AcDbSymbolTableRecord
100
AcDbRegAppTableRecord
  2
ACAD
 70
     0
  0
APPID
  5
3E
330
1B
100
AcDbSymbolTableRecord
100
AcDbRegAppTableRecord
  2
RAK
 70
     0
  0
ENDTAB
  0
TABLE
  2
DIMSTYLE
  5
1D
330
0
100
AcDbSymbolTable
 70
     1
100
AcDbDimStyleTable
  0
DIMSTYLE
105
24
330
1D
100
AcDbSymbolTableRecord
100
AcDbDimStyleTableRecord
  2
STANDARD
 70
     0
  3

  4

340
12
  0
ENDTAB
  0
TABLE
  2
BLOCK_RECORD
  5
1
330
0
100
AcDbSymbolTable
 70
     1
  0
BLOCK_RECORD
  5
2
102
{ACAD_XDICTIONARY
360
FA
102
}
330
1
100
AcDbSymbolTableRecord
100
AcDbBlockTableRecord
  2
*MODEL_SPACE
340
A
  0
BLOCK_RECORD
  5
C
330
1
100
AcDbSymbolTableRecord
100
AcDbBlockTableRecord
  2
*PAPER_SPACE
340
F
  0
BLOCK_RECORD
  5
65
330
1
100
AcDbSymbolTableRecord
100
AcDbBlockTableRecord
  2
A$C0B730322
340
0
102
{BLKREFS
331
142
331
159
102
}
  0
ENDTAB
  0
ENDSEC
  0
SECTION
  2
BLOCKS
  0
BLOCK
  5
3
330
2
100
AcDbEntity
  8
0
100
AcDbBlockBegin
  2
*MODEL_SPACE
 70
     0
 10
0.0
 20
0.0
 30
0.0
  3
*MODEL_SPACE
  1

  4

  0
ENDBLK
  5
9
330
2
100
AcDbEntity
  8
0
100
AcDbBlockEnd
  0
BLOCK
  5
D
330
C
100
AcDbEntity
 67
     1
  8
0
100
AcDbBlockBegin
  2
*PAPER_SPACE
 70
     0
 10
0.0
 20
0.0
 30
0.0
  3
*PAPER_SPACE
  1

  4

  0
ENDBLK
  5
E
330
C
100
AcDbEntity
 67
     1
  8
0
100
AcDbBlockEnd
  0
BLOCK
  5
6C
330
65
100
AcDbEntity
  8
0
100
AcDbBlockBegin
  2
A$C0B730322
 70
     0
 10
0.0
 20
0.0
 30
0.0
  3
A$C0B730322
  1

  4

  0
ARC
  5
66
330
65
100
AcDbEntity
  8
OBJECT
100
AcDbCircle
 10
0.2852612510982731
 20
0.4117232809782259
 30
0.0
 40
0.1881
100
AcDbArc
 50
135.0
 51
205.033699837247
  0
ARC
  5
67
330
65
100
AcDbEntity
  8
OBJECT
100
AcDbCircle
 10
0.3699461014123742
 20
0.2303945602099518
 30
0.0
 40
0.3762
100
AcDbArc
 50
135.0
 51
204.0763743990387
  0
LINE
  5
68
330
65
100
AcDbEntity
  8
OBJECT
100
AcDbLine
 10
0.195598223669279
 20
0.1591894630226669
 30
0.0
 11
0.114831542366904
 21
0.3321285300096974
 31
0.0
  0
ARC
  5
69
330
65
100
AcDbEntity
  8
OBJECT
100
AcDbCircle
 10
-0.1452611937934556
 20
-0.0000000389143828
 30
0.0
 40
0.3762
100
AcDbArc
 50
0.0000000000001018
 51
25.03369983724715
  0
ARC
  5
6A
330
65
100
AcDbEntity
  8
OBJECT
100
AcDbCircle
 10
-0.1452611937934485
 20
0.0001861047469411
 30
0.0
 40
0.1881
100
AcDbArc
 50
0.0000000000002976
 51
24.07637439904274
  0
LINE
  5
6B
330
65
100
AcDbEntity
  8
OBJECT
100
AcDbLine
 10
0.1039325303299989
 20
0.4964081312923305
 30
0.0
 11
0.2309388062065452
 21
0.6234144071688768
 31
0.0
  0
ENDBLK
  5
6D
330
65
100
AcDbEntity
  8
0
100
AcDbBlockEnd
  0
ENDSEC
  0
SECTION
  2
ENTITIES
  0
LINE
  5
FF
330
2
100
AcDbEntity
  8
0
  6
Continuous
100
AcDbLine
 10
-1.752235350969766
 20
21.61991044310263
 30
0.0
 11
1.747764649030235
 21
21.61991044310263
 31
0.0
  0
LINE
  5
100
330
2
100
AcDbEntity
  8
0
 48
10.0
100
AcDbLine
 10
-1.881456052909273
 20
21.43266044310263
 30
0.0
 11
-0.1582353509697692
 21
21.43266044310263
 31
0.0
  0
LINE
  5
101
330
2
100
AcDbEntity
  8
0
 48
10.0
100
AcDbLine
 10
1.876985350969757
 20
19.21391044310263
 30
0.0
 11
-1.881456052909273
 21
19.21391044310263
 31
0.0
  0
LINE
  5
102
330
2
100
AcDbEntity
  8
0
 48
10.0
100
AcDbLine
 10
-1.881456052909273
 20
21.52641044310263
 30
0.0
 11
1.876985350969757
 21
21.52641044310263
 31
0.0
  0
LINE
  5
103
330
2
100
AcDbEntity
  8
0
  6
Continuous
100
AcDbLine
 10
-1.752235350969766
 20
21.43266044310263
 30
0.0
 11
-1.752235350969767
 21
19.21391044310263
 31
0.0
  0
LINE
  5
104
330
2
100
AcDbEntity
  8
0
  6
Continuous
100
AcDbLine
 10
-1.881456052909273
 20
19.21391044310264
 30
0.0
 11
-1.881456052909273
 21
21.22485136046264
 31
0.0
  0
LINE
  5
105
330
2
100
AcDbEntity
  8
0
  6
Continuous
100
AcDbLine
 10
-1.787406052909278
 20
19.21391044310263
 30
0.0
 11
-1.787406052909277
 21
21.22475828863198
 31
0.0
  0
ARC
  5
106
330
2
100
AcDbEntity
  8
0
  6
HIDDEN2
 48
10.0
100
AcDbCircle
 10
-1.252235350969758
 20
19.21391044310263
 30
0.0
 40
0.078
100
AcDbArc
 50
90.0
 51
155.2157154469224
  0
ARC
  5
107
330
2
100
AcDbEntity
  8
0
  6
HIDDEN2
 48
10.0
100
AcDbCircle
 10
-1.127235350969758
 20
19.21391044310263
 30
0.0
 40
0.078
100
AcDbArc
 50
24.78428455307765
 51
90.0
  0
ARC
  5
108
330
2
100
AcDbEntity
  8
0
100
AcDbCircle
 10
-1.815696062116031
 20
21.39264340090216
 30
0.0
 40
0.1490570292478246
100
AcDbArc
 50
116.1787702665364
 51
240.2599389129782
  0
ARC
  5
109
330
2
100
AcDbEntity
  8
0
100
AcDbCircle
 10
-1.693506141376242
 20
21.4576569324849
 30
0.0
 40
0.1896048357155339
100
AcDbArc
 50
187.5756232851317
 51
233.9539400845412
  0
LINE
  5
10A
330
2
100
AcDbEntity
  8
0
  6
Continuous
100
AcDbLine
 10
-1.693656052909276
 20
20.50580308476241
 30
0.0
 11
-1.693656052909272
 21
20.32801780144286
 31
0.0
  0
ELLIPSE
  5
10B
330
2
100
AcDbEntity
  8
0
  6
Continuous
100
AcDbEllipse
 10
-1.782504837133208
 20
20.32362111943854
 30
0.0
 11
0.02516453530990528
 21
-0.09163408023333187
 31
0.0
210
0.0
220
0.0
230
1.0
 40
0.933289939707793
 41
-0.341179514948071
 42
1.366392480241568
  0
ELLIPSE
  5
10C
330
2
100
AcDbEntity
  8
0
  6
Continuous
100
AcDbEllipse
 10
-1.782504837133212
 20
20.51019976676673
 30
0.0
 11
0.02516453530990182
 21
0.09163408023333282
 31
0.0
210
0.0
220
0.0
230
-1.0
 40
0.9332899397077927
 41
-0.341179514948071
 42
1.366392480241568
  0
ARC
  5
10D
330
2
100
AcDbEntity
  8
0
100
AcDbCircle
 10
-1.975506052909274
 20
21.22485136046264
 30
0.0
 40
0.09405
100
AcDbArc
 50
0.0000000000003123
 51
24.07637439904275
  0
ARC
  5
10E
330
2
100
AcDbEntity
  8
0
100
AcDbCircle
 10
-1.975506052909277
 20
21.22475828863198
 30
0.0
 40
0.1881
100
AcDbArc
 50
0.0000000000001088
 51
25.03369983724715
  0
ARC
  5
10F
330
2
100
AcDbEntity
  8
0
  6
HIDDEN2
 48
10.0
100
AcDbCircle
 10
-1.252235350969758
 20
21.43266044310262
 30
0.0
 40
0.078
100
AcDbArc
 50
204.7842845530776
 51
270.0
  0
ARC
  5
110
330
2
100
AcDbEntity
  8
0
  6
HIDDEN2
 48
10.0
100
AcDbCircle
 10
-1.127235350969758
 20
21.43266044310262
 30
0.0
 40
0.078
100
AcDbArc
 50
270.0
 51
335.2157154469224
  0
LINE
  5
111
330
2
100
AcDbEntity
  8
0
  6
Continuous
100
AcDbLine
 10
-1.752235350969766
 20
21.61991044310263
 30
0.0
 11
-1.752235350969767
 21
21.52641044310263
 31
0.0
  0
LINE
  5
112
330
2
100
AcDbEntity
  8
0
  6
Continuous
100
AcDbLine
 10
-1.881456052909273
 20
21.43266044310263
 30
0.0
 11
-1.881456052909273
 21
21.52641044310263
 31
0.0
  0
POINT
  5
113
330
2
100
AcDbEntity
  8
0
  6
ByBlock
 48
10.0
100
AcDbPoint
 10
-1.752235350969751
 20
21.52641044310262
 30
0.0
  0
LINE
  5
114
330
2
100
AcDbEntity
  8
0
  6
Continuous
100
AcDbLine
 10
-1.658235350969796
 20
21.43266044310263
 30
0.0
 11
-1.658235350969796
 21
21.52641044310263
 31
0.0
  0
ARC
  5
115
330
2
100
AcDbEntity
  8
0
100
AcDbCircle
 10
1.811225360176516
 20
21.39264340090216
 30
0.0
 40
0.1490570292478246
100
AcDbArc
 50
299.7400610870217
 51
63.82122973346362
  0
LINE
  5
116
330
2
100
AcDbEntity
  8
0
  6
Continuous
100
AcDbLine
 10
1.747764649030233
 20
21.43266044310262
 30
0.0
 11
1.747764649030235
 21
19.21391044310263
 31
0.0
  0
LINE
  5
117
330
2
100
AcDbEntity
  8
0
  6
Continuous
100
AcDbLine
 10
1.876985350969757
 20
19.21391044310263
 30
0.0
 11
1.876985350969759
 21
21.22485136046264
 31
0.0
  0
LINE
  5
118
330
2
100
AcDbEntity
  8
0
  6
Continuous
100
AcDbLine
 10
1.783240086780125
 20
19.21391044310263
 30
0.0
 11
1.782935350969761
 21
21.22475828863198
 31
0.0
  0
CIRCLE
  5
119
330
2
100
AcDbEntity
  8
0
100
AcDbCircle
 10
-0.002235350969765
 20
20.44516044310263
 30
0.0
 40
0.34375
  0
ARC
  5
11A
330
2
100
AcDbEntity
  8
0
  6
HIDDEN2
 48
10.0
100
AcDbCircle
 10
1.247764649030228
 20
19.21391044310263
 30
0.0
 40
0.078
100
AcDbArc
 50
24.78428455307765
 51
90.0
  0
ARC
  5
11B
330
2
100
AcDbEntity
  8
0
  6
HIDDEN2
 48
10.0
100
AcDbCircle
 10
1.122764649030228
 20
19.21391044310263
 30
0.0
 40
0.078
100
AcDbArc
 50
90.0
 51
155.2157154469224
  0
LINE
  5
11C
330
2
100
AcDbEntity
  8
0
 48
10.0
100
AcDbLine
 10
0.1537646490302533
 20
21.43266044310263
 30
0.0
 11
1.876985350969757
 21
21.43266044310263
 31
0.0
  0
LINE
  5
11D
330
2
100
AcDbEntity
  8
0
  6
Continuous
100
AcDbLine
 10
-0.1582353509697692
 20
21.43266044310263
 30
0.0
 11
-0.1582353509697692
 21
21.52641044310263
 31
0.0
  0
LINE
  5
11E
330
2
100
AcDbEntity
  8
0
  6
Continuous
100
AcDbLine
 10
-0.2832353509697834
 20
21.43266044310263
 30
0.0
 11
-0.2832353509697834
 21
21.52641044310263
 31
0.0
  0
LINE
  5
11F
330
2
100
AcDbEntity
  8
0
  6
Continuous
100
AcDbLine
 10
0.1537646490302533
 20
21.43266044310263
 30
0.0
 11
0.1537646490302533
 21
21.52641044310263
 31
0.0
  0
LINE
  5
120
330
2
100
AcDbEntity
  8
0
  6
Continuous
100
AcDbLine
 10
0.2787646490302675
 20
21.43266044310263
 30
0.0
 11
0.2787646490302675
 21
21.52641044310263
 31
0.0
  0
ARC
  5
121
330
2
100
AcDbEntity
  8
0
100
AcDbCircle
 10
1.689035439436727
 20
21.4576569324849
 30
0.0
 40
0.1896048357155339
100
AcDbArc
 50
306.0460599154588
 51
352.4243767148682
  0
ARC
  5
122
330
2
100
AcDbEntity
  8
0
  6
HIDDEN2
 48
10.0
100
AcDbCircle
 10
1.247764649030228
 20
21.43266044310262
 30
0.0
 40
0.078
100
AcDbArc
 50
270.0
 51
335.2157154469224
  0
ARC
  5
123
330
2
100
AcDbEntity
  8
0
  6
HIDDEN2
 48
10.0
100
AcDbCircle
 10
1.122764649030228
 20
21.43266044310262
 30
0.0
 40
0.078
100
AcDbArc
 50
204.7842845530776
 51
270.0
  0
LINE
  5
124
330
2
100
AcDbEntity
  8
0
  6
Continuous
100
AcDbLine
 10
1.689185350969747
 20
20.50580308476241
 30
0.0
 11
1.689185350969743
 21
20.32801780144286
 31
0.0
  0
ELLIPSE
  5
125
330
2
100
AcDbEntity
  8
0
  6
Continuous
100
AcDbEllipse
 10
1.778034135193681
 20
20.32362111943854
 30
0.0
 11
-0.02516453530990528
 21
-0.09163408023333187
 31
0.0
210
0.0
220
0.0
230
-1.0
 40
0.933289939707793
 41
-0.341179514948071
 42
1.366392480241568
  0
ELLIPSE
  5
126
330
2
100
AcDbEntity
  8
0
  6
Continuous
100
AcDbEllipse
 10
1.778034135193685
 20
20.51019976676673
 30
0.0
 11
-0.02516453530990182
 21
0.09163408023333282
 31
0.0
210
0.0
220
0.0
230
1.0
 40
0.9332899397077927
 41
-0.341179514948071
 42
1.366392480241568
  0
ARC
  5
127
330
2
100
AcDbEntity
  8
0
100
AcDbCircle
 10
1.971035350969758
 20
21.22485136046264
 30
0.0
 40
0.09405
100
AcDbArc
 50
155.9236256009573
 51
179.9999999999997
  0
ARC
  5
128
330
2
100
AcDbEntity
  8
0
100
AcDbCircle
 10
1.971035350969761
 20
21.22475828863198
 30
0.0
 40
0.1881
100
AcDbArc
 50
154.9663001627528
 51
179.9999999999999
  0
LINE
  5
129
330
2
100
AcDbEntity
  8
0
  6
Continuous
100
AcDbLine
 10
1.747764649030235
 20
21.61991044310263
 30
0.0
 11
1.747764649030233
 21
21.52641044310263
 31
0.0
  0
LINE
  5
12A
330
2
100
AcDbEntity
  8
0
  6
Continuous
100
AcDbLine
 10
1.876985350969757
 20
21.43266044310263
 30
0.0
 11
1.876985350969757
 21
21.52641044310263
 31
0.0
  0
LINE
  5
12B
330
2
100
AcDbEntity
  8
0
  6
Continuous
100
AcDbLine
 10
1.65376464903028
 20
21.43266044310263
 30
0.0
 11
1.65376464903028
 21
21.52641044310263
 31
0.0
  0
POINT
  5
12C
330
2
100
AcDbEntity
  8
0
  6
ByBlock
 48
10.0
100
AcDbPoint
 10
1.747764649030235
 20
21.52641044310262
 30
0.0
  0
LINE
  5
12D
330
2
100
AcDbEntity
  8
0
100
AcDbLine
 10
0.1537646490302533
 20
2.46361502044477
 30
0.0
 11
0.1537646490302533
 21
14.65624999999999
 31
0.0
  0
LINE
  5
12E
330
2
100
AcDbEntity
  8
0
 48
10.0
100
AcDbLine
 10
1.77876464903028
 20
14.65625000000001
 30
0.0
 11
1.782935350969761
 21
3.437612512137005
 31
0.0
  0
LINE
  5
12F
330
2
100
AcDbEntity
  8
0
 48
10.0
100
AcDbLine
 10
-1.783235350969796
 20
14.65625000000001
 30
0.0
 11
-1.787406052909277
 21
3.437612512137005
 31
0.0
  0
LINE
  5
130
330
2
100
AcDbEntity
  8
0
100
AcDbLine
 10
-0.1582353509697692
 20
2.46361502044477
 30
0.0
 11
-0.1582353509697692
 21
14.65624999999999
 31
0.0
  0
LINE
  5
131
330
2
100
AcDbEntity
  8
0
 48
10.0
100
AcDbLine
 10
-1.787706052909272
 20
0.4675665227196504
 30
0.0
 11
1.783235350969757
 21
0.4675665227196504
 31
0.0
  0
LINE
  5
132
330
2
100
AcDbEntity
  8
0
 48
10.0
100
AcDbLine
 10
-1.751985350969757
 20
0.0
 30
0.0
 11
1.751985350969757
 21
0.0
 31
0.0
  0
LINE
  5
133
330
2
100
AcDbEntity
  8
0
 48
10.0
100
AcDbLine
 10
-1.721235350969757
 20
0.09375
 30
0.0
 11
1.721235350969756
 21
0.09375
 31
0.0
  0
CIRCLE
  5
134
330
2
100
AcDbEntity
  8
0
 48
10.0
100
AcDbCircle
 10
-0.9082353509697692
 20
2.232638888888872
 30
0.0
 40
0.078
  0
LINE
  5
135
330
2
100
AcDbEntity
  8
0
 48
10.0
100
AcDbLine
 10
-0.1582353509697692
 20
2.46361502044477
 30
0.0
 11
-1.689485350969769
 21
0.6387399034730148
 31
0.0
  0
LINE
  5
136
330
2
100
AcDbEntity
  8
0
  6
Continuous
100
AcDbLine
 10
-1.787706052909273
 20
0.1557499999999994
 30
0.0
 11
-1.787706052909273
 21
3.125998360926037
 31
0.0
  0
LINE
  5
137
330
2
100
AcDbEntity
  8
0
  6
Continuous
100
AcDbLine
 10
-1.881456052909273
 20
0.125
 30
0.0
 11
-1.881456052909273
 21
3.125998360926037
 31
0.0
  0
ARC
  5
138
330
2
100
AcDbEntity
  8
0
100
AcDbCircle
 10
-1.756456052909273
 20
0.125
 30
0.0
 40
0.125
100
AcDbArc
 50
180.0
 51
270.0
  0
LINE
  5
139
330
2
100
AcDbEntity
  8
0
  6
Continuous
100
AcDbLine
 10
-1.772081052909273
 20
0.3863766411148468
 30
0.0
 11
-1.740831052909273
 21
0.4405032288513819
 31
0.0
  0
ARC
  5
13A
330
2
100
AcDbEntity
  8
0
100
AcDbCircle
 10
-1.725706052909271
 20
0.1557499999999994
 30
0.0
 40
0.062
100
AcDbArc
 50
180.0
 51
270.0
  0
POINT
  5
13B
330
2
100
AcDbEntity
  8
0
  6
ByBlock
 48
10.0
100
AcDbPoint
 10
-1.783235350969757
 20
0.1557499999999994
 30
0.0
  0
LINE
  5
13C
330
2
100
AcDbEntity
  8
0
  6
Continuous
100
AcDbLine
 10
-1.36123535096976
 20
0.09375
 30
0.0
 11
-1.36123535096976
 21
0.0
 31
0.0
  0
LINE
  5
13D
330
2
100
AcDbEntity
  8
0
  6
Continuous
100
AcDbLine
 10
-1.080235350969754
 20
0.09375
 30
0.0
 11
-1.080235350969754
 21
0.0
 31
0.0
  0
ELLIPSE
  5
13E
330
2
100
AcDbEntity
  8
0
  6
Continuous
100
AcDbEllipse
 10
-1.778334135193705
 20
0.5684606763358744
 30
0.0
 11
0.02516453530990528
 21
-0.09163408023333187
 31
0.0
210
0.0
220
0.0
230
1.0
 40
0.933289939707793
 41
-0.341179514948071
 42
1.366392480241568
  0
LINE
  5
13F
330
2
100
AcDbEntity
  8
0
  6
Continuous
100
AcDbLine
 10
-1.689485350969773
 20
0.7506426416597449
 30
0.0
 11
-1.689485350969769
 21
0.5728573583401939
 31
0.0
  0
ELLIPSE
  5
140
330
2
100
AcDbEntity
  8
0
  6
Continuous
100
AcDbEllipse
 10
-1.778334135193709
 20
0.7550393236640609
 30
0.0
 11
0.02516453530990182
 21
0.09163408023333282
 31
0.0
210
0.0
220
0.0
230
-1.0
 40
0.9332899397077927
 41
-0.341179514948071
 42
1.366392480241568
  0
LINE
  5
141
330
2
100
AcDbEntity
  8
0
  6
Continuous
100
AcDbLine
 10
-1.881456052909273
 20
0.4999999999999982
 30
0.0
 11
-1.787706052909273
 21
0.5
 31
0.0
  0
INSERT
  5
142
330
2
100
AcDbEntity
  8
0
  6
Continuous
100
AcDbBlockReference
  2
A$C0B730322
 10
-1.902875456012549
 20
3.125905308552564
 30
0.0
 41
0.5
 42
0.5
 43
0.5
  0
CIRCLE
  5
143
330
2
100
AcDbEntity
  8
0
 48
10.0
100
AcDbCircle
 10
-0.9707353509697407
 20
4.281250000000007
 30
0.0
 40
0.078
  0
CIRCLE
  5
144
330
2
100
AcDbEntity
  8
0
 48
10.0
100
AcDbCircle
 10
-0.9707353509697407
 20
5.281250000000007
 30
0.0
 40
0.078
  0
CIRCLE
  5
145
330
2
100
AcDbEntity
  8
0
 48
10.0
100
AcDbCircle
 10
-0.9707353509697407
 20
6.281250000000007
 30
0.0
 40
0.078
  0
CIRCLE
  5
146
330
2
100
AcDbEntity
  8
0
 48
10.0
100
AcDbCircle
 10
-1.533235350969741
 20
7.031250000000007
 30
0.0
 40
0.078
  0
LINE
  5
147
330
2
100
AcDbEntity
  8
0
  6
Continuous
100
AcDbLine
 10
1.783235350969757
 20
0.1557499999999994
 30
0.0
 11
1.783235350969757
 21
3.125998360926037
 31
0.0
  0
LINE
  5
148
330
2
100
AcDbEntity
  8
0
  6
Continuous
100
AcDbLine
 10
1.876985350969757
 20
0.125
 30
0.0
 11
1.876985350969757
 21
3.125998360926037
 31
0.0
  0
LINE
  5
149
330
2
100
AcDbEntity
  8
0
  6
HIDDEN2
100
AcDbLine
 10
0.3102646490302359
 20
0.4675665227196486
 30
0.0
 11
0.3102646490302359
 21
0.09375
 31
0.0
  0
LINE
  5
14A
330
2
100
AcDbEntity
  8
0
  6
HIDDEN2
100
AcDbLine
 10
-0.3459853509697641
 20
0.4675665227196486
 30
0.0
 11
-0.3459853509697641
 21
0.09375
 31
0.0
  0
LINE
  5
14B
330
2
100
AcDbEntity
  8
0
  6
Continuous
100
AcDbLine
 10
1.01376464903024
 20
0.09375
 30
0.0
 11
1.013764649030242
 21
0.0
 31
0.0
  0
LINE
  5
14C
330
2
100
AcDbEntity
  8
0
  6
Continuous
100
AcDbLine
 10
1.294764649030245
 20
0.09375
 30
0.0
 11
1.294764649030243
 21
0.0000000000000018
 31
0.0
  0
LINE
  5
14D
330
2
100
AcDbEntity
  8
0
  6
Continuous
100
AcDbLine
 10
1.767610350969757
 20
0.3863766411148468
 30
0.0
 11
1.736360350969757
 21
0.4405032288513819
 31
0.0
  0
POINT
  5
14E
330
2
100
AcDbEntity
  8
0
  6
ByBlock
 48
10.0
100
AcDbPoint
 10
1.778764649030241
 20
0.1557499999999994
 30
0.0
  0
ARC
  5
14F
330
2
100
AcDbEntity
  8
0
100
AcDbCircle
 10
1.721235350969756
 20
0.1557499999999994
 30
0.0
 40
0.062
100
AcDbArc
 50
270.0
 51
0.000000000000007
  0
ARC
  5
150
330
2
100
AcDbEntity
  8
0
100
AcDbCircle
 10
1.751985350969757
 20
0.125
 30
0.0
 40
0.125
100
AcDbArc
 50
270.0
 51
0.000000000000007
  0
CIRCLE
  5
151
330
2
100
AcDbEntity
  8
0
 48
10.0
100
AcDbCircle
 10
0.5287646490302533
 20
2.843750000000007
 30
0.0
 40
0.078
  0
LINE
  5
152
330
2
100
AcDbEntity
  8
0
 48
10.0
100
AcDbLine
 10
0.1537646490302533
 20
2.46361502044477
 30
0.0
 11
1.689485350969757
 21
0.6334119212853935
 31
0.0
  0
CIRCLE
  5
153
330
2
100
AcDbEntity
  8
0
 48
10.0
100
AcDbCircle
 10
-0.5332353509697692
 20
2.843750000000007
 30
0.0
 40
0.078
  0
LINE
  5
154
330
2
100
AcDbEntity
  8
0
  6
Continuous
100
AcDbLine
 10
1.689485350969757
 20
0.7506426416597769
 30
0.0
 11
1.689485350969757
 21
0.5728573583402259
 31
0.0
  0
ELLIPSE
  5
155
330
2
100
AcDbEntity
  8
0
  6
Continuous
100
AcDbEllipse
 10
1.778334135193693
 20
0.5684606763359081
 30
0.0
 11
-0.02516453530990354
 21
-0.09163408023333235
 31
0.0
210
0.0
220
0.0
230
-1.0
 40
0.933289939707793
 41
-0.341179514948071
 42
1.366392480241568
  0
ELLIPSE
  5
156
330
2
100
AcDbEntity
  8
0
  6
Continuous
100
AcDbEllipse
 10
1.778334135193693
 20
0.7550393236640947
 30
0.0
 11
-0.02516453530990354
 21
0.09163408023333235
 31
0.0
210
0.0
220
0.0
230
1.0
 40
0.933289939707793
 41
-0.341179514948071
 42
1.366392480241568
  0
LINE
  5
157
330
2
100
AcDbEntity
  8
0
  6
Continuous
100
AcDbLine
 10
1.876985350969757
 20
0.4999999999999982
 30
0.0
 11
1.783235350969757
 21
0.5
 31
0.0
  0
CIRCLE
  5
158
330
2
100
AcDbEntity
  8
0
 48
10.0
100
AcDbCircle
 10
0.9037646490302533
 20
2.232638888888872
 30
0.0
 40
0.078
  0
INSERT
  5
159
330
2
100
AcDbEntity
  8
0
  6
Continuous
100
AcDbBlockReference
  2
A$C0B730322
 10
1.898404754073034
 20
3.125905308552564
 30
0.0
 41
-0.5
 42
0.5
 43
0.5
  0
CIRCLE
  5
15A
330
2
100
AcDbEntity
  8
0
 48
10.0
100
AcDbCircle
 10
0.9662646490302249
 20
4.281250000000007
 30
0.0
 40
0.078
  0
CIRCLE
  5
15B
330
2
100
AcDbEntity
  8
0
 48
10.0
100
AcDbCircle
 10
0.9662646490302249
 20
5.281250000000007
 30
0.0
 40
0.078
  0
CIRCLE
  5
15C
330
2
100
AcDbEntity
  8
0
 48
10.0
100
AcDbCircle
 10
-0.4082353509697407
 20
7.531250000000007
 30
0.0
 40
0.078
  0
CIRCLE
  5
15D
330
2
100
AcDbEntity
  8
0
 48
10.0
100
AcDbCircle
 10
0.4037646490303244
 20
7.031250000000007
 30
0.0
 40
0.078
  0
CIRCLE
  5
15E
330
2
100
AcDbEntity
  8
0
 48
10.0
100
AcDbCircle
 10
0.9662646490302249
 20
6.281250000000007
 30
0.0
 40
0.078
  0
CIRCLE
  5
15F
330
2
100
AcDbEntity
  8
0
 48
10.0
100
AcDbCircle
 10
1.528764649030324
 20
7.531250000000007
 30
0.0
 40
0.078
  0
LINE
  5
160
330
2
100
AcDbEntity
  8
0
 48
10.0
100
AcDbLine
 10
-0.2832353509697834
 20
14.78125000000001
 30
0.0
 11
-1.658235350969796
 21
14.78125000000001
 31
0.0
  0
CIRCLE
  5
161
330
2
100
AcDbEntity
  8
0
 48
10.0
100
AcDbCircle
 10
-1.533235350969741
 20
9.031250000000007
 30
0.0
 40
0.078
  0
CIRCLE
  5
162
330
2
100
AcDbEntity
  8
0
 48
10.0
100
AcDbCircle
 10
-1.533235350969741
 20
8.031250000000007
 30
0.0
 40
0.078
  0
CIRCLE
  5
163
330
2
100
AcDbEntity
  8
0
 48
10.0
100
AcDbCircle
 10
-1.533235350969741
 20
10.03125000000001
 30
0.0
 40
0.078
  0
CIRCLE
  5
164
330
2
100
AcDbEntity
  8
0
 48
10.0
100
AcDbCircle
 10
-1.533235350969739
 20
11.03125000000001
 30
0.0
 40
0.078
  0
CIRCLE
  5
165
330
2
100
AcDbEntity
  8
0
 48
10.0
100
AcDbCircle
 10
-1.533235350969739
 20
12.03125000000001
 30
0.0
 40
0.078
  0
CIRCLE
  5
166
330
2
100
AcDbEntity
  8
0
 48
10.0
100
AcDbCircle
 10
-1.533235350969739
 20
14.03125000000002
 30
0.0
 40
0.078
  0
CIRCLE
  5
167
330
2
100
AcDbEntity
  8
0
 48
10.0
100
AcDbCircle
 10
-1.533235350969739
 20
13.03125000000001
 30
0.0
 40
0.078
  0
LINE
  5
168
330
2
100
AcDbEntity
  8
0
100
AcDbLine
 10
-1.658235350969796
 20
14.78125000000001
 30
0.0
 11
-1.783235350969796
 21
14.65625000000001
 31
0.0
  0
CIRCLE
  5
169
330
2
100
AcDbEntity
  8
0
 48
10.0
100
AcDbCircle
 10
0.4037646490303244
 20
9.031250000000007
 30
0.0
 40
0.078
  0
CIRCLE
  5
16A
330
2
100
AcDbEntity
  8
0
 48
10.0
100
AcDbCircle
 10
-0.4082353509697407
 20
8.531250000000007
 30
0.0
 40
0.078
  0
CIRCLE
  5
16B
330
2
100
AcDbEntity
  8
0
 48
10.0
100
AcDbCircle
 10
0.4037646490303244
 20
8.031250000000007
 30
0.0
 40
0.078
  0
CIRCLE
  5
16C
330
2
100
AcDbEntity
  8
0
 48
10.0
100
AcDbCircle
 10
-0.4082353509697407
 20
9.531250000000007
 30
0.0
 40
0.078
  0
CIRCLE
  5
16D
330
2
100
AcDbEntity
  8
0
 48
10.0
100
AcDbCircle
 10
0.4037646490303244
 20
10.03125000000001
 30
0.0
 40
0.078
  0
CIRCLE
  5
16E
330
2
100
AcDbEntity
  8
0
 48
10.0
100
AcDbCircle
 10
1.528764649030324
 20
8.531250000000007
 30
0.0
 40
0.078
  0
CIRCLE
  5
16F
330
2
100
AcDbEntity
  8
0
 48
10.0
100
AcDbCircle
 10
1.528764649030324
 20
9.531250000000007
 30
0.0
 40
0.078
  0
CIRCLE
  5
170
330
2
100
AcDbEntity
  8
0
 48
10.0
100
AcDbCircle
 10
-0.4082353509697407
 20
11.53125000000001
 30
0.0
 40
0.078
  0
CIRCLE
  5
171
330
2
100
AcDbEntity
  8
0
 48
10.0
100
AcDbCircle
 10
-0.4082353509697407
 20
10.53125000000001
 30
0.0
 40
0.078
  0
CIRCLE
  5
172
330
2
100
AcDbEntity
  8
0
 48
10.0
100
AcDbCircle
 10
0.4037646490303262
 20
11.03125000000001
 30
0.0
 40
0.078
  0
CIRCLE
  5
173
330
2
100
AcDbEntity
  8
0
 48
10.0
100
AcDbCircle
 10
-0.4082353509697407
 20
12.53125000000001
 30
0.0
 40
0.078
  0
CIRCLE
  5
174
330
2
100
AcDbEntity
  8
0
 48
10.0
100
AcDbCircle
 10
0.4037646490303262
 20
12.03125000000001
 30
0.0
 40
0.078
  0
CIRCLE
  5
175
330
2
100
AcDbEntity
  8
0
 48
10.0
100
AcDbCircle
 10
1.528764649030324
 20
11.53125000000001
 30
0.0
 40
0.078
  0
CIRCLE
  5
176
330
2
100
AcDbEntity
  8
0
 48
10.0
100
AcDbCircle
 10
1.528764649030324
 20
10.53125000000001
 30
0.0
 40
0.078
  0
CIRCLE
  5
177
330
2
100
AcDbEntity
  8
0
 48
10.0
100
AcDbCircle
 10
1.528764649030324
 20
12.53125000000001
 30
0.0
 40
0.078
  0
LINE
  5
178
330
2
100
AcDbEntity
  8
0
 48
10.0
100
AcDbLine
 10
0.2787646490302675
 20
14.78125000000001
 30
0.0
 11
1.65376464903028
 21
14.78125000000001
 31
0.0
  0
CIRCLE
  5
179
330
2
100
AcDbEntity
  8
0
 48
10.0
100
AcDbCircle
 10
0.4037646490303262
 20
14.03125000000002
 30
0.0
 40
0.078
  0
CIRCLE
  5
17A
330
2
100
AcDbEntity
  8
0
 48
10.0
100
AcDbCircle
 10
-0.4082353509697407
 20
13.53125000000001
 30
0.0
 40
0.078
  0
CIRCLE
  5
17B
330
2
100
AcDbEntity
  8
0
 48
10.0
100
AcDbCircle
 10
0.4037646490303262
 20
13.03125000000001
 30
0.0
 40
0.078
  0
LINE
  5
17C
330
2
100
AcDbEntity
  8
0
100
AcDbLine
 10
-0.1582353509697834
 20
14.53125000000001
 30
0.0
 11
-0.1582353509697834
 21
14.53125000000001
 31
0.0
  0
CIRCLE
  5
17D
330
2
100
AcDbEntity
  8
0
 48
10.0
100
AcDbCircle
 10
-0.4082353509697407
 20
14.53125000000002
 30
0.0
 40
0.078
  0
LINE
  5
17E
330
2
100
AcDbEntity
  8
0
100
AcDbLine
 10
-0.1582353509697834
 20
14.65625000000001
 30
0.0
 11
-0.2832353509697834
 21
14.78125000000001
 31
0.0
  0
LINE
  5
17F
330
2
100
AcDbEntity
  8
0
100
AcDbLine
 10
0.1537646490302675
 20
14.53125000000001
 30
0.0
 11
0.1537646490302675
 21
14.53125000000001
 31
0.0
  0
LINE
  5
180
330
2
100
AcDbEntity
  8
0
100
AcDbLine
 10
0.1537646490302675
 20
14.65625000000001
 30
0.0
 11
0.2787646490302675
 21
14.78125000000001
 31
0.0
  0
CIRCLE
  5
181
330
2
100
AcDbEntity
  8
0
 48
10.0
100
AcDbCircle
 10
1.528764649030324
 20
13.53125000000001
 30
0.0
 40
0.078
  0
CIRCLE
  5
182
330
2
100
AcDbEntity
  8
0
 48
10.0
100
AcDbCircle
 10
1.528764649030324
 20
14.53125000000002
 30
0.0
 40
0.078
  0
LINE
  5
183
330
2
100
AcDbEntity
  8
0
100
AcDbLine
 10
1.65376464903028
 20
14.78125000000001
 30
0.0
 11
1.77876464903028
 21
14.65625000000001
 31
0.0
  0
LINE
  5
184
330
2
100
AcDbEntity
  8
0
  6
HIDDEN
100
AcDbLine
 10
8.678324934146524
 20
0.5012566094399276
 30
0.0
 11
11.00357854131677
 21
0.5012566094399276
 31
0.0
  0
LINE
  5
185
330
2
100
AcDbEntity
  8
0
  6
HIDDEN
100
AcDbLine
 10
8.669663359665002
 20
0.09375
 30
0.0
 11
10.950913359665
 21
0.0937500000000018
 31
0.0
  0
LINE
  5
186
330
2
100
AcDbEntity
  8
0
 48
10.0
100
AcDbLine
 10
10.8964357918109
 20
3.106295734039502
 30
0.0
 11
8.728152143592052
 21
0.596717166620321
 31
0.0
  0
LINE
  5
187
330
2
100
AcDbEntity
  8
0
  6
Continuous
100
AcDbLine
 10
8.669663359665002
 20
0.0119791322207536
 30
0.0
 11
10.950913359665
 21
0.0119791322207554
 31
0.0
  0
ARC
  5
188
330
2
100
AcDbEntity
  8
0
 48
10.0
100
AcDbCircle
 10
8.919663359665002
 20
0.4360203896823283
 30
0.0
 40
0.25
100
AcDbArc
 50
140.0000375418483
 51
180.0
  0
LINE
  5
189
330
2
100
AcDbEntity
  8
0
 48
10.0
100
AcDbLine
 10
8.669663359665002
 20
0.4360203896823283
 30
0.0
 11
8.669663359665002
 21
0.0119791322207554
 31
0.0
  0
CIRCLE
  5
18A
330
2
100
AcDbEntity
  8
0
 48
10.0
100
AcDbCircle
 10
9.932159359664986
 20
0.6617500000000014
 30
0.0
 40
0.1875
  0
CIRCLE
  5
18B
330
2
100
AcDbEntity
  8
0
  6
HIDDEN2
 48
10.0
100
AcDbCircle
 10
9.932159359664986
 20
0.6617500000000014
 30
0.0
 40
0.125
  0
LINE
  5
18C
330
2
100
AcDbEntity
  8
0
100
AcDbLine
 10
11.107163359665
 20
0.631176577132285
 30
0.0
 11
11.107163359665
 21
14.78125000000001
 31
0.0
  0
LINE
  5
18D
330
2
100
AcDbEntity
  8
0
100
AcDbLine
 10
11.013413359665
 20
8.107370294849481
 30
0.0
 11
11.013413359665
 21
3.437612512137005
 31
0.0
  0
LINE
  5
18E
330
2
100
AcDbEntity
  8
0
  6
HIDDEN
100
AcDbLine
 10
11.013413359665
 20
3.437612512137005
 30
0.0
 11
11.013413359665
 21
0.6106119253681008
 31
0.0
  0
LINE
  5
18F
330
2
100
AcDbEntity
  8
0
 48
10.0
100
AcDbLine
 10
11.138163359665
 20
0.5012566094399276
 30
0.0
 11
11.138163359665
 21
0.0937500000000018
 31
0.0
  0
ARC
  5
190
330
2
100
AcDbEntity
  8
0
  6
Continuous
100
AcDbCircle
 10
-5.005327010088976
 20
13.37136510388179
 30
0.0
 40
20.54080693674263
100
AcDbArc
 50
320.9691399424393
 51
321.6664851505825
  0
LINE
  5
191
330
2
100
AcDbEntity
  8
0
  6
Continuous
100
AcDbLine
 10
11.138163359665
 20
0.0937500000000018
 30
0.0
 11
10.950913359665
 21
0.0937500000000018
 31
0.0
  0
POINT
  5
192
330
2
100
AcDbEntity
  8
0
  6
ByBlock
 48
10.0
100
AcDbPoint
 10
11.01341335966499
 20
0.0937500000000018
 30
0.0
  0
LINE
  5
193
330
2
100
AcDbEntity
  8
0
  6
Continuous
100
AcDbLine
 10
10.950913359665
 20
0.4360203896823371
 30
0.0
 11
10.950913359665
 21
0.0119791322207554
 31
0.0
  0
LINE
  5
194
330
2
100
AcDbEntity
  8
0
  6
Continuous
100
AcDbLine
 10
11.00357854131677
 20
0.5012566094399276
 30
0.0
 11
11.138163359665
 21
0.5012566094399276
 31
0.0
  0
LINE
  5
195
330
2
100
AcDbEntity
  8
0
  6
Continuous
100
AcDbLine
 10
11.013413359665
 20
3.427689287915481
 30
0.0
 11
11.107163359665
 21
3.427689287915481
 31
0.0
  0
ARC
  5
196
330
2
100
AcDbEntity
  8
0
 48
10.0
100
AcDbCircle
 10
10.513413359665
 20
3.427689287915481
 30
0.0
 40
0.5
100
AcDbArc
 50
320.0000375418484
 51
0.0000000000001597
  0
LINE
  5
197
330
2
100
AcDbEntity
  8
0
100
AcDbLine
 10
11.013413359665
 20
8.107370294849481
 30
0.0
 11
11.013413359665
 21
14.78125000000001
 31
0.0
  0
LINE
  5
198
330
2
100
AcDbEntity
  8
0
  6
Continuous
100
AcDbLine
 10
11.013413359665
 20
14.65625000000001
 30
0.0
 11
11.107163359665
 21
14.65625000000001
 31
0.0
  0
LINE
  5
199
330
2
100
AcDbEntity
  8
0
  6
Continuous
100
AcDbLine
 10
11.013413359665
 20
14.78125000000001
 30
0.0
 11
11.107163359665
 21
14.78125000000001
 31
0.0
  0
LINE
  5
1AF
330
2
100
AcDbEntity
  8
0
  6
HIDDEN
100
AcDbLine
 10
-8.678324934146524
 20
0.5012566094399276
 30
0.0
 11
-11.00357854131677
 21
0.5012566094399276
 31
0.0
  0
LINE
  5
1B0
330
2
100
AcDbEntity
  8
0
  6
HIDDEN
100
AcDbLine
 10
-8.669663359665002
 20
0.09375
 30
0.0
 11
-10.950913359665
 21
0.0937500000000018
 31
0.0
  0
LINE
  5
1B1
330
2
100
AcDbEntity
  8
0
 48
10.0
100
AcDbLine
 10
-10.8964357918109
 20
3.106295734039502
 30
0.0
 11
-8.728152143592052
 21
0.596717166620321
 31
0.0
  0
LINE
  5
1B2
330
2
100
AcDbEntity
  8
0
  6
Continuous
100
AcDbLine
 10
-8.669663359665002
 20
0.0119791322207536
 30
0.0
 11
-10.950913359665
 21
0.0119791322207554
 31
0.0
  0
ARC
  5
1B3
330
2
100
AcDbEntity
  8
0
 48
10.0
100
AcDbCircle
 10
-8.919663359665002
 20
0.4360203896823283
 30
0.0
 40
0.25
100
AcDbArc
 50
0.000000000000007
 51
39.99996245815166
  0
LINE
  5
1B4
330
2
100
AcDbEntity
  8
0
 48
10.0
100
AcDbLine
 10
-8.669663359665002
 20
0.4360203896823283
 30
0.0
 11
-8.669663359665002
 21
0.0119791322207554
 31
0.0
  0
CIRCLE
  5
1B5
330
2
100
AcDbEntity
  8
0
 48
10.0
100
AcDbCircle
 10
-9.932159359664986
 20
0.6617500000000014
 30
0.0
 40
0.1875
  0
CIRCLE
  5
1B6
330
2
100
AcDbEntity
  8
0
  6
HIDDEN2
 48
10.0
100
AcDbCircle
 10
-9.932159359664986
 20
0.6617500000000014
 30
0.0
 40
0.125
  0
LINE
  5
1B7
330
2
100
AcDbEntity
  8
0
100
AcDbLine
 10
-11.107163359665
 20
0.631176577132285
 30
0.0
 11
-11.107163359665
 21
14.78125000000001
 31
0.0
  0
LINE
  5
1B8
330
2
100
AcDbEntity
  8
0
100
AcDbLine
 10
-11.013413359665
 20
8.107370294849481
 30
0.0
 11
-11.013413359665
 21
3.437612512137005
 31
0.0
  0
LINE
  5
1B9
330
2
100
AcDbEntity
  8
0
  6
HIDDEN
100
AcDbLine
 10
-11.013413359665
 20
3.437612512137005
 30
0.0
 11
-11.013413359665
 21
0.6106119253681008
 31
0.0
  0
LINE
  5
1BA
330
2
100
AcDbEntity
  8
0
 48
10.0
100
AcDbLine
 10
-11.138163359665
 20
0.5012566094399276
 30
0.0
 11
-11.138163359665
 21
0.0937500000000018
 31
0.0
  0
ARC
  5
1BB
330
2
100
AcDbEntity
  8
0
  6
Continuous
100
AcDbCircle
 10
5.005327010088976
 20
13.37136510388179
 30
0.0
 40
20.54080693674263
100
AcDbArc
 50
218.3335148494176
 51
219.0308600575607
  0
LINE
  5
1BC
330
2
100
AcDbEntity
  8
0
  6
Continuous
100
AcDbLine
 10
-11.138163359665
 20
0.0937500000000018
 30
0.0
 11
-10.950913359665
 21
0.0937500000000018
 31
0.0
  0
POINT
  5
1BD
330
2
100
AcDbEntity
  8
0
  6
ByBlock
 48
10.0
100
AcDbPoint
 10
-11.01341335966499
 20
0.0937500000000018
 30
0.0
  0
LINE
  5
1BE
330
2
100
AcDbEntity
  8
0
  6
Continuous
100
AcDbLine
 10
-10.950913359665
 20
0.4360203896823371
 30
0.0
 11
-10.950913359665
 21
0.0119791322207554
 31
0.0
  0
LINE
  5
1BF
330
2
100
AcDbEntity
  8
0
  6
Continuous
100
AcDbLine
 10
-11.00357854131677
 20
0.5012566094399276
 30
0.0
 11
-11.138163359665
 21
0.5012566094399276
 31
0.0
  0
LINE
  5
1C0
330
2
100
AcDbEntity
  8
0
  6
Continuous
100
AcDbLine
 10
-11.013413359665
 20
3.427689287915481
 30
0.0
 11
-11.107163359665
 21
3.427689287915481
 31
0.0
  0
ARC
  5
1C1
330
2
100
AcDbEntity
  8
0
 48
10.0
100
AcDbCircle
 10
-10.513413359665
 20
3.427689287915481
 30
0.0
 40
0.5
100
AcDbArc
 50
179.9999999999999
 51
219.9999624581517
  0
LINE
  5
1C2
330
2
100
AcDbEntity
  8
0
100
AcDbLine
 10
-11.013413359665
 20
8.107370294849481
 30
0.0
 11
-11.013413359665
 21
14.78125000000001
 31
0.0
  0
LINE
  5
1C3
330
2
100
AcDbEntity
  8
0
  6
Continuous
100
AcDbLine
 10
-11.013413359665
 20
14.65625000000001
 30
0.0
 11
-11.107163359665
 21
14.65625000000001
 31
0.0
  0
LINE
  5
1C4
330
2
100
AcDbEntity
  8
0
  6
Continuous
100
AcDbLine
 10
-11.013413359665
 20
14.78125000000001
 30
0.0
 11
-11.107163359665
 21
14.78125000000001
 31
0.0
  0
ENDSEC
  0
SECTION
  2
OBJECTS
  0
DICTIONARY
  5
7
330
0
100
AcDbDictionary
281
     1
  3
ACAD_COLOR
350
F2
  3
ACAD_GROUP
350
1F
  3
ACAD_LAYOUT
350
B
  3
ACAD_MATERIAL
350
F1
  3
ACAD_MLINESTYLE
350
20
  3
ACAD_PLOTSETTINGS
350
21
  3
ACAD_PLOTSTYLENAME
350
6
  3
ACAD_TABLESTYLE
350
F3
  3
ACDBHEADERROUNDTRIPXREC
350
1CC
  3
AcDbVariableDictionary
350
ED
  0
DICTIONARY
  5
FA
330
2
100
AcDbDictionary
280
     1
281
     1
  3
ACAD_SORTENTS
360
FB
  0
DICTIONARY
  5
F2
102
{ACAD_REACTORS
330
7
102
}
330
7
100
AcDbDictionary
281
     1
  0
DICTIONARY
  5
1F
102
{ACAD_REACTORS
330
7
102
}
330
7
100
AcDbDictionary
281
     1
  0
DICTIONARY
  5
B
102
{ACAD_REACTORS
330
7
102
}
330
7
100
AcDbDictionary
281
     1
  3
Layout1
350
F
  3
Model
350
A
  0
DICTIONARY
  5
F1
102
{ACAD_REACTORS
330
7
102
}
330
7
100
AcDbDictionary
281
     1
  0
DICTIONARY
  5
20
102
{ACAD_REACTORS
330
7
102
}
330
7
100
AcDbDictionary
281
     1
  3
STANDARD
350
23
  0
DICTIONARY
  5
21
102
{ACAD_REACTORS
330
7
102
}
330
7
100
AcDbDictionary
281
     1
  0
ACDBDICTIONARYWDFLT
  5
6
102
{ACAD_REACTORS
330
7
102
}
330
7
100
AcDbDictionary
281
     1
  3
Normal
350
5
100
AcDbDictionaryWithDefault
340
5
  0
DICTIONARY
  5
F3
102
{ACAD_REACTORS
330
7
102
}
330
7
100
AcDbDictionary
281
     1
  3
Standard
350
F4
  0
DICTIONARY
  5
1CC
102
{ACAD_REACTORS
330
7
102
}
330
7
100
AcDbDictionary
281
     1
  3
COLORDICT
350
1CD
  3
MATERIALDICT
350
1CE
  0
DICTIONARY
  5
ED
102
{ACAD_REACTORS
330
7
102
}
330
7
100
AcDbDictionary
281
     1
  3
CTABLESTYLE
350
1A1
  3
HIDETEXT
350
1CB
  0
SORTENTSTABLE
  5
FB
102
{ACAD_REACTORS
330
FA
102
}
330
FA
100
AcDbSortentsTable
330
2
331
191
  5
10C
331
15E
  5
146
331
195
  5
110
331
11C
  5
189
331
162
  5
14A
331
121
  5
18E
331
185
  5
100
331
16C
  5
154
331
129
  5
196
331
18A
  5
105
331
17E
  5
166
331
123
  5
190
331
146
  5
12E
331
12F
  5
117
331
148
  5
130
331
115
  5
182
331
107
  5
174
331
168
  5
150
331
18F
  5
10A
331
196
  5
111
331
142
  5
12A
331
10E
  5
17B
331
101
  5
16E
331
165
  5
14D
331
135
  5
11D
331
109
  5
176
331
192
  5
10D
331
137
  5
11F
331
FF
  5
16C
331
138
  5
120
331
151
  5
139
331
13C
  5
124
331
131
  5
119
331
158
  5
140
331
12E
  5
116
331
166
  5
14E
331
15F
  5
147
331
100
  5
16D
331
14A
  5
132
331
15B
  5
143
331
181
  5
169
331
172
  5
15A
331
127
  5
194
331
154
  5
13C
331
14B
  5
133
331
18E
  5
109
331
190
  5
10B
331
17D
  5
165
331
184
  5
FF
331
14E
  5
136
331
194
  5
10F
331
171
  5
159
331
112
  5
17F
331
105
  5
172
331
145
  5
12D
331
193
  5
10E
331
12B
  5
198
331
18D
  5
108
331
122
  5
18F
331
179
  5
161
331
113
  5
180
331
134
  5
11C
331
10B
  5
178
331
11D
  5
18A
331
198
  5
113
331
116
  5
183
331
126
  5
193
331
125
  5
192
331
119
  5
186
331
189
  5
104
331
153
  5
13B
331
18B
  5
106
331
124
  5
191
331
140
  5
128
331
16F
  5
157
331
160
  5
148
331
104
  5
171
331
155
  5
13D
331
12D
  5
115
331
15D
  5
145
331
14D
  5
135
331
16E
  5
156
331
17B
  5
163
331
13D
  5
125
331
14C
  5
134
331
161
  5
149
331
157
  5
13F
331
163
  5
14B
331
177
  5
15F
331
164
  5
14C
331
169
  5
151
331
17C
  5
164
331
132
  5
11A
331
11A
  5
187
331
174
  5
15C
331
108
  5
175
331
10F
  5
17C
331
159
  5
141
331
120
  5
18D
331
16B
  5
153
331
13E
  5
126
331
13F
  5
127
331
187
  5
102
331
12A
  5
197
331
188
  5
103
331
118
  5
185
331
10C
  5
179
331
13A
  5
122
331
102
  5
16F
331
176
  5
15E
331
11E
  5
18B
331
117
  5
184
331
150
  5
138
331
173
  5
15B
331
103
  5
170
331
175
  5
15D
331
11B
  5
188
331
17A
  5
162
331
15C
  5
144
331
180
  5
168
331
130
  5
118
331
136
  5
11E
331
133
  5
11B
331
14F
  5
137
331
10D
  5
17A
331
152
  5
13A
331
128
  5
195
331
114
  5
181
331
147
  5
12F
331
156
  5
13E
331
182
  5
16A
331
170
  5
158
331
13B
  5
123
331
178
  5
160
331
18C
  5
107
331
10A
  5
177
331
12C
  5
199
331
111
  5
17E
331
144
  5
12C
331
16A
  5
152
331
106
  5
173
331
139
  5
121
331
143
  5
12B
331
183
  5
16B
331
15A
  5
142
331
17F
  5
167
331
16D
  5
155
331
141
  5
129
331
199
  5
114
331
197
  5
112
331
167
  5
14F
331
11F
  5
18C
331
149
  5
131
331
110
  5
17D
331
186
  5
101
  0
LAYOUT
  5
F
102
{ACAD_REACTORS
330
B
102
}
102
{ACAD_XDICTIONARY
360
1CF
102
}
330
B
100
AcDbPlotSettings
  1

  2
X:\Program Files\AutoCAD2002\plotters\DWF ePlot (optimized for plotting).pc3
  4

  6

 40
0.0
 41
0.0
 42
0.0
 43
0.0
 44
0.0
 45
0.0
 46
0.0
 47
0.0
 48
0.0
 49
0.0
140
0.0
141
0.0
142
1.0
143
1.0
 70
   688
 72
     0
 73
     0
 74
     5
  7

 75
    16
147
1.0
148
0.0
149
0.0
100
AcDbLayout
  1
Layout1
 70
     0
 71
     1
 10
0.0
 20
0.0
 11
12.0
 21
9.0
 12
0.0
 22
0.0
 32
0.0
 14
1.000000000000000E+20
 24
1.000000000000000E+20
 34
1.000000000000000E+20
 15
-1.000000000000000E+20
 25
-1.000000000000000E+20
 35
-1.000000000000000E+20
146
0.0
 13
0.0
 23
0.0
 33
0.0
 16
1.0
 26
0.0
 36
0.0
 17
0.0
 27
1.0
 37
0.0
 76
     0
330
C
  0
LAYOUT
  5
A
102
{ACAD_REACTORS
330
B
102
}
102
{ACAD_XDICTIONARY
360
1D1
102
}
330
B
100
AcDbPlotSettings
  1

  2
X:\Program Files\AutoCAD2002\plotters\DWF ePlot (optimized for plotting).pc3
  4

  6

 40
0.0
 41
0.0
 42
0.0
 43
0.0
 44
0.0
 45
0.0
 46
0.0
 47
0.0
 48
0.0
 49
0.0
140
0.0
141
0.0
142
1.0
143
1.0
 70
  1712
 72
     0
 73
     0
 74
     0
  7

 75
     0
147
1.0
148
0.0
149
0.0
100
AcDbLayout
  1
Model
 70
     1
 71
     0
 10
0.0
 20
0.0
 11
12.0
 21
9.0
 12
0.0
 22
0.0
 32
0.0
 14
0.0
 24
0.0
 34
0.0
 15
0.0
 25
0.0
 35
0.0
146
0.0
 13
0.0
 23
0.0
 33
0.0
 16
1.0
 26
0.0
 36
0.0
 17
0.0
 27
1.0
 37
0.0
 76
     0
330
2
  0
MLINESTYLE
  5
23
102
{ACAD_REACTORS
330
20
102
}
330
20
100
AcDbMlineStyle
  2
STANDARD
 70
     0
  3

 62
   256
 51
90.0
 52
90.0
 71
     2
 49
0.5
 62
   256
  6
BYLAYER
 49
-0.5
 62
   256
  6
BYLAYER
  0
ACDBPLACEHOLDER
  5
5
102
{ACAD_REACTORS
330
6
102
}
330
6
  0
ACAD_PROXY_OBJECT
  5
F4
102
{ACAD_REACTORS
330
F3
102
}
330
F3
100
AcDbProxyObject
 90
      499
 91
      505
 95
   983063
 70
     0
 93
     1841
310
4214DD185B99185C9928B81E85EB51B8AE3F2E07A17AD46E2B8FC02B5E8DC0F42B1CFD028000000C1008070000C3001FDFF8000000C1003FBFF000000182007F7FE00000030400FEFFC00000060801FDFF8000000C1003FBFF00000018200000000000000681FA0B0000001820100E000186003FBFF000000182007F7FE000
310
00030400FEFFC00000060801FDFF8000000C1003FBFF000000182007F7FE000000304000AD7A3703D0AC73F4160000003040201C00030C007F7FE00000030400FEFFC00000060801FDFF8000000C1003FBFF000000182007F7FE00000030400FEFFC000000608000
340
12
340
12
340
12
 94
        0
  0
XRECORD
  5
1CD
102
{ACAD_REACTORS
330
1CC
102
}
330
1CC
100
AcDbXrecord
340
F2
  0
XRECORD
  5
1CE
102
{ACAD_REACTORS
330
1CC
102
}
330
1CC
100
AcDbXrecord
340
F1
  0
DICTIONARYVAR
  5
1A1
102
{ACAD_REACTORS
330
ED
102
}
330
ED
100
DictionaryVariables
280
     0
  1
STANDARD
  0
DICTIONARYVAR
  5
1CB
102
{ACAD_REACTORS
330
ED
102
}
330
ED
100
DictionaryVariables
280
     0
  1
1
  0
DICTIONARY
  5
1CF
330
F
100
AcDbDictionary
280
     1
281
     1
  3
ACAD_XREC_ROUNDTRIP
360
1D0
  0
DICTIONARY
  5
1D1
330
A
100
AcDbDictionary
280
     1
281
     1
  3
ACAD_XREC_ROUNDTRIP
360
1D2
  0
XRECORD
  5
1D0
102
{ACAD_REACTORS
330
1CF
102
}
330
1CF
100
AcDbXrecord
102
SHADEPLOT
 70
     0
102
SHADEPLOTRESLEVEL
 70
     2
102
SHADEPLOTCUSTOMDPI
 70
   300
  0
XRECORD
  5
1D2
102
{ACAD_REACTORS
330
1D1
102
}
330
1D1
100
AcDbXrecord
102
SHADEPLOT
 70
     0
102
SHADEPLOTRESLEVEL
 70
     2
102
SHADEPLOTCUSTOMDPI
 70
   300
  0
ENDSEC
  0
EOF
