  0
SECTION
  2
HEADER
  9
$ACADVER
  1
AC1015
  9
$ACADMAINTVER
 70
     6
  9
$DWGCODEPAGE
  3
ANSI_1252
  9
$INSBASE
 10
0.0
 20
0.0
 30
0.0
  9
$EXTMIN
 10
-0.5
 20
-0.0369701457676186
 30
0.0
  9
$EXTMAX
 10
4.038758425253651
 20
4.0
 30
0.0
  9
$LIMMIN
 10
0.0
 20
0.0
  9
$LIMMAX
 10
13.3328
 20
17.4993
  9
$ORTHOMODE
 70
     0
  9
$REGENMODE
 70
     1
  9
$FILLMODE
 70
     1
  9
$QTEXTMODE
 70
     0
  9
$MIRRTEXT
 70
     0
  9
$LTSCALE
 40
0.5
  9
$ATTMODE
 70
     1
  9
$TEXTSIZE
 40
0.149994
  9
$TRACEWID
 40
0.05
  9
$TEXTSTYLE
  7
STANDARD
  9
$CLAYER
  8
0
  9
$CELTYPE
  6
ByLayer
  9
$CECOLOR
 62
   256
  9
$CELTSCALE
 40
1.0
  9
$DISPSILH
 70
     0
  9
$DIMSCALE
 40
1.6666
  9
$DIMASZ
 40
0.125
  9
$DIMEXO
 40
0.062
  9
$DIMDLI
 40
0.375
  9
$DIMRND
 40
0.0
  9
$DIMDLE
 40
0.0
  9
$DIMEXE
 40
0.08
  9
$DIMTP
 40
0.0
  9
$DIMTM
 40
0.0
  9
$DIMTXT
 40
0.09
  9
$DIMCEN
 40
-0.06
  9
$DIMTSZ
 40
0.0
  9
$DIMTOL
 70
     0
  9
$DIMLIM
 70
     0
  9
$DIMTIH
 70
     1
  9
$DIMTOH
 70
     1
  9
$DIMSE1
 70
     0
  9
$DIMSE2
 70
     0
  9
$DIMTAD
 70
     0
  9
$DIMZIN
 70
     0
  9
$DIMBLK
  1

  9
$DIMASO
 70
     0
  9
$DIMSHO
 70
     0
  9
$DIMPOST
  1

  9
$DIMAPOST
  1

  9
$DIMALT
 70
     0
  9
$DIMALTD
 70
     2
  9
$DIMALTF
 40
25.4
  9
$DIMLFAC
 40
1.0
  9
$DIMTOFL
 70
     0
  9
$DIMTVP
 40
0.0
  9
$DIMTIX
 70
     0
  9
$DIMSOXD
 70
     0
  9
$DIMSAH
 70
     0
  9
$DIMBLK1
  1

  9
$DIMBLK2
  1

  9
$DIMSTYLE
  2
Standard
  9
$DIMCLRD
 70
     0
  9
$DIMCLRE
 70
     0
  9
$DIMCLRT
 70
     0
  9
$DIMTFAC
 40
1.0
  9
$DIMGAP
 40
0.09
  9
$DIMJUST
 70
     0
  9
$DIMSD1
 70
     0
  9
$DIMSD2
 70
     0
  9
$DIMTOLJ
 70
     1
  9
$DIMTZIN
 70
     0
  9
$DIMALTZ
 70
     0
  9
$DIMALTTZ
 70
     0
  9
$DIMUPT
 70
     0
  9
$DIMDEC
 70
     4
  9
$DIMTDEC
 70
     4
  9
$DIMALTU
 70
     5
  9
$DIMALTTD
 70
     2
  9
$DIMTXSTY
  7
STANDARD
  9
$DIMAUNIT
 70
     0
  9
$DIMADEC
 70
     0
  9
$DIMALTRND
 40
0.0
  9
$DIMAZIN
 70
     0
  9
$DIMDSEP
 70
    46
  9
$DIMATFIT
 70
     3
  9
$DIMFRAC
 70
     0
  9
$DIMLDRBLK
  1

  9
$DIMLUNIT
 70
     5
  9
$DIMLWD
 70
    -2
  9
$DIMLWE
 70
    -2
  9
$DIMTMOVE
 70
     2
  9
$LUNITS
 70
     5
  9
$LUPREC
 70
     4
  9
$SKETCHINC
 40
0.1
  9
$FILLETRAD
 40
0.0
  9
$AUNITS
 70
     0
  9
$AUPREC
 70
     0
  9
$MENU
  1
simpson
  9
$ELEVATION
 40
0.0
  9
$PELEVATION
 40
0.0
  9
$THICKNESS
 40
0.0
  9
$LIMCHECK
 70
     0
  9
$CHAMFERA
 40
0.0
  9
$CHAMFERB
 40
0.0
  9
$CHAMFERC
 40
0.0
  9
$CHAMFERD
 40
0.0
  9
$SKPOLY
 70
     0
  9
$TDCREATE
 40
2449210.938203704
  9
$TDUCREATE
 40
2449211.271537037
  9
$TDUPDATE
 40
2454176.719020984
  9
$TDUUPDATE
 40
2454177.052354317
  9
$TDINDWG
 40
0.0307294676
  9
$TDUSRTIMER
 40
0.0307294676
  9
$USRTIMER
 70
     1
  9
$ANGBASE
 50
0.0
  9
$ANGDIR
 70
     0
  9
$PDMODE
 70
     0
  9
$PDSIZE
 40
0.0
  9
$PLINEWID
 40
0.0
  9
$SPLFRAME
 70
     0
  9
$SPLINETYPE
 70
     6
  9
$SPLINESEGS
 70
     8
  9
$HANDSEED
  5
1E4
  9
$SURFTAB1
 70
     6
  9
$SURFTAB2
 70
     6
  9
$SURFTYPE
 70
     6
  9
$SURFU
 70
     6
  9
$SURFV
 70
     6
  9
$UCSBASE
  2

  9
$UCSNAME
  2

  9
$UCSORG
 10
0.0
 20
0.0
 30
0.0
  9
$UCSXDIR
 10
1.0
 20
0.0
 30
0.0
  9
$UCSYDIR
 10
0.0
 20
1.0
 30
0.0
  9
$UCSORTHOREF
  2

  9
$UCSORTHOVIEW
 70
     0
  9
$UCSORGTOP
 10
0.0
 20
0.0
 30
0.0
  9
$UCSORGBOTTOM
 10
0.0
 20
0.0
 30
0.0
  9
$UCSORGLEFT
 10
0.0
 20
0.0
 30
0.0
  9
$UCSORGRIGHT
 10
0.0
 20
0.0
 30
0.0
  9
$UCSORGFRONT
 10
0.0
 20
0.0
 30
0.0
  9
$UCSORGBACK
 10
0.0
 20
0.0
 30
0.0
  9
$PUCSBASE
  2

  9
$PUCSNAME
  2

  9
$PUCSORG
 10
0.0
 20
0.0
 30
0.0
  9
$PUCSXDIR
 10
1.0
 20
0.0
 30
0.0
  9
$PUCSYDIR
 10
0.0
 20
1.0
 30
0.0
  9
$PUCSORTHOREF
  2

  9
$PUCSORTHOVIEW
 70
     0
  9
$PUCSORGTOP
 10
0.0
 20
0.0
 30
0.0
  9
$PUCSORGBOTTOM
 10
0.0
 20
0.0
 30
0.0
  9
$PUCSORGLEFT
 10
0.0
 20
0.0
 30
0.0
  9
$PUCSORGRIGHT
 10
0.0
 20
0.0
 30
0.0
  9
$PUCSORGFRONT
 10
0.0
 20
0.0
 30
0.0
  9
$PUCSORGBACK
 10
0.0
 20
0.0
 30
0.0
  9
$USERI1
 70
     0
  9
$USERI2
 70
     0
  9
$USERI3
 70
     0
  9
$USERI4
 70
     0
  9
$USERI5
 70
     0
  9
$USERR1
 40
0.0
  9
$USERR2
 40
0.0
  9
$USERR3
 40
0.0
  9
$USERR4
 40
0.0
  9
$USERR5
 40
0.0
  9
$WORLDVIEW
 70
     1
  9
$SHADEDGE
 70
     3
  9
$SHADEDIF
 70
    70
  9
$TILEMODE
 70
     1
  9
$MAXACTVP
 70
    16
  9
$PINSBASE
 10
0.0
 20
0.0
 30
0.0
  9
$PLIMCHECK
 70
     0
  9
$PEXTMIN
 10
1.000000000000000E+20
 20
1.000000000000000E+20
 30
1.000000000000000E+20
  9
$PEXTMAX
 10
-1.000000000000000E+20
 20
-1.000000000000000E+20
 30
-1.000000000000000E+20
  9
$PLIMMIN
 10
0.0
 20
0.0
  9
$PLIMMAX
 10
12.0
 20
9.0
  9
$UNITMODE
 70
     0
  9
$VISRETAIN
 70
     0
  9
$PLINEGEN
 70
     0
  9
$PSLTSCALE
 70
     0
  9
$TREEDEPTH
 70
  3020
  9
$CMLSTYLE
  2
Standard
  9
$CMLJUST
 70
     0
  9
$CMLSCALE
 40
1.0
  9
$PROXYGRAPHICS
 70
     1
  9
$MEASUREMENT
 70
     0
  9
$CELWEIGHT
370
    -1
  9
$ENDCAPS
280
     0
  9
$JOINSTYLE
280
     0
  9
$LWDISPLAY
290
     0
  9
$INSUNITS
 70
     0
  9
$HYPERLINKBASE
  1

  9
$STYLESHEET
  1

  9
$XEDIT
290
     1
  9
$CEPSNTYPE
380
     0
  9
$PSTYLEMODE
290
     1
  9
$FINGERPRINTGUID
  2
{6582B4EB-6FD1-47D0-AE8F-5084E20BD1EE}
  9
$VERSIONGUID
  2
{10CC3978-724E-4375-8C30-AADEAE6CBE85}
  9
$EXTNAMES
290
     1
  9
$PSVPSCALE
 40
0.0
  9
$OLESTARTUP
290
     0
  0
ENDSEC
  0
SECTION
  2
CLASSES
  0
CLASS
  1
ACDBDICTIONARYWDFLT
  2
AcDbDictionaryWithDefault
  3
AutoCAD 2000
 90
        0
280
     0
281
     0
  0
CLASS
  1
ACDBPLACEHOLDER
  2
AcDbPlaceHolder
  3
ObjectDBX Classes
 90
        0
280
     0
281
     0
  0
CLASS
  1
LAYOUT
  2
AcDbLayout
  3
ObjectDBX Classes
 90
        0
280
     0
281
     0
  0
CLASS
  1
DICTIONARYVAR
  2
AcDbDictionaryVar
  3
AutoCAD 2000
 90
        0
280
     0
281
     0
  0
CLASS
  1
TABLESTYLE
  2
AcDbTableStyle
  3
ObjectDBX Classes
 90
     2047
280
     1
281
     0
  0
ENDSEC
  0
SECTION
  2
TABLES
  0
TABLE
  2
VPORT
  5
19
330
0
100
AcDbSymbolTable
 70
     2
  0
VPORT
  5
1D7
330
19
100
AcDbSymbolTableRecord
100
AcDbViewportTableRecord
  2
*Active
 70
     0
 10
0.0
 20
0.0
 11
1.0
 21
1.0
 12
6.397256202101374
 22
4.414599433866666
 13
0.0
 23
0.0
 14
0.063
 24
0.063
 15
0.25
 25
0.25
 16
0.0
 26
0.0
 36
1.0
 17
0.0
 27
0.0
 37
0.0
 40
17.78263199915597
 41
1.814583333333333
 42
50.0
 43
0.0
 44
0.0
 50
0.0
 51
0.0
 71
     0
 72
   100
 73
     1
 74
     1
 75
     0
 76
     0
 77
     0
 78
     0
281
     0
 65
     1
110
0.0
120
0.0
130
0.0
111
1.0
121
0.0
131
0.0
112
0.0
122
1.0
132
0.0
 79
     0
146
0.0
  0
ENDTAB
  0
TABLE
  2
LTYPE
  5
14
330
0
100
AcDbSymbolTable
 70
     1
  0
LTYPE
  5
15
330
14
100
AcDbSymbolTableRecord
100
AcDbLinetypeTableRecord
  2
ByBlock
 70
     0
  3

 72
    65
 73
     0
 40
0.0
  0
LTYPE
  5
16
330
14
100
AcDbSymbolTableRecord
100
AcDbLinetypeTableRecord
  2
ByLayer
 70
     0
  3

 72
    65
 73
     0
 40
0.0
  0
LTYPE
  5
8
330
14
100
AcDbSymbolTableRecord
100
AcDbLinetypeTableRecord
  2
CONTINUOUS
 70
     0
  3
Solid line
 72
    65
 73
     0
 40
0.0
  0
ENDTAB
  0
TABLE
  2
LAYER
  5
10
330
0
100
AcDbSymbolTable
 70
     1
  0
LAYER
  5
4
330
10
100
AcDbSymbolTableRecord
100
AcDbLayerTableRecord
  2
0
 70
     0
 62
     7
  6
CONTINUOUS
370
    -3
390
5
  0
ENDTAB
  0
TABLE
  2
STYLE
  5
11
330
0
100
AcDbSymbolTable
 70
     1
  0
STYLE
  5
12
330
11
100
AcDbSymbolTableRecord
100
AcDbTextStyleTableRecord
  2
STANDARD
 70
     0
 40
0.0
 41
1.0
 50
0.0
 71
     0
 42
0.149994
  3
TXT
  4

  0
ENDTAB
  0
TABLE
  2
VIEW
  5
17
330
0
100
AcDbSymbolTable
 70
     0
  0
ENDTAB
  0
TABLE
  2
UCS
  5
18
330
0
100
AcDbSymbolTable
 70
     0
  0
ENDTAB
  0
TABLE
  2
APPID
  5
1B
330
0
100
AcDbSymbolTable
 70
     1
  0
APPID
  5
1C
330
1B
100
AcDbSymbolTableRecord
100
AcDbRegAppTableRecord
  2
ACAD
 70
     0
  0
ENDTAB
  0
TABLE
  2
DIMSTYLE
  5
1D
330
0
100
AcDbSymbolTable
 70
     1
100
AcDbDimStyleTable
  0
DIMSTYLE
105
24
330
1D
100
AcDbSymbolTableRecord
100
AcDbDimStyleTableRecord
  2
Standard
 70
     0
  3

  4

340
12
  0
ENDTAB
  0
TABLE
  2
BLOCK_RECORD
  5
1
330
0
100
AcDbSymbolTable
 70
     0
  0
BLOCK_RECORD
  5
2
330
1
100
AcDbSymbolTableRecord
100
AcDbBlockTableRecord
  2
*Model_Space
340
A
  0
BLOCK_RECORD
  5
C
330
1
100
AcDbSymbolTableRecord
100
AcDbBlockTableRecord
  2
*Paper_Space
340
F
  0
ENDTAB
  0
ENDSEC
  0
SECTION
  2
BLOCKS
  0
BLOCK
  5
3
330
2
100
AcDbEntity
  8
0
100
AcDbBlockBegin
  2
*Model_Space
 70
     0
 10
0.0
 20
0.0
 30
0.0
  3
*Model_Space
  1

  4

  0
ENDBLK
  5
9
330
2
100
AcDbEntity
  8
0
100
AcDbBlockEnd
  0
BLOCK
  5
D
330
C
100
AcDbEntity
 67
     1
  8
0
100
AcDbBlockBegin
  2
*Paper_Space
 70
     0
 10
0.0
 20
0.0
 30
0.0
  3
*Paper_Space
  1

  4

  0
ENDBLK
  5
E
330
C
100
AcDbEntity
 67
     1
  8
0
100
AcDbBlockEnd
  0
ENDSEC
  0
SECTION
  2
ENTITIES
  0
LINE
  5
10A
330
2
100
AcDbEntity
  8
0
100
AcDbLine
 10
0.5
 20
0.0
 30
0.0
 11
0.5
 21
4.0
 31
0.0
  0
LINE
  5
10B
330
2
100
AcDbEntity
  8
0
100
AcDbLine
 10
0.3125
 20
0.2499999999999982
 30
0.0
 11
0.3125
 21
0.7499999999999982
 31
0.0
  0
LINE
  5
10C
330
2
100
AcDbEntity
  8
0
100
AcDbLine
 10
0.4375
 20
0.2499999999999982
 30
0.0
 11
0.4375
 21
0.7499999999999982
 31
0.0
  0
LINE
  5
10D
330
2
100
AcDbEntity
  8
0
100
AcDbLine
 10
0.0625
 20
0.2499999999999982
 30
0.0
 11
0.0625
 21
0.7499999999999982
 31
0.0
  0
LINE
  5
10E
330
2
100
AcDbEntity
  8
0
100
AcDbLine
 10
0.1875
 20
0.2499999999999982
 30
0.0
 11
0.1875
 21
0.7499999999999982
 31
0.0
  0
LINE
  5
10F
330
2
100
AcDbEntity
  8
0
100
AcDbLine
 10
-0.1875
 20
0.2499999999999982
 30
0.0
 11
-0.1875
 21
0.7499999999999982
 31
0.0
  0
LINE
  5
110
330
2
100
AcDbEntity
  8
0
100
AcDbLine
 10
-0.0625
 20
0.2499999999999982
 30
0.0
 11
-0.0625
 21
0.7499999999999982
 31
0.0
  0
LINE
  5
111
330
2
100
AcDbEntity
  8
0
100
AcDbLine
 10
-0.4375
 20
0.2499999999999982
 30
0.0
 11
-0.4375
 21
0.7499999999999982
 31
0.0
  0
LINE
  5
112
330
2
100
AcDbEntity
  8
0
100
AcDbLine
 10
-0.3125
 20
0.2499999999999982
 30
0.0
 11
-0.3125
 21
0.7499999999999982
 31
0.0
  0
LINE
  5
113
330
2
100
AcDbEntity
  8
0
100
AcDbLine
 10
-0.5
 20
0.0
 30
0.0
 11
-0.5
 21
4.0
 31
0.0
  0
LINE
  5
114
330
2
100
AcDbEntity
  8
0
100
AcDbLine
 10
-0.1875
 20
0.2499999999999982
 30
0.0
 11
-0.125
 21
0.2257786858782698
 31
0.0
  0
LINE
  5
115
330
2
100
AcDbEntity
  8
0
100
AcDbLine
 10
0.5
 20
0.0
 30
0.0
 11
-0.5
 21
0.0
 31
0.0
  0
LINE
  5
116
330
2
100
AcDbEntity
  8
0
100
AcDbLine
 10
-0.4375
 20
0.2499999999999982
 30
0.0
 11
-0.375
 21
0.2257786858782698
 31
0.0
  0
LINE
  5
117
330
2
100
AcDbEntity
  8
0
100
AcDbLine
 10
-0.375
 20
0.2257786858782698
 30
0.0
 11
-0.3125
 21
0.2499999999999982
 31
0.0
  0
LINE
  5
118
330
2
100
AcDbEntity
  8
0
100
AcDbLine
 10
0.375
 20
0.2257786858782698
 30
0.0
 11
0.4375
 21
0.2499999999999982
 31
0.0
  0
LINE
  5
119
330
2
100
AcDbEntity
  8
0
100
AcDbLine
 10
0.125
 20
0.2257786858782698
 30
0.0
 11
0.1875
 21
0.2499999999999982
 31
0.0
  0
LINE
  5
11A
330
2
100
AcDbEntity
  8
0
100
AcDbLine
 10
-0.125
 20
0.2257786858782698
 30
0.0
 11
-0.0625
 21
0.2499999999999982
 31
0.0
  0
LINE
  5
11B
330
2
100
AcDbEntity
  8
0
100
AcDbLine
 10
0.0625
 20
0.2499999999999982
 30
0.0
 11
0.125
 21
0.2257786858782698
 31
0.0
  0
LINE
  5
11C
330
2
100
AcDbEntity
  8
0
100
AcDbLine
 10
0.3125
 20
0.2499999999999982
 30
0.0
 11
0.375
 21
0.2257786858782698
 31
0.0
  0
LINE
  5
11D
330
2
100
AcDbEntity
  8
0
100
AcDbLine
 10
-0.3125
 20
3.249999999999998
 30
0.0
 11
-0.3125
 21
3.749999999999998
 31
0.0
  0
LINE
  5
11E
330
2
100
AcDbEntity
  8
0
100
AcDbLine
 10
-0.4375
 20
3.249999999999998
 30
0.0
 11
-0.4375
 21
3.749999999999998
 31
0.0
  0
LINE
  5
11F
330
2
100
AcDbEntity
  8
0
100
AcDbLine
 10
-0.0625
 20
3.249999999999998
 30
0.0
 11
-0.0625
 21
3.749999999999998
 31
0.0
  0
LINE
  5
120
330
2
100
AcDbEntity
  8
0
100
AcDbLine
 10
-0.1875
 20
3.249999999999998
 30
0.0
 11
-0.1875
 21
3.749999999999998
 31
0.0
  0
LINE
  5
121
330
2
100
AcDbEntity
  8
0
100
AcDbLine
 10
0.1875
 20
3.249999999999998
 30
0.0
 11
0.1875
 21
3.749999999999998
 31
0.0
  0
LINE
  5
122
330
2
100
AcDbEntity
  8
0
100
AcDbLine
 10
0.0625
 20
3.249999999999998
 30
0.0
 11
0.0625
 21
3.749999999999998
 31
0.0
  0
LINE
  5
123
330
2
100
AcDbEntity
  8
0
100
AcDbLine
 10
0.4375
 20
3.249999999999998
 30
0.0
 11
0.4375
 21
3.749999999999998
 31
0.0
  0
LINE
  5
124
330
2
100
AcDbEntity
  8
0
100
AcDbLine
 10
0.3125
 20
3.249999999999998
 30
0.0
 11
0.3125
 21
3.749999999999998
 31
0.0
  0
LINE
  5
126
330
2
100
AcDbEntity
  8
0
100
AcDbLine
 10
-0.1875
 20
3.249999999999998
 30
0.0
 11
-0.125
 21
3.22577868587827
 31
0.0
  0
LINE
  5
127
330
2
100
AcDbEntity
  8
0
100
AcDbLine
 10
-0.1875
 20
0.7499999999999982
 30
0.0
 11
-0.125
 21
0.7742213141217267
 31
0.0
  0
LINE
  5
128
330
2
100
AcDbEntity
  8
0
100
AcDbLine
 10
-0.4375
 20
2.003545569771614
 30
0.0
 11
-0.264268874474979
 21
1.830314444246591
 31
0.0
  0
LINE
  5
129
330
2
100
AcDbEntity
  8
0
100
AcDbLine
 10
-0.4375
 20
1.124999999999998
 30
0.0
 11
-0.4375
 21
1.624999999999998
 31
0.0
  0
LINE
  5
12A
330
2
100
AcDbEntity
  8
0
100
AcDbLine
 10
-0.3125
 20
1.124999999999998
 30
0.0
 11
-0.3125
 21
1.624999999999998
 31
0.0
  0
LINE
  5
12B
330
2
100
AcDbEntity
  8
0
100
AcDbLine
 10
-0.4375
 20
1.124999999999998
 30
0.0
 11
-0.375
 21
1.10077868587827
 31
0.0
  0
LINE
  5
12C
330
2
100
AcDbEntity
  8
0
100
AcDbLine
 10
-0.4375
 20
0.7499999999999982
 30
0.0
 11
-0.375
 21
0.7742213141217267
 31
0.0
  0
LINE
  5
12D
330
2
100
AcDbEntity
  8
0
100
AcDbLine
 10
-0.375
 20
0.7742213141217267
 30
0.0
 11
-0.3125
 21
0.7499999999999982
 31
0.0
  0
LINE
  5
12E
330
2
100
AcDbEntity
  8
0
100
AcDbLine
 10
-0.375
 20
1.10077868587827
 30
0.0
 11
-0.3125
 21
1.124999999999998
 31
0.0
  0
LINE
  5
12F
330
2
100
AcDbEntity
  8
0
100
AcDbLine
 10
-0.4375
 20
1.624999999999998
 30
0.0
 11
-0.375
 21
1.649221314121727
 31
0.0
  0
LINE
  5
130
330
2
100
AcDbEntity
  8
0
100
AcDbLine
 10
-0.375
 20
1.649221314121727
 30
0.0
 11
-0.3125
 21
1.624999999999998
 31
0.0
  0
LINE
  5
131
330
2
100
AcDbEntity
  8
0
100
AcDbLine
 10
-0.4375
 20
2.374999999999998
 30
0.0
 11
-0.4375
 21
2.874999999999998
 31
0.0
  0
LINE
  5
132
330
2
100
AcDbEntity
  8
0
100
AcDbLine
 10
-0.3125
 20
2.374999999999998
 30
0.0
 11
-0.3125
 21
2.874999999999998
 31
0.0
  0
LINE
  5
133
330
2
100
AcDbEntity
  8
0
100
AcDbLine
 10
-0.4375
 20
2.003545569771614
 30
0.0
 11
-0.264268874474979
 21
2.176776695296637
 31
0.0
  0
LINE
  5
134
330
2
100
AcDbEntity
  8
0
100
AcDbLine
 10
-0.4375
 20
2.374999999999998
 30
0.0
 11
-0.375
 21
2.35077868587827
 31
0.0
  0
LINE
  5
135
330
2
100
AcDbEntity
  8
0
100
AcDbLine
 10
-0.375
 20
2.35077868587827
 30
0.0
 11
-0.3125
 21
2.374999999999998
 31
0.0
  0
LINE
  5
136
330
2
100
AcDbEntity
  8
0
100
AcDbLine
 10
-0.4375
 20
2.874999999999998
 30
0.0
 11
-0.375
 21
2.899221314121727
 31
0.0
  0
LINE
  5
137
330
2
100
AcDbEntity
  8
0
100
AcDbLine
 10
-0.4375
 20
3.249999999999998
 30
0.0
 11
-0.375
 21
3.22577868587827
 31
0.0
  0
LINE
  5
138
330
2
100
AcDbEntity
  8
0
100
AcDbLine
 10
-0.375
 20
2.899221314121727
 30
0.0
 11
-0.3125
 21
2.874999999999998
 31
0.0
  0
LINE
  5
139
330
2
100
AcDbEntity
  8
0
100
AcDbLine
 10
-0.375
 20
3.22577868587827
 30
0.0
 11
-0.3125
 21
3.249999999999998
 31
0.0
  0
LINE
  5
13A
330
2
100
AcDbEntity
  8
0
100
AcDbLine
 10
0.4375
 20
2.003545569771614
 30
0.0
 11
0.2642688744749755
 21
1.830314444246591
 31
0.0
  0
LINE
  5
13B
330
2
100
AcDbEntity
  8
0
100
AcDbLine
 10
0.375
 20
1.10077868587827
 30
0.0
 11
0.4375
 21
1.124999999999998
 31
0.0
  0
LINE
  5
13C
330
2
100
AcDbEntity
  8
0
100
AcDbLine
 10
0.375
 20
1.649221314121727
 30
0.0
 11
0.4375
 21
1.624999999999998
 31
0.0
  0
LINE
  5
13D
330
2
100
AcDbEntity
  8
0
100
AcDbLine
 10
0.375
 20
0.7742213141217267
 30
0.0
 11
0.4375
 21
0.7499999999999982
 31
0.0
  0
LINE
  5
13E
330
2
100
AcDbEntity
  8
0
100
AcDbLine
 10
0.3125
 20
1.124999999999998
 30
0.0
 11
0.3125
 21
1.624999999999998
 31
0.0
  0
LINE
  5
13F
330
2
100
AcDbEntity
  8
0
100
AcDbLine
 10
0.125
 20
0.7742213141217267
 30
0.0
 11
0.1875
 21
0.7499999999999982
 31
0.0
  0
LINE
  5
140
330
2
100
AcDbEntity
  8
0
100
AcDbLine
 10
-0.125
 20
0.7742213141217267
 30
0.0
 11
-0.0625
 21
0.7499999999999982
 31
0.0
  0
LINE
  5
141
330
2
100
AcDbEntity
  8
0
100
AcDbLine
 10
0.0625
 20
0.7499999999999982
 30
0.0
 11
0.125
 21
0.7742213141217267
 31
0.0
  0
LINE
  5
142
330
2
100
AcDbEntity
  8
0
100
AcDbLine
 10
0.3125
 20
0.7499999999999982
 30
0.0
 11
0.375
 21
0.7742213141217267
 31
0.0
  0
LINE
  5
143
330
2
100
AcDbEntity
  8
0
100
AcDbLine
 10
0.3125
 20
1.124999999999998
 30
0.0
 11
0.375
 21
1.10077868587827
 31
0.0
  0
LINE
  5
144
330
2
100
AcDbEntity
  8
0
100
AcDbLine
 10
0.3125
 20
1.624999999999998
 30
0.0
 11
0.375
 21
1.649221314121727
 31
0.0
  0
LINE
  5
145
330
2
100
AcDbEntity
  8
0
100
AcDbLine
 10
0.4375
 20
1.124999999999998
 30
0.0
 11
0.4375
 21
1.624999999999998
 31
0.0
  0
LINE
  5
146
330
2
100
AcDbEntity
  8
0
100
AcDbLine
 10
0.4375
 20
2.003545569771614
 30
0.0
 11
0.2642688744749755
 21
2.176776695296637
 31
0.0
  0
LINE
  5
147
330
2
100
AcDbEntity
  8
0
100
AcDbLine
 10
0.375
 20
3.22577868587827
 30
0.0
 11
0.4375
 21
3.249999999999998
 31
0.0
  0
LINE
  5
148
330
2
100
AcDbEntity
  8
0
100
AcDbLine
 10
0.375
 20
2.35077868587827
 30
0.0
 11
0.4375
 21
2.374999999999998
 31
0.0
  0
LINE
  5
149
330
2
100
AcDbEntity
  8
0
100
AcDbLine
 10
0.375
 20
2.899221314121727
 30
0.0
 11
0.4375
 21
2.874999999999998
 31
0.0
  0
LINE
  5
14A
330
2
100
AcDbEntity
  8
0
100
AcDbLine
 10
0.3125
 20
2.374999999999998
 30
0.0
 11
0.3125
 21
2.874999999999998
 31
0.0
  0
LINE
  5
14B
330
2
100
AcDbEntity
  8
0
100
AcDbLine
 10
0.3125
 20
2.374999999999998
 30
0.0
 11
0.375
 21
2.35077868587827
 31
0.0
  0
LINE
  5
14C
330
2
100
AcDbEntity
  8
0
100
AcDbLine
 10
0.125
 20
3.22577868587827
 30
0.0
 11
0.1875
 21
3.249999999999998
 31
0.0
  0
LINE
  5
14D
330
2
100
AcDbEntity
  8
0
100
AcDbLine
 10
-0.125
 20
3.22577868587827
 30
0.0
 11
-0.0625
 21
3.249999999999998
 31
0.0
  0
LINE
  5
14E
330
2
100
AcDbEntity
  8
0
100
AcDbLine
 10
0.0625
 20
3.249999999999998
 30
0.0
 11
0.125
 21
3.22577868587827
 31
0.0
  0
LINE
  5
14F
330
2
100
AcDbEntity
  8
0
100
AcDbLine
 10
0.3125
 20
2.874999999999998
 30
0.0
 11
0.375
 21
2.899221314121727
 31
0.0
  0
LINE
  5
150
330
2
100
AcDbEntity
  8
0
100
AcDbLine
 10
0.3125
 20
3.249999999999998
 30
0.0
 11
0.375
 21
3.22577868587827
 31
0.0
  0
LINE
  5
151
330
2
100
AcDbEntity
  8
0
100
AcDbLine
 10
0.4375
 20
2.374999999999998
 30
0.0
 11
0.4375
 21
2.874999999999998
 31
0.0
  0
LINE
  5
152
330
2
100
AcDbEntity
  8
0
100
AcDbLine
 10
0.5
 20
4.0
 30
0.0
 11
-0.5
 21
4.0
 31
0.0
  0
LINE
  5
153
330
2
100
AcDbEntity
  8
0
100
AcDbLine
 10
-0.1875
 20
3.749999999999998
 30
0.0
 11
-0.125
 21
3.774221314121727
 31
0.0
  0
LINE
  5
154
330
2
100
AcDbEntity
  8
0
100
AcDbLine
 10
-0.4375
 20
3.749999999999998
 30
0.0
 11
-0.375
 21
3.774221314121727
 31
0.0
  0
LINE
  5
155
330
2
100
AcDbEntity
  8
0
100
AcDbLine
 10
-0.375
 20
3.774221314121727
 30
0.0
 11
-0.3125
 21
3.749999999999998
 31
0.0
  0
LINE
  5
156
330
2
100
AcDbEntity
  8
0
100
AcDbLine
 10
0.375
 20
3.774221314121727
 30
0.0
 11
0.4375
 21
3.749999999999998
 31
0.0
  0
LINE
  5
157
330
2
100
AcDbEntity
  8
0
100
AcDbLine
 10
0.125
 20
3.774221314121727
 30
0.0
 11
0.1875
 21
3.749999999999998
 31
0.0
  0
LINE
  5
158
330
2
100
AcDbEntity
  8
0
100
AcDbLine
 10
-0.125
 20
3.774221314121727
 30
0.0
 11
-0.0625
 21
3.749999999999998
 31
0.0
  0
LINE
  5
159
330
2
100
AcDbEntity
  8
0
100
AcDbLine
 10
0.0625
 20
3.749999999999998
 30
0.0
 11
0.125
 21
3.774221314121727
 31
0.0
  0
LINE
  5
15A
330
2
100
AcDbEntity
  8
0
100
AcDbLine
 10
0.3125
 20
3.749999999999998
 30
0.0
 11
0.375
 21
3.774221314121727
 31
0.0
  0
LINE
  5
15C
330
2
100
AcDbEntity
  8
0
100
AcDbLine
 10
3.65045660309192
 20
3.963029854232381
 30
0.0
 11
3.65045660309192
 21
-0.0369701457676186
 31
0.0
  0
LINE
  5
15D
330
2
100
AcDbEntity
  8
0
100
AcDbLine
 10
3.61545660309192
 20
3.963029854232381
 30
0.0
 11
3.61545660309192
 21
-0.0369701457676186
 31
0.0
  0
LINE
  5
15E
330
2
100
AcDbEntity
  8
0
100
AcDbLine
 10
3.65045660309192
 20
0.2074432071872057
 30
0.0
 11
3.796131528292296
 21
0.2115598361099966
 31
0.0
  0
LINE
  5
15F
330
2
100
AcDbEntity
  8
0
100
AcDbLine
 10
3.65045660309192
 20
0.1310688245344078
 30
0.0
 11
3.774167382957556
 21
0.10586767502671
 31
0.0
  0
LINE
  5
160
330
2
100
AcDbEntity
  8
0
100
AcDbLine
 10
3.65045660309192
 20
0.1511368508048072
 30
0.0
 11
3.783730245588924
 21
0.1242145745770333
 31
0.0
  0
LINE
  5
161
330
2
100
AcDbEntity
  8
0
100
AcDbLine
 10
3.675576534739189
 20
0.1874173640084376
 30
0.0
 11
3.991271476341005
 21
0.1705047848932022
 31
0.0
  0
LINE
  5
162
330
2
100
AcDbEntity
  8
0
100
AcDbLine
 10
3.61545660309192
 20
-0.0369701457676186
 30
0.0
 11
3.65045660309192
 21
-0.0369701457676186
 31
0.0
  0
LINE
  5
163
330
2
100
AcDbEntity
  8
0
100
AcDbLine
 10
3.899092400598709
 20
0.1955666240405609
 30
0.0
 11
3.993553823553516
 21
0.1810764827278177
 31
0.0
  0
LINE
  5
164
330
2
100
AcDbEntity
  8
0
100
AcDbLine
 10
3.87099551399918
 20
0.1195395527077814
 30
0.0
 11
3.975579490785227
 21
0.1338436637385296
 31
0.0
  0
LINE
  5
165
330
2
100
AcDbEntity
  8
0
100
AcDbLine
 10
3.737890759587529
 20
0.1654364585850665
 30
0.0
 11
3.92097671487964
 21
0.1556280793691851
 31
0.0
  0
LINE
  5
166
330
2
100
AcDbEntity
  8
0
100
AcDbLine
 10
3.796131528292296
 20
0.2115598361099966
 30
0.0
 11
3.899092400598709
 21
0.1955666240405609
 31
0.0
  0
LINE
  5
167
330
2
100
AcDbEntity
  8
0
100
AcDbLine
 10
3.774167382957556
 20
0.10586767502671
 30
0.0
 11
3.878695390623616
 21
0.1191270507781415
 31
0.0
  0
LINE
  5
168
330
2
100
AcDbEntity
  8
0
100
AcDbLine
 10
3.783730245588924
 20
0.1242145745770333
 30
0.0
 11
3.87099551399918
 21
0.1195395527077814
 31
0.0
  0
LINE
  5
169
330
2
100
AcDbEntity
  8
0
100
AcDbLine
 10
3.993553823553516
 20
0.1810764827278177
 30
0.0
 11
4.038758425253651
 21
0.1679195169577117
 31
0.0
  0
LINE
  5
16A
330
2
100
AcDbEntity
  8
0
100
AcDbLine
 10
3.975579490785227
 20
0.1338436637385296
 30
0.0
 11
4.038758425253651
 21
0.1679195169577117
 31
0.0
  0
LINE
  5
16B
330
2
100
AcDbEntity
  8
0
100
AcDbLine
 10
3.675576534739189
 20
3.187417364008438
 30
0.0
 11
3.991271476341005
 21
3.170504784893202
 31
0.0
  0
LINE
  5
16C
330
2
100
AcDbEntity
  8
0
100
AcDbLine
 10
3.65045660309192
 20
3.151136850804807
 30
0.0
 11
3.783730245588924
 21
3.124214574577033
 31
0.0
  0
LINE
  5
16D
330
2
100
AcDbEntity
  8
0
100
AcDbLine
 10
3.65045660309192
 20
3.131068824534408
 30
0.0
 11
3.774167382957556
 21
3.10586767502671
 31
0.0
  0
LINE
  5
16E
330
2
100
AcDbEntity
  8
0
100
AcDbLine
 10
3.65045660309192
 20
3.207443207187206
 30
0.0
 11
3.796131528292296
 21
3.211559836109997
 31
0.0
  0
LINE
  5
16F
330
2
100
AcDbEntity
  8
0
100
AcDbLine
 10
3.65045660309192
 20
3.718616501277555
 30
0.0
 11
3.796131528292296
 21
3.714499872354763
 31
0.0
  0
LINE
  5
170
330
2
100
AcDbEntity
  8
0
100
AcDbLine
 10
3.65045660309192
 20
3.794990883930353
 30
0.0
 11
3.774167382957556
 21
3.820192033438049
 31
0.0
  0
LINE
  5
171
330
2
100
AcDbEntity
  8
0
100
AcDbLine
 10
3.65045660309192
 20
3.774922857659954
 30
0.0
 11
3.783730245588924
 21
3.801845133887726
 31
0.0
  0
LINE
  5
172
330
2
100
AcDbEntity
  8
0
100
AcDbLine
 10
3.675576534739189
 20
3.738642344456322
 30
0.0
 11
3.991271476341005
 21
3.755554923571557
 31
0.0
  0
LINE
  5
173
330
2
100
AcDbEntity
  8
0
100
AcDbLine
 10
3.675576534739189
 20
2.322381473777659
 30
0.0
 11
3.991271476341005
 21
2.305468894662424
 31
0.0
  0
LINE
  5
174
330
2
100
AcDbEntity
  8
0
100
AcDbLine
 10
3.65045660309192
 20
2.286100960574029
 30
0.0
 11
3.783730245588924
 21
2.259178684346255
 31
0.0
  0
LINE
  5
175
330
2
100
AcDbEntity
  8
0
100
AcDbLine
 10
3.65045660309192
 20
2.266032934303629
 30
0.0
 11
3.774167382957556
 21
2.240831784795931
 31
0.0
  0
LINE
  5
176
330
2
100
AcDbEntity
  8
0
100
AcDbLine
 10
3.65045660309192
 20
2.342407316956427
 30
0.0
 11
3.796131528292296
 21
2.346523945879218
 31
0.0
  0
LINE
  5
177
330
2
100
AcDbEntity
  8
0
100
AcDbLine
 10
3.65045660309192
 20
2.853580611046777
 30
0.0
 11
3.796131528292296
 21
2.849463982123984
 31
0.0
  0
LINE
  5
178
330
2
100
AcDbEntity
  8
0
100
AcDbLine
 10
3.65045660309192
 20
2.929954993699575
 30
0.0
 11
3.774167382957556
 21
2.955156143207271
 31
0.0
  0
LINE
  5
179
330
2
100
AcDbEntity
  8
0
100
AcDbLine
 10
3.65045660309192
 20
2.909886967429175
 30
0.0
 11
3.783730245588924
 21
2.936809243656947
 31
0.0
  0
LINE
  5
17A
330
2
100
AcDbEntity
  8
0
100
AcDbLine
 10
3.675576534739189
 20
2.873606454225543
 30
0.0
 11
3.991271476341005
 21
2.890519033340778
 31
0.0
  0
LINE
  5
17B
330
2
100
AcDbEntity
  8
0
100
AcDbLine
 10
3.675576534739189
 20
1.05349948764828
 30
0.0
 11
3.991271476341005
 21
1.036586908533044
 31
0.0
  0
LINE
  5
17C
330
2
100
AcDbEntity
  8
0
100
AcDbLine
 10
3.65045660309192
 20
1.017218974444649
 30
0.0
 11
3.783730245588924
 21
0.9902966982168753
 31
0.0
  0
LINE
  5
17D
330
2
100
AcDbEntity
  8
0
100
AcDbLine
 10
3.65045660309192
 20
0.9971509481742498
 30
0.0
 11
3.774167382957556
 21
0.971949798666552
 31
0.0
  0
LINE
  5
17E
330
2
100
AcDbEntity
  8
0
100
AcDbLine
 10
3.65045660309192
 20
1.073525330827048
 30
0.0
 11
3.796131528292296
 21
1.077641959749839
 31
0.0
  0
LINE
  5
17F
330
2
100
AcDbEntity
  8
0
100
AcDbLine
 10
3.65045660309192
 20
1.584698624917397
 30
0.0
 11
3.796131528292296
 21
1.580581995994605
 31
0.0
  0
LINE
  5
180
330
2
100
AcDbEntity
  8
0
100
AcDbLine
 10
3.65045660309192
 20
1.661073007570195
 30
0.0
 11
3.774167382957556
 21
1.686274157077891
 31
0.0
  0
LINE
  5
181
330
2
100
AcDbEntity
  8
0
100
AcDbLine
 10
3.65045660309192
 20
1.641004981299796
 30
0.0
 11
3.783730245588924
 21
1.667927257527568
 31
0.0
  0
LINE
  5
182
330
2
100
AcDbEntity
  8
0
100
AcDbLine
 10
3.675576534739189
 20
1.604724468096164
 30
0.0
 11
3.991271476341005
 21
1.621637047211399
 31
0.0
  0
LINE
  5
183
330
2
100
AcDbEntity
  8
0
100
AcDbLine
 10
3.675576534739189
 20
0.7386423444563217
 30
0.0
 11
3.991271476341005
 21
0.7555549235715571
 31
0.0
  0
LINE
  5
184
330
2
100
AcDbEntity
  8
0
100
AcDbLine
 10
3.65045660309192
 20
0.7749228576599538
 30
0.0
 11
3.783730245588924
 21
0.8018451338877259
 31
0.0
  0
LINE
  5
185
330
2
100
AcDbEntity
  8
0
100
AcDbLine
 10
3.65045660309192
 20
0.7949908839303532
 30
0.0
 11
3.774167382957556
 21
0.8201920334380493
 31
0.0
  0
LINE
  5
186
330
2
100
AcDbEntity
  8
0
100
AcDbLine
 10
3.65045660309192
 20
0.7186165012775554
 30
0.0
 11
3.796131528292296
 21
0.7144998723547626
 31
0.0
  0
LINE
  5
187
330
2
100
AcDbEntity
  8
0
100
AcDbLine
 10
3.61545660309192
 20
3.963029854232381
 30
0.0
 11
3.65045660309192
 21
3.963029854232381
 31
0.0
  0
LINE
  5
188
330
2
100
AcDbEntity
  8
0
100
AcDbLine
 10
3.87099551399918
 20
0.9856216763476233
 30
0.0
 11
3.975579490785227
 21
0.9999257873783716
 31
0.0
  0
LINE
  5
189
330
2
100
AcDbEntity
  8
0
100
AcDbLine
 10
3.899092400598709
 20
1.061648747680403
 30
0.0
 11
3.993553823553516
 21
1.04715860636766
 31
0.0
  0
LINE
  5
18A
330
2
100
AcDbEntity
  8
0
100
AcDbLine
 10
3.87099551399918
 20
0.8065201557569797
 30
0.0
 11
3.975579490785227
 21
0.7922160447262314
 31
0.0
  0
LINE
  5
18B
330
2
100
AcDbEntity
  8
0
100
AcDbLine
 10
3.899092400598709
 20
0.7304930844241984
 30
0.0
 11
3.993553823553516
 21
0.7449832257369433
 31
0.0
  0
LINE
  5
18C
330
2
100
AcDbEntity
  8
0
100
AcDbLine
 10
3.783730245588924
 20
0.8018451338877259
 30
0.0
 11
3.87099551399918
 21
0.8065201557569797
 31
0.0
  0
LINE
  5
18D
330
2
100
AcDbEntity
  8
0
100
AcDbLine
 10
3.774167382957556
 20
0.8201920334380493
 30
0.0
 11
3.878695390623616
 21
0.8069326576866178
 31
0.0
  0
LINE
  5
18E
330
2
100
AcDbEntity
  8
0
100
AcDbLine
 10
3.796131528292296
 20
0.7144998723547626
 30
0.0
 11
3.899092400598709
 21
0.7304930844241984
 31
0.0
  0
LINE
  5
18F
330
2
100
AcDbEntity
  8
0
100
AcDbLine
 10
3.737890759587529
 20
0.7606232498796945
 30
0.0
 11
3.92097671487964
 21
0.7704316290955759
 31
0.0
  0
LINE
  5
190
330
2
100
AcDbEntity
  8
0
100
AcDbLine
 10
3.783730245588924
 20
0.9902966982168753
 30
0.0
 11
3.87099551399918
 21
0.9856216763476233
 31
0.0
  0
LINE
  5
191
330
2
100
AcDbEntity
  8
0
100
AcDbLine
 10
3.774167382957556
 20
0.971949798666552
 30
0.0
 11
3.878695390623616
 21
0.9852091744179834
 31
0.0
  0
LINE
  5
192
330
2
100
AcDbEntity
  8
0
100
AcDbLine
 10
3.796131528292296
 20
1.077641959749839
 30
0.0
 11
3.899092400598709
 21
1.061648747680403
 31
0.0
  0
LINE
  5
193
330
2
100
AcDbEntity
  8
0
100
AcDbLine
 10
3.737890759587529
 20
1.031518582224908
 30
0.0
 11
3.92097671487964
 21
1.021710203009027
 31
0.0
  0
LINE
  5
194
330
2
100
AcDbEntity
  8
0
100
AcDbLine
 10
3.975579490785227
 20
0.7922160447262314
 30
0.0
 11
4.038758425253651
 21
0.7581401915070476
 31
0.0
  0
LINE
  5
195
330
2
100
AcDbEntity
  8
0
100
AcDbLine
 10
3.993553823553516
 20
0.7449832257369433
 30
0.0
 11
4.038758425253651
 21
0.7581401915070476
 31
0.0
  0
LINE
  5
196
330
2
100
AcDbEntity
  8
0
100
AcDbLine
 10
3.975579490785227
 20
0.9999257873783716
 30
0.0
 11
4.038758425253651
 21
1.034001640597554
 31
0.0
  0
LINE
  5
197
330
2
100
AcDbEntity
  8
0
100
AcDbLine
 10
3.993553823553516
 20
1.04715860636766
 30
0.0
 11
4.038758425253651
 21
1.034001640597554
 31
0.0
  0
LINE
  5
198
330
2
100
AcDbEntity
  8
0
100
AcDbLine
 10
3.899092400598709
 20
1.59657520806404
 30
0.0
 11
3.993553823553516
 21
1.611065349376785
 31
0.0
  0
LINE
  5
199
330
2
100
AcDbEntity
  8
0
100
AcDbLine
 10
3.87099551399918
 20
1.672602279396822
 30
0.0
 11
3.975579490785227
 21
1.658298168366073
 31
0.0
  0
LINE
  5
19A
330
2
100
AcDbEntity
  8
0
100
AcDbLine
 10
3.796131528292296
 20
1.580581995994605
 30
0.0
 11
3.899092400598709
 21
1.59657520806404
 31
0.0
  0
LINE
  5
19B
330
2
100
AcDbEntity
  8
0
100
AcDbLine
 10
3.737890759587529
 20
1.626705373519537
 30
0.0
 11
3.92097671487964
 21
1.636513752735418
 31
0.0
  0
LINE
  5
19C
330
2
100
AcDbEntity
  8
0
100
AcDbLine
 10
3.774167382957556
 20
1.686274157077891
 30
0.0
 11
3.878695390623616
 21
1.67301478132646
 31
0.0
  0
LINE
  5
19D
330
2
100
AcDbEntity
  8
0
100
AcDbLine
 10
3.783730245588924
 20
1.667927257527568
 30
0.0
 11
3.87099551399918
 21
1.672602279396822
 31
0.0
  0
LINE
  5
19E
330
2
100
AcDbEntity
  8
0
100
AcDbLine
 10
3.993553823553516
 20
1.611065349376785
 30
0.0
 11
4.038758425253651
 21
1.62422231514689
 31
0.0
  0
LINE
  5
19F
330
2
100
AcDbEntity
  8
0
100
AcDbLine
 10
3.975579490785227
 20
1.658298168366073
 30
0.0
 11
4.038758425253651
 21
1.62422231514689
 31
0.0
  0
LINE
  5
1A0
330
2
100
AcDbEntity
  8
0
100
AcDbLine
 10
3.87099551399918
 20
2.254503662477003
 30
0.0
 11
3.975579490785227
 21
2.268807773507751
 31
0.0
  0
LINE
  5
1A1
330
2
100
AcDbEntity
  8
0
100
AcDbLine
 10
3.899092400598709
 20
2.330530733809782
 30
0.0
 11
3.993553823553516
 21
2.316040592497039
 31
0.0
  0
LINE
  5
1A2
330
2
100
AcDbEntity
  8
0
100
AcDbLine
 10
3.737890759587529
 20
2.300400568354288
 30
0.0
 11
3.92097671487964
 21
2.290592189138407
 31
0.0
  0
LINE
  5
1A3
330
2
100
AcDbEntity
  8
0
100
AcDbLine
 10
3.783730245588924
 20
2.259178684346255
 30
0.0
 11
3.87099551399918
 21
2.254503662477003
 31
0.0
  0
LINE
  5
1A4
330
2
100
AcDbEntity
  8
0
100
AcDbLine
 10
3.774167382957556
 20
2.240831784795931
 30
0.0
 11
3.878695390623616
 21
2.254091160547363
 31
0.0
  0
LINE
  5
1A5
330
2
100
AcDbEntity
  8
0
100
AcDbLine
 10
3.796131528292296
 20
2.346523945879218
 30
0.0
 11
3.899092400598709
 21
2.330530733809782
 31
0.0
  0
LINE
  5
1A6
330
2
100
AcDbEntity
  8
0
100
AcDbLine
 10
3.975579490785227
 20
2.268807773507751
 30
0.0
 11
4.038758425253651
 21
2.302883626726933
 31
0.0
  0
LINE
  5
1A7
330
2
100
AcDbEntity
  8
0
100
AcDbLine
 10
3.993553823553516
 20
2.316040592497039
 30
0.0
 11
4.038758425253651
 21
2.302883626726933
 31
0.0
  0
LINE
  5
1A8
330
2
100
AcDbEntity
  8
0
100
AcDbLine
 10
3.87099551399918
 20
3.119539552707781
 30
0.0
 11
3.975579490785227
 21
3.13384366373853
 31
0.0
  0
LINE
  5
1A9
330
2
100
AcDbEntity
  8
0
100
AcDbLine
 10
3.899092400598709
 20
3.195566624040561
 30
0.0
 11
3.993553823553516
 21
3.181076482727818
 31
0.0
  0
LINE
  5
1AA
330
2
100
AcDbEntity
  8
0
100
AcDbLine
 10
3.899092400598709
 20
2.86545719419342
 30
0.0
 11
3.993553823553516
 21
2.879947335506165
 31
0.0
  0
LINE
  5
1AB
330
2
100
AcDbEntity
  8
0
100
AcDbLine
 10
3.87099551399918
 20
2.941484265526201
 30
0.0
 11
3.975579490785227
 21
2.927180154495453
 31
0.0
  0
LINE
  5
1AC
330
2
100
AcDbEntity
  8
0
100
AcDbLine
 10
3.737890759587529
 20
2.895587359648916
 30
0.0
 11
3.92097671487964
 21
2.905395738864797
 31
0.0
  0
LINE
  5
1AD
330
2
100
AcDbEntity
  8
0
100
AcDbLine
 10
3.796131528292296
 20
2.849463982123984
 30
0.0
 11
3.899092400598709
 21
2.86545719419342
 31
0.0
  0
LINE
  5
1AE
330
2
100
AcDbEntity
  8
0
100
AcDbLine
 10
3.774167382957556
 20
2.955156143207271
 30
0.0
 11
3.878695390623616
 21
2.941896767455839
 31
0.0
  0
LINE
  5
1AF
330
2
100
AcDbEntity
  8
0
100
AcDbLine
 10
3.783730245588924
 20
2.936809243656947
 30
0.0
 11
3.87099551399918
 21
2.941484265526201
 31
0.0
  0
LINE
  5
1B0
330
2
100
AcDbEntity
  8
0
100
AcDbLine
 10
3.783730245588924
 20
3.124214574577033
 30
0.0
 11
3.87099551399918
 21
3.119539552707781
 31
0.0
  0
LINE
  5
1B1
330
2
100
AcDbEntity
  8
0
100
AcDbLine
 10
3.774167382957556
 20
3.10586767502671
 30
0.0
 11
3.878695390623616
 21
3.119127050778142
 31
0.0
  0
LINE
  5
1B2
330
2
100
AcDbEntity
  8
0
100
AcDbLine
 10
3.796131528292296
 20
3.211559836109997
 30
0.0
 11
3.899092400598709
 21
3.195566624040561
 31
0.0
  0
LINE
  5
1B3
330
2
100
AcDbEntity
  8
0
100
AcDbLine
 10
3.737890759587529
 20
3.165436458585067
 30
0.0
 11
3.92097671487964
 21
3.155628079369185
 31
0.0
  0
LINE
  5
1B4
330
2
100
AcDbEntity
  8
0
100
AcDbLine
 10
3.993553823553516
 20
2.879947335506165
 30
0.0
 11
4.038758425253651
 21
2.893104301276269
 31
0.0
  0
LINE
  5
1B5
330
2
100
AcDbEntity
  8
0
100
AcDbLine
 10
3.975579490785227
 20
2.927180154495453
 30
0.0
 11
4.038758425253651
 21
2.893104301276269
 31
0.0
  0
LINE
  5
1B6
330
2
100
AcDbEntity
  8
0
100
AcDbLine
 10
3.975579490785227
 20
3.13384366373853
 30
0.0
 11
4.038758425253651
 21
3.167919516957712
 31
0.0
  0
LINE
  5
1B7
330
2
100
AcDbEntity
  8
0
100
AcDbLine
 10
3.993553823553516
 20
3.181076482727818
 30
0.0
 11
4.038758425253651
 21
3.167919516957712
 31
0.0
  0
LINE
  5
1B8
330
2
100
AcDbEntity
  8
0
100
AcDbLine
 10
3.899092400598709
 20
3.730493084424198
 30
0.0
 11
3.993553823553516
 21
3.744983225736943
 31
0.0
  0
LINE
  5
1B9
330
2
100
AcDbEntity
  8
0
100
AcDbLine
 10
3.87099551399918
 20
3.80652015575698
 30
0.0
 11
3.975579490785227
 21
3.792216044726231
 31
0.0
  0
LINE
  5
1BA
330
2
100
AcDbEntity
  8
0
100
AcDbLine
 10
3.737890759587529
 20
3.760623249879695
 30
0.0
 11
3.92097671487964
 21
3.770431629095576
 31
0.0
  0
LINE
  5
1BB
330
2
100
AcDbEntity
  8
0
100
AcDbLine
 10
3.796131528292296
 20
3.714499872354763
 30
0.0
 11
3.899092400598709
 21
3.730493084424198
 31
0.0
  0
LINE
  5
1BC
330
2
100
AcDbEntity
  8
0
100
AcDbLine
 10
3.774167382957556
 20
3.820192033438049
 30
0.0
 11
3.878695390623616
 21
3.806932657686618
 31
0.0
  0
LINE
  5
1BD
330
2
100
AcDbEntity
  8
0
100
AcDbLine
 10
3.783730245588924
 20
3.801845133887726
 30
0.0
 11
3.87099551399918
 21
3.80652015575698
 31
0.0
  0
LINE
  5
1BE
330
2
100
AcDbEntity
  8
0
100
AcDbLine
 10
3.993553823553516
 20
3.744983225736943
 30
0.0
 11
4.038758425253651
 21
3.758140191507048
 31
0.0
  0
LINE
  5
1BF
330
2
100
AcDbEntity
  8
0
100
AcDbLine
 10
3.975579490785227
 20
3.792216044726231
 30
0.0
 11
4.038758425253651
 21
3.758140191507048
 31
0.0
  0
ENDSEC
  0
SECTION
  2
OBJECTS
  0
DICTIONARY
  5
7
330
0
100
AcDbDictionary
281
     1
  3
ACAD_COLOR
350
1C7
  3
ACAD_GROUP
350
1F
  3
ACAD_LAYOUT
350
B
  3
ACAD_MATERIAL
350
1C6
  3
ACAD_MLINESTYLE
350
20
  3
ACAD_PLOTSETTINGS
350
21
  3
ACAD_PLOTSTYLENAME
350
6
  3
ACAD_TABLESTYLE
350
1C8
  3
ACDBHEADERROUNDTRIPXREC
350
1DD
  3
AcDbVariableDictionary
350
100
  0
DICTIONARY
  5
1C7
102
{ACAD_REACTORS
330
7
102
}
330
7
100
AcDbDictionary
281
     1
  0
DICTIONARY
  5
1F
102
{ACAD_REACTORS
330
7
102
}
330
7
100
AcDbDictionary
281
     1
  0
DICTIONARY
  5
B
102
{ACAD_REACTORS
330
7
102
}
330
7
100
AcDbDictionary
281
     1
  3
Layout1
350
F
  3
Model
350
A
  0
DICTIONARY
  5
1C6
102
{ACAD_REACTORS
330
7
102
}
330
7
100
AcDbDictionary
281
     1
  0
DICTIONARY
  5
20
102
{ACAD_REACTORS
330
7
102
}
330
7
100
AcDbDictionary
281
     1
  3
Standard
350
23
  0
DICTIONARY
  5
21
102
{ACAD_REACTORS
330
7
102
}
330
7
100
AcDbDictionary
281
     1
  0
ACDBDICTIONARYWDFLT
  5
6
102
{ACAD_REACTORS
330
7
102
}
330
7
100
AcDbDictionary
281
     1
  3
Normal
350
5
100
AcDbDictionaryWithDefault
340
5
  0
DICTIONARY
  5
1C8
102
{ACAD_REACTORS
330
7
102
}
330
7
100
AcDbDictionary
281
     1
  3
Standard
350
1C9
  0
DICTIONARY
  5
1DD
102
{ACAD_REACTORS
330
7
102
}
330
7
100
AcDbDictionary
281
     1
  3
COLORDICT
350
1DE
  3
MATERIALDICT
350
1DF
  0
DICTIONARY
  5
100
102
{ACAD_REACTORS
330
7
102
}
330
7
100
AcDbDictionary
281
     1
  3
CTABLESTYLE
350
1D2
  3
DIMASSOC
350
102
  3
HIDETEXT
350
101
  0
LAYOUT
  5
F
102
{ACAD_REACTORS
330
B
102
}
102
{ACAD_XDICTIONARY
360
1E0
102
}
330
B
100
AcDbPlotSettings
  1

  2
X:\Program Files\AutoCAD2002\plotters\DWF ePlot (optimized for plotting).pc3
  4

  6

 40
0.0
 41
0.0
 42
0.0
 43
0.0
 44
0.0
 45
0.0
 46
0.0
 47
0.0
 48
0.0
 49
0.0
140
0.0
141
0.0
142
1.0
143
1.0
 70
   688
 72
     0
 73
     0
 74
     5
  7

 75
    16
147
1.0
148
0.0
149
0.0
100
AcDbLayout
  1
Layout1
 70
     0
 71
     1
 10
0.0
 20
0.0
 11
12.0
 21
9.0
 12
0.0
 22
0.0
 32
0.0
 14
1.000000000000000E+20
 24
1.000000000000000E+20
 34
1.000000000000000E+20
 15
-1.000000000000000E+20
 25
-1.000000000000000E+20
 35
-1.000000000000000E+20
146
0.0
 13
0.0
 23
0.0
 33
0.0
 16
1.0
 26
0.0
 36
0.0
 17
0.0
 27
1.0
 37
0.0
 76
     0
330
C
  0
LAYOUT
  5
A
102
{ACAD_REACTORS
330
B
102
}
102
{ACAD_XDICTIONARY
360
1E2
102
}
330
B
100
AcDbPlotSettings
  1

  2
X:\Program Files\AutoCAD2002\plotters\DWF ePlot (optimized for plotting).pc3
  4

  6

 40
0.0
 41
0.0
 42
0.0
 43
0.0
 44
0.0
 45
0.0
 46
0.0
 47
0.0
 48
0.0
 49
0.0
140
0.0
141
0.0
142
1.0
143
1.0
 70
  1712
 72
     0
 73
     0
 74
     0
  7

 75
     0
147
1.0
148
0.0
149
0.0
100
AcDbLayout
  1
Model
 70
     1
 71
     0
 10
0.0
 20
0.0
 11
12.0
 21
9.0
 12
0.0
 22
0.0
 32
0.0
 14
0.0
 24
0.0
 34
0.0
 15
0.0
 25
0.0
 35
0.0
146
0.0
 13
0.0
 23
0.0
 33
0.0
 16
1.0
 26
0.0
 36
0.0
 17
0.0
 27
1.0
 37
0.0
 76
     0
330
2
  0
MLINESTYLE
  5
23
102
{ACAD_REACTORS
330
20
102
}
330
20
100
AcDbMlineStyle
  2
STANDARD
 70
     0
  3

 62
   256
 51
90.0
 52
90.0
 71
     2
 49
0.5
 62
   256
  6
BYLAYER
 49
-0.5
 62
   256
  6
BYLAYER
  0
ACDBPLACEHOLDER
  5
5
102
{ACAD_REACTORS
330
6
102
}
330
6
  0
ACAD_PROXY_OBJECT
  5
1C9
102
{ACAD_REACTORS
330
1C8
102
}
330
1C8
100
AcDbProxyObject
 90
      499
 91
      504
 95
   983063
 70
     0
 93
     1841
310
4214DD185B99185C9928B81E85EB51B8AE3F2E07A17AD46E2B8FC02B5E8DC0F42B1CFD028000000C1008070000C3001FDFF8000000C1003FBFF000000182007F7FE00000030400FEFFC00000060801FDFF8000000C1003FBFF00000018200000000000000681FA0B0000001820100E000186003FBFF000000182007F7FE000
310
00030400FEFFC00000060801FDFF8000000C1003FBFF000000182007F7FE000000304000AD7A3703D0AC73F4160000003040201C00030C007F7FE00000030400FEFFC00000060801FDFF8000000C1003FBFF000000182007F7FE00000030400FEFFC000000608000
340
12
340
12
340
12
 94
        0
  0
XRECORD
  5
1DE
102
{ACAD_REACTORS
330
1DD
102
}
330
1DD
100
AcDbXrecord
340
1C7
  0
XRECORD
  5
1DF
102
{ACAD_REACTORS
330
1DD
102
}
330
1DD
100
AcDbXrecord
340
1C6
  0
DICTIONARYVAR
  5
1D2
102
{ACAD_REACTORS
330
100
102
}
330
100
100
DictionaryVariables
280
     0
  1
STANDARD
  0
DICTIONARYVAR
  5
102
102
{ACAD_REACTORS
330
100
102
}
330
100
100
DictionaryVariables
280
     0
  1
2
  0
DICTIONARYVAR
  5
101
102
{ACAD_REACTORS
330
100
102
}
330
100
100
DictionaryVariables
280
     0
  1
1
  0
DICTIONARY
  5
1E0
330
F
100
AcDbDictionary
280
     1
281
     1
  3
ACAD_XREC_ROUNDTRIP
360
1E1
  0
DICTIONARY
  5
1E2
330
A
100
AcDbDictionary
280
     1
281
     1
  3
ACAD_XREC_ROUNDTRIP
360
1E3
  0
XRECORD
  5
1E1
102
{ACAD_REACTORS
330
1E0
102
}
330
1E0
100
AcDbXrecord
102
SHADEPLOT
 70
     0
102
SHADEPLOTRESLEVEL
 70
     2
102
SHADEPLOTCUSTOMDPI
 70
   300
  0
XRECORD
  5
1E3
102
{ACAD_REACTORS
330
1E2
102
}
330
1E2
100
AcDbXrecord
102
SHADEPLOT
 70
     0
102
SHADEPLOTRESLEVEL
 70
     2
102
SHADEPLOTCUSTOMDPI
 70
   300
  0
ENDSEC
  0
EOF
