  0
SECTION
  2
HEADER
  9
$ACADVER
  1
AC1015
  9
$ACADMAINTVER
 70
     6
  9
$DWGCODEPAGE
  3
ANSI_1252
  9
$INSBASE
 10
0.0
 20
0.0
 30
0.0
  9
$EXTMIN
 10
-1.000000000000001
 20
0.0
 30
0.0
  9
$EXTMAX
 10
4.907930986224675
 20
4.0
 30
0.0
  9
$LIMMIN
 10
0.0
 20
0.0
  9
$LIMMAX
 10
13.3328
 20
17.4993
  9
$ORTHOMODE
 70
     1
  9
$REGENMODE
 70
     1
  9
$FILLMODE
 70
     1
  9
$QTEXTMODE
 70
     0
  9
$MIRRTEXT
 70
     0
  9
$LTSCALE
 40
0.5
  9
$ATTMODE
 70
     1
  9
$TEXTSIZE
 40
0.149994
  9
$TRACEWID
 40
0.05
  9
$TEXTSTYLE
  7
STANDARD
  9
$CLAYER
  8
0
  9
$CELTYPE
  6
ByLayer
  9
$CECOLOR
 62
   256
  9
$CELTSCALE
 40
1.0
  9
$DISPSILH
 70
     0
  9
$DIMSCALE
 40
1.6666
  9
$DIMASZ
 40
0.125
  9
$DIMEXO
 40
0.062
  9
$DIMDLI
 40
0.375
  9
$DIMRND
 40
0.0
  9
$DIMDLE
 40
0.0
  9
$DIMEXE
 40
0.08
  9
$DIMTP
 40
0.0
  9
$DIMTM
 40
0.0
  9
$DIMTXT
 40
0.09
  9
$DIMCEN
 40
-0.06
  9
$DIMTSZ
 40
0.0
  9
$DIMTOL
 70
     0
  9
$DIMLIM
 70
     0
  9
$DIMTIH
 70
     1
  9
$DIMTOH
 70
     1
  9
$DIMSE1
 70
     0
  9
$DIMSE2
 70
     0
  9
$DIMTAD
 70
     0
  9
$DIMZIN
 70
     0
  9
$DIMBLK
  1

  9
$DIMASO
 70
     0
  9
$DIMSHO
 70
     0
  9
$DIMPOST
  1

  9
$DIMAPOST
  1

  9
$DIMALT
 70
     0
  9
$DIMALTD
 70
     2
  9
$DIMALTF
 40
25.4
  9
$DIMLFAC
 40
1.0
  9
$DIMTOFL
 70
     0
  9
$DIMTVP
 40
0.0
  9
$DIMTIX
 70
     0
  9
$DIMSOXD
 70
     0
  9
$DIMSAH
 70
     0
  9
$DIMBLK1
  1

  9
$DIMBLK2
  1

  9
$DIMSTYLE
  2
Standard
  9
$DIMCLRD
 70
     0
  9
$DIMCLRE
 70
     0
  9
$DIMCLRT
 70
     0
  9
$DIMTFAC
 40
1.0
  9
$DIMGAP
 40
0.09
  9
$DIMJUST
 70
     0
  9
$DIMSD1
 70
     0
  9
$DIMSD2
 70
     0
  9
$DIMTOLJ
 70
     1
  9
$DIMTZIN
 70
     0
  9
$DIMALTZ
 70
     0
  9
$DIMALTTZ
 70
     0
  9
$DIMUPT
 70
     0
  9
$DIMDEC
 70
     4
  9
$DIMTDEC
 70
     4
  9
$DIMALTU
 70
     5
  9
$DIMALTTD
 70
     2
  9
$DIMTXSTY
  7
STANDARD
  9
$DIMAUNIT
 70
     0
  9
$DIMADEC
 70
     0
  9
$DIMALTRND
 40
0.0
  9
$DIMAZIN
 70
     0
  9
$DIMDSEP
 70
    46
  9
$DIMATFIT
 70
     3
  9
$DIMFRAC
 70
     0
  9
$DIMLDRBLK
  1

  9
$DIMLUNIT
 70
     5
  9
$DIMLWD
 70
    -2
  9
$DIMLWE
 70
    -2
  9
$DIMTMOVE
 70
     2
  9
$LUNITS
 70
     5
  9
$LUPREC
 70
     4
  9
$SKETCHINC
 40
0.1
  9
$FILLETRAD
 40
0.0
  9
$AUNITS
 70
     0
  9
$AUPREC
 70
     0
  9
$MENU
  1
simpson
  9
$ELEVATION
 40
0.0
  9
$PELEVATION
 40
0.0
  9
$THICKNESS
 40
0.0
  9
$LIMCHECK
 70
     0
  9
$CHAMFERA
 40
0.0
  9
$CHAMFERB
 40
0.0
  9
$CHAMFERC
 40
0.0
  9
$CHAMFERD
 40
0.0
  9
$SKPOLY
 70
     0
  9
$TDCREATE
 40
2449210.966934028
  9
$TDUCREATE
 40
2449211.300267361
  9
$TDUPDATE
 40
2454176.719604768
  9
$TDUUPDATE
 40
2454177.052938102
  9
$TDINDWG
 40
0.0199884954
  9
$TDUSRTIMER
 40
0.0199884954
  9
$USRTIMER
 70
     1
  9
$ANGBASE
 50
0.0
  9
$ANGDIR
 70
     0
  9
$PDMODE
 70
     0
  9
$PDSIZE
 40
0.0
  9
$PLINEWID
 40
0.0
  9
$SPLFRAME
 70
     0
  9
$SPLINETYPE
 70
     6
  9
$SPLINESEGS
 70
     8
  9
$HANDSEED
  5
29D
  9
$SURFTAB1
 70
     6
  9
$SURFTAB2
 70
     6
  9
$SURFTYPE
 70
     6
  9
$SURFU
 70
     6
  9
$SURFV
 70
     6
  9
$UCSBASE
  2

  9
$UCSNAME
  2

  9
$UCSORG
 10
0.0
 20
0.0
 30
0.0
  9
$UCSXDIR
 10
1.0
 20
0.0
 30
0.0
  9
$UCSYDIR
 10
0.0
 20
1.0
 30
0.0
  9
$UCSORTHOREF
  2

  9
$UCSORTHOVIEW
 70
     0
  9
$UCSORGTOP
 10
0.0
 20
0.0
 30
0.0
  9
$UCSORGBOTTOM
 10
0.0
 20
0.0
 30
0.0
  9
$UCSORGLEFT
 10
0.0
 20
0.0
 30
0.0
  9
$UCSORGRIGHT
 10
0.0
 20
0.0
 30
0.0
  9
$UCSORGFRONT
 10
0.0
 20
0.0
 30
0.0
  9
$UCSORGBACK
 10
0.0
 20
0.0
 30
0.0
  9
$PUCSBASE
  2

  9
$PUCSNAME
  2

  9
$PUCSORG
 10
0.0
 20
0.0
 30
0.0
  9
$PUCSXDIR
 10
1.0
 20
0.0
 30
0.0
  9
$PUCSYDIR
 10
0.0
 20
1.0
 30
0.0
  9
$PUCSORTHOREF
  2

  9
$PUCSORTHOVIEW
 70
     0
  9
$PUCSORGTOP
 10
0.0
 20
0.0
 30
0.0
  9
$PUCSORGBOTTOM
 10
0.0
 20
0.0
 30
0.0
  9
$PUCSORGLEFT
 10
0.0
 20
0.0
 30
0.0
  9
$PUCSORGRIGHT
 10
0.0
 20
0.0
 30
0.0
  9
$PUCSORGFRONT
 10
0.0
 20
0.0
 30
0.0
  9
$PUCSORGBACK
 10
0.0
 20
0.0
 30
0.0
  9
$USERI1
 70
     0
  9
$USERI2
 70
     0
  9
$USERI3
 70
     0
  9
$USERI4
 70
     0
  9
$USERI5
 70
     0
  9
$USERR1
 40
0.0
  9
$USERR2
 40
0.0
  9
$USERR3
 40
0.0
  9
$USERR4
 40
0.0
  9
$USERR5
 40
0.0
  9
$WORLDVIEW
 70
     1
  9
$SHADEDGE
 70
     3
  9
$SHADEDIF
 70
    70
  9
$TILEMODE
 70
     1
  9
$MAXACTVP
 70
    16
  9
$PINSBASE
 10
0.0
 20
0.0
 30
0.0
  9
$PLIMCHECK
 70
     0
  9
$PEXTMIN
 10
1.000000000000000E+20
 20
1.000000000000000E+20
 30
1.000000000000000E+20
  9
$PEXTMAX
 10
-1.000000000000000E+20
 20
-1.000000000000000E+20
 30
-1.000000000000000E+20
  9
$PLIMMIN
 10
0.0
 20
0.0
  9
$PLIMMAX
 10
12.0
 20
9.0
  9
$UNITMODE
 70
     0
  9
$VISRETAIN
 70
     0
  9
$PLINEGEN
 70
     0
  9
$PSLTSCALE
 70
     0
  9
$TREEDEPTH
 70
  3020
  9
$CMLSTYLE
  2
Standard
  9
$CMLJUST
 70
     0
  9
$CMLSCALE
 40
1.0
  9
$PROXYGRAPHICS
 70
     1
  9
$MEASUREMENT
 70
     0
  9
$CELWEIGHT
370
    -1
  9
$ENDCAPS
280
     0
  9
$JOINSTYLE
280
     0
  9
$LWDISPLAY
290
     0
  9
$INSUNITS
 70
     0
  9
$HYPERLINKBASE
  1

  9
$STYLESHEET
  1

  9
$XEDIT
290
     1
  9
$CEPSNTYPE
380
     0
  9
$PSTYLEMODE
290
     1
  9
$FINGERPRINTGUID
  2
{3B455B3E-2298-4260-AE6B-9AEDD6BF501F}
  9
$VERSIONGUID
  2
{C81F22A2-278C-4B86-B6A4-F9F3C99F88E0}
  9
$EXTNAMES
290
     1
  9
$PSVPSCALE
 40
0.0
  9
$OLESTARTUP
290
     0
  0
ENDSEC
  0
SECTION
  2
CLASSES
  0
CLASS
  1
ACDBDICTIONARYWDFLT
  2
AcDbDictionaryWithDefault
  3
AutoCAD 2000
 90
        0
280
     0
281
     0
  0
CLASS
  1
ACDBPLACEHOLDER
  2
AcDbPlaceHolder
  3
ObjectDBX Classes
 90
        0
280
     0
281
     0
  0
CLASS
  1
LAYOUT
  2
AcDbLayout
  3
ObjectDBX Classes
 90
        0
280
     0
281
     0
  0
CLASS
  1
DICTIONARYVAR
  2
AcDbDictionaryVar
  3
AutoCAD 2000
 90
        0
280
     0
281
     0
  0
CLASS
  1
TABLESTYLE
  2
AcDbTableStyle
  3
ObjectDBX Classes
 90
     2047
280
     1
281
     0
  0
ENDSEC
  0
SECTION
  2
TABLES
  0
TABLE
  2
VPORT
  5
19
330
0
100
AcDbSymbolTable
 70
     2
  0
VPORT
  5
28E
330
19
100
AcDbSymbolTableRecord
100
AcDbViewportTableRecord
  2
*Active
 70
     0
 10
0.0
 20
0.0
 11
1.0
 21
1.0
 12
6.517466835518761
 22
6.711522740830727
 13
0.0
 23
0.0
 14
0.063
 24
0.063
 15
0.25
 25
0.25
 16
0.0
 26
0.0
 36
1.0
 17
0.0
 27
0.0
 37
0.0
 40
17.78263199915597
 41
1.814583333333333
 42
50.0
 43
0.0
 44
0.0
 50
0.0
 51
0.0
 71
     0
 72
   100
 73
     1
 74
     1
 75
     0
 76
     0
 77
     0
 78
     0
281
     0
 65
     1
110
0.0
120
0.0
130
0.0
111
1.0
121
0.0
131
0.0
112
0.0
122
1.0
132
0.0
 79
     0
146
0.0
  0
ENDTAB
  0
TABLE
  2
LTYPE
  5
14
330
0
100
AcDbSymbolTable
 70
     1
  0
LTYPE
  5
15
330
14
100
AcDbSymbolTableRecord
100
AcDbLinetypeTableRecord
  2
ByBlock
 70
     0
  3

 72
    65
 73
     0
 40
0.0
  0
LTYPE
  5
16
330
14
100
AcDbSymbolTableRecord
100
AcDbLinetypeTableRecord
  2
ByLayer
 70
     0
  3

 72
    65
 73
     0
 40
0.0
  0
LTYPE
  5
8
330
14
100
AcDbSymbolTableRecord
100
AcDbLinetypeTableRecord
  2
CONTINUOUS
 70
     0
  3
Solid line
 72
    65
 73
     0
 40
0.0
  0
ENDTAB
  0
TABLE
  2
LAYER
  5
10
330
0
100
AcDbSymbolTable
 70
     2
  0
LAYER
  5
4
330
10
100
AcDbSymbolTableRecord
100
AcDbLayerTableRecord
  2
0
 70
     0
 62
     7
  6
CONTINUOUS
370
    -3
390
5
  0
ENDTAB
  0
TABLE
  2
STYLE
  5
11
330
0
100
AcDbSymbolTable
 70
     1
  0
STYLE
  5
12
330
11
100
AcDbSymbolTableRecord
100
AcDbTextStyleTableRecord
  2
STANDARD
 70
     0
 40
0.0
 41
1.0
 50
0.0
 71
     0
 42
0.149994
  3
TXT
  4

  0
ENDTAB
  0
TABLE
  2
VIEW
  5
17
330
0
100
AcDbSymbolTable
 70
     0
  0
ENDTAB
  0
TABLE
  2
UCS
  5
18
330
0
100
AcDbSymbolTable
 70
     0
  0
ENDTAB
  0
TABLE
  2
APPID
  5
1B
330
0
100
AcDbSymbolTable
 70
     1
  0
APPID
  5
1C
330
1B
100
AcDbSymbolTableRecord
100
AcDbRegAppTableRecord
  2
ACAD
 70
     0
  0
ENDTAB
  0
TABLE
  2
DIMSTYLE
  5
1D
330
0
100
AcDbSymbolTable
 70
     1
100
AcDbDimStyleTable
  0
DIMSTYLE
105
24
330
1D
100
AcDbSymbolTableRecord
100
AcDbDimStyleTableRecord
  2
Standard
 70
     0
  3

  4

340
12
  0
ENDTAB
  0
TABLE
  2
BLOCK_RECORD
  5
1
330
0
100
AcDbSymbolTable
 70
     0
  0
BLOCK_RECORD
  5
2
330
1
100
AcDbSymbolTableRecord
100
AcDbBlockTableRecord
  2
*Model_Space
340
A
  0
BLOCK_RECORD
  5
C
330
1
100
AcDbSymbolTableRecord
100
AcDbBlockTableRecord
  2
*Paper_Space
340
F
  0
ENDTAB
  0
ENDSEC
  0
SECTION
  2
BLOCKS
  0
BLOCK
  5
3
330
2
100
AcDbEntity
  8
0
100
AcDbBlockBegin
  2
*Model_Space
 70
     0
 10
0.0
 20
0.0
 30
0.0
  3
*Model_Space
  1

  4

  0
ENDBLK
  5
9
330
2
100
AcDbEntity
  8
0
100
AcDbBlockEnd
  0
BLOCK
  5
D
330
C
100
AcDbEntity
 67
     1
  8
0
100
AcDbBlockBegin
  2
*Paper_Space
 70
     0
 10
0.0
 20
0.0
 30
0.0
  3
*Paper_Space
  1

  4

  0
ENDBLK
  5
E
330
C
100
AcDbEntity
 67
     1
  8
0
100
AcDbBlockEnd
  0
ENDSEC
  0
SECTION
  2
ENTITIES
  0
LINE
  5
165
330
2
100
AcDbEntity
  8
0
100
AcDbLine
 10
0.9375
 20
2.003545569771616
 30
0.0
 11
0.7642688744749764
 21
1.830314444246591
 31
0.0
  0
LINE
  5
166
330
2
100
AcDbEntity
  8
0
100
AcDbLine
 10
0.9375
 20
2.003545569771616
 30
0.0
 11
0.7642688744749764
 21
2.176776695296637
 31
0.0
  0
LINE
  5
167
330
2
100
AcDbEntity
  8
0
100
AcDbLine
 10
0.9999999999999991
 20
4.0
 30
0.0
 11
-1.0
 21
4.0
 31
0.0
  0
LINE
  5
168
330
2
100
AcDbEntity
  8
0
100
AcDbLine
 10
0.875
 20
3.22577868587827
 30
0.0
 11
0.9375
 21
3.249999999999998
 31
0.0
  0
LINE
  5
169
330
2
100
AcDbEntity
  8
0
100
AcDbLine
 10
0.875
 20
3.774221314121727
 30
0.0
 11
0.9375
 21
3.749999999999998
 31
0.0
  0
LINE
  5
16A
330
2
100
AcDbEntity
  8
0
100
AcDbLine
 10
0.875
 20
2.35077868587827
 30
0.0
 11
0.9375
 21
2.374999999999998
 31
0.0
  0
LINE
  5
16B
330
2
100
AcDbEntity
  8
0
100
AcDbLine
 10
0.875
 20
2.899221314121727
 30
0.0
 11
0.9375
 21
2.874999999999998
 31
0.0
  0
LINE
  5
16C
330
2
100
AcDbEntity
  8
0
100
AcDbLine
 10
0.875
 20
1.10077868587827
 30
0.0
 11
0.9375
 21
1.124999999999998
 31
0.0
  0
LINE
  5
16D
330
2
100
AcDbEntity
  8
0
100
AcDbLine
 10
0.875
 20
1.649221314121727
 30
0.0
 11
0.9375
 21
1.624999999999998
 31
0.0
  0
LINE
  5
16E
330
2
100
AcDbEntity
  8
0
100
AcDbLine
 10
0.875
 20
0.7742213141217267
 30
0.0
 11
0.9375
 21
0.7499999999999982
 31
0.0
  0
LINE
  5
16F
330
2
100
AcDbEntity
  8
0
100
AcDbLine
 10
0.875
 20
0.2257786858782698
 30
0.0
 11
0.9375
 21
0.2499999999999982
 31
0.0
  0
LINE
  5
170
330
2
100
AcDbEntity
  8
0
100
AcDbLine
 10
1.0
 20
0.0
 30
0.0
 11
-1.0
 21
0.0
 31
0.0
  0
LINE
  5
171
330
2
100
AcDbEntity
  8
0
100
AcDbLine
 10
-0.375
 20
2.35077868587827
 30
0.0
 11
-0.3125
 21
2.374999999999998
 31
0.0
  0
LINE
  5
172
330
2
100
AcDbEntity
  8
0
100
AcDbLine
 10
-0.4375
 20
2.374999999999998
 30
0.0
 11
-0.375
 21
2.35077868587827
 31
0.0
  0
LINE
  5
173
330
2
100
AcDbEntity
  8
0
100
AcDbLine
 10
-0.875
 20
2.35077868587827
 30
0.0
 11
-0.8125
 21
2.374999999999998
 31
0.0
  0
LINE
  5
174
330
2
100
AcDbEntity
  8
0
100
AcDbLine
 10
-0.9375
 20
2.374999999999998
 30
0.0
 11
-0.875
 21
2.35077868587827
 31
0.0
  0
LINE
  5
175
330
2
100
AcDbEntity
  8
0
100
AcDbLine
 10
-0.6875
 20
2.374999999999998
 30
0.0
 11
-0.625
 21
2.35077868587827
 31
0.0
  0
LINE
  5
176
330
2
100
AcDbEntity
  8
0
100
AcDbLine
 10
-0.625
 20
2.35077868587827
 30
0.0
 11
-0.5625
 21
2.374999999999998
 31
0.0
  0
LINE
  5
177
330
2
100
AcDbEntity
  8
0
100
AcDbLine
 10
0.3125
 20
2.374999999999998
 30
0.0
 11
0.375
 21
2.35077868587827
 31
0.0
  0
LINE
  5
178
330
2
100
AcDbEntity
  8
0
100
AcDbLine
 10
0.375
 20
2.35077868587827
 30
0.0
 11
0.4375
 21
2.374999999999998
 31
0.0
  0
LINE
  5
179
330
2
100
AcDbEntity
  8
0
100
AcDbLine
 10
0.5625
 20
2.374999999999998
 30
0.0
 11
0.625
 21
2.35077868587827
 31
0.0
  0
LINE
  5
17A
330
2
100
AcDbEntity
  8
0
100
AcDbLine
 10
0.625
 20
2.35077868587827
 30
0.0
 11
0.6875
 21
2.374999999999998
 31
0.0
  0
LINE
  5
17B
330
2
100
AcDbEntity
  8
0
100
AcDbLine
 10
0.8125
 20
2.374999999999998
 30
0.0
 11
0.875
 21
2.35077868587827
 31
0.0
  0
LINE
  5
17C
330
2
100
AcDbEntity
  8
0
100
AcDbLine
 10
-1.0
 20
0.0
 30
0.0
 11
-1.000000000000001
 21
4.0
 31
0.0
  0
LINE
  5
17E
330
2
100
AcDbEntity
  8
0
100
AcDbLine
 10
-0.1875
 20
0.7499999999999982
 30
0.0
 11
-0.125
 21
0.7742213141217267
 31
0.0
  0
LINE
  5
17F
330
2
100
AcDbEntity
  8
0
100
AcDbLine
 10
-0.1875
 20
0.2499999999999982
 30
0.0
 11
-0.125
 21
0.2257786858782698
 31
0.0
  0
LINE
  5
180
330
2
100
AcDbEntity
  8
0
100
AcDbLine
 10
-0.6875
 20
0.7499999999999982
 30
0.0
 11
-0.625
 21
0.7742213141217267
 31
0.0
  0
LINE
  5
181
330
2
100
AcDbEntity
  8
0
100
AcDbLine
 10
-0.6875
 20
0.2499999999999982
 30
0.0
 11
-0.625
 21
0.2257786858782698
 31
0.0
  0
LINE
  5
182
330
2
100
AcDbEntity
  8
0
100
AcDbLine
 10
-0.6875
 20
0.2499999999999982
 30
0.0
 11
-0.6875
 21
0.7499999999999982
 31
0.0
  0
LINE
  5
183
330
2
100
AcDbEntity
  8
0
100
AcDbLine
 10
-0.8125
 20
0.2499999999999982
 30
0.0
 11
-0.8125
 21
0.7499999999999982
 31
0.0
  0
LINE
  5
184
330
2
100
AcDbEntity
  8
0
100
AcDbLine
 10
-0.9375
 20
0.2499999999999982
 30
0.0
 11
-0.9375
 21
0.7499999999999982
 31
0.0
  0
LINE
  5
185
330
2
100
AcDbEntity
  8
0
100
AcDbLine
 10
-0.9375
 20
0.2499999999999982
 30
0.0
 11
-0.875
 21
0.2257786858782698
 31
0.0
  0
LINE
  5
186
330
2
100
AcDbEntity
  8
0
100
AcDbLine
 10
-0.875
 20
0.2257786858782698
 30
0.0
 11
-0.8125
 21
0.2499999999999982
 31
0.0
  0
LINE
  5
187
330
2
100
AcDbEntity
  8
0
100
AcDbLine
 10
-0.9375
 20
0.7499999999999982
 30
0.0
 11
-0.875
 21
0.7742213141217267
 31
0.0
  0
LINE
  5
188
330
2
100
AcDbEntity
  8
0
100
AcDbLine
 10
-0.875
 20
0.7742213141217267
 30
0.0
 11
-0.8125
 21
0.7499999999999982
 31
0.0
  0
LINE
  5
189
330
2
100
AcDbEntity
  8
0
100
AcDbLine
 10
-0.1875
 20
0.2499999999999982
 30
0.0
 11
-0.1875
 21
0.7499999999999982
 31
0.0
  0
LINE
  5
18A
330
2
100
AcDbEntity
  8
0
100
AcDbLine
 10
-0.4375
 20
0.2499999999999982
 30
0.0
 11
-0.4375
 21
0.7499999999999982
 31
0.0
  0
LINE
  5
18B
330
2
100
AcDbEntity
  8
0
100
AcDbLine
 10
-0.3125
 20
0.2499999999999982
 30
0.0
 11
-0.3125
 21
0.7499999999999982
 31
0.0
  0
LINE
  5
18C
330
2
100
AcDbEntity
  8
0
100
AcDbLine
 10
-0.5625
 20
0.2499999999999982
 30
0.0
 11
-0.5625
 21
0.7499999999999982
 31
0.0
  0
LINE
  5
18D
330
2
100
AcDbEntity
  8
0
100
AcDbLine
 10
-0.4375
 20
0.2499999999999982
 30
0.0
 11
-0.375
 21
0.2257786858782698
 31
0.0
  0
LINE
  5
18E
330
2
100
AcDbEntity
  8
0
100
AcDbLine
 10
-0.625
 20
0.2257786858782698
 30
0.0
 11
-0.5625
 21
0.2499999999999982
 31
0.0
  0
LINE
  5
18F
330
2
100
AcDbEntity
  8
0
100
AcDbLine
 10
-0.375
 20
0.2257786858782698
 30
0.0
 11
-0.3125
 21
0.2499999999999982
 31
0.0
  0
LINE
  5
190
330
2
100
AcDbEntity
  8
0
100
AcDbLine
 10
-0.4375
 20
0.7499999999999982
 30
0.0
 11
-0.375
 21
0.7742213141217267
 31
0.0
  0
LINE
  5
191
330
2
100
AcDbEntity
  8
0
100
AcDbLine
 10
-0.625
 20
0.7742213141217267
 30
0.0
 11
-0.5625
 21
0.7499999999999982
 31
0.0
  0
LINE
  5
192
330
2
100
AcDbEntity
  8
0
100
AcDbLine
 10
-0.375
 20
0.7742213141217267
 30
0.0
 11
-0.3125
 21
0.7499999999999982
 31
0.0
  0
LINE
  5
193
330
2
100
AcDbEntity
  8
0
100
AcDbLine
 10
-0.6875
 20
1.124999999999998
 30
0.0
 11
-0.625
 21
1.10077868587827
 31
0.0
  0
LINE
  5
194
330
2
100
AcDbEntity
  8
0
100
AcDbLine
 10
-0.6875
 20
1.624999999999998
 30
0.0
 11
-0.625
 21
1.649221314121727
 31
0.0
  0
LINE
  5
195
330
2
100
AcDbEntity
  8
0
100
AcDbLine
 10
-0.9375
 20
1.624999999999998
 30
0.0
 11
-0.875
 21
1.649221314121727
 31
0.0
  0
LINE
  5
196
330
2
100
AcDbEntity
  8
0
100
AcDbLine
 10
-0.9375
 20
1.124999999999998
 30
0.0
 11
-0.875
 21
1.10077868587827
 31
0.0
  0
LINE
  5
197
330
2
100
AcDbEntity
  8
0
100
AcDbLine
 10
-0.9375
 20
1.124999999999998
 30
0.0
 11
-0.9375
 21
1.624999999999998
 31
0.0
  0
LINE
  5
198
330
2
100
AcDbEntity
  8
0
100
AcDbLine
 10
-0.8125
 20
1.124999999999998
 30
0.0
 11
-0.8125
 21
1.624999999999998
 31
0.0
  0
LINE
  5
199
330
2
100
AcDbEntity
  8
0
100
AcDbLine
 10
-0.6875
 20
1.124999999999998
 30
0.0
 11
-0.6875
 21
1.624999999999998
 31
0.0
  0
LINE
  5
19A
330
2
100
AcDbEntity
  8
0
100
AcDbLine
 10
-0.875
 20
1.10077868587827
 30
0.0
 11
-0.8125
 21
1.124999999999998
 31
0.0
  0
LINE
  5
19B
330
2
100
AcDbEntity
  8
0
100
AcDbLine
 10
-0.875
 20
1.649221314121727
 30
0.0
 11
-0.8125
 21
1.624999999999998
 31
0.0
  0
LINE
  5
19C
330
2
100
AcDbEntity
  8
0
100
AcDbLine
 10
-0.9375000000000009
 20
2.003545569771614
 30
0.0
 11
-0.764268874474979
 21
1.830314444246591
 31
0.0
  0
LINE
  5
19D
330
2
100
AcDbEntity
  8
0
100
AcDbLine
 10
-0.9375000000000009
 20
2.003545569771614
 30
0.0
 11
-0.764268874474979
 21
2.176776695296637
 31
0.0
  0
LINE
  5
19E
330
2
100
AcDbEntity
  8
0
100
AcDbLine
 10
-0.4375
 20
1.624999999999998
 30
0.0
 11
-0.375
 21
1.649221314121727
 31
0.0
  0
LINE
  5
19F
330
2
100
AcDbEntity
  8
0
100
AcDbLine
 10
-0.4375
 20
1.124999999999998
 30
0.0
 11
-0.375
 21
1.10077868587827
 31
0.0
  0
LINE
  5
1A0
330
2
100
AcDbEntity
  8
0
100
AcDbLine
 10
-0.4375
 20
1.124999999999998
 30
0.0
 11
-0.4375
 21
1.624999999999998
 31
0.0
  0
LINE
  5
1A1
330
2
100
AcDbEntity
  8
0
100
AcDbLine
 10
-0.5625
 20
1.124999999999998
 30
0.0
 11
-0.5625
 21
1.624999999999998
 31
0.0
  0
LINE
  5
1A2
330
2
100
AcDbEntity
  8
0
100
AcDbLine
 10
-0.625
 20
1.10077868587827
 30
0.0
 11
-0.5625
 21
1.124999999999998
 31
0.0
  0
LINE
  5
1A3
330
2
100
AcDbEntity
  8
0
100
AcDbLine
 10
-0.625
 20
1.649221314121727
 30
0.0
 11
-0.5625
 21
1.624999999999998
 31
0.0
  0
LINE
  5
1A4
330
2
100
AcDbEntity
  8
0
100
AcDbLine
 10
-0.3125
 20
1.124999999999998
 30
0.0
 11
-0.3125
 21
1.624999999999998
 31
0.0
  0
LINE
  5
1A5
330
2
100
AcDbEntity
  8
0
100
AcDbLine
 10
-0.375
 20
1.10077868587827
 30
0.0
 11
-0.3125
 21
1.124999999999998
 31
0.0
  0
LINE
  5
1A6
330
2
100
AcDbEntity
  8
0
100
AcDbLine
 10
-0.375
 20
1.649221314121727
 30
0.0
 11
-0.3125
 21
1.624999999999998
 31
0.0
  0
LINE
  5
1A7
330
2
100
AcDbEntity
  8
0
100
AcDbLine
 10
0.375
 20
0.7742213141217267
 30
0.0
 11
0.4375
 21
0.7499999999999982
 31
0.0
  0
LINE
  5
1A8
330
2
100
AcDbEntity
  8
0
100
AcDbLine
 10
0.375
 20
0.2257786858782698
 30
0.0
 11
0.4375
 21
0.2499999999999982
 31
0.0
  0
LINE
  5
1A9
330
2
100
AcDbEntity
  8
0
100
AcDbLine
 10
0.3125
 20
0.2499999999999982
 30
0.0
 11
0.3125
 21
0.7499999999999982
 31
0.0
  0
LINE
  5
1AA
330
2
100
AcDbEntity
  8
0
100
AcDbLine
 10
0.0625
 20
0.2499999999999982
 30
0.0
 11
0.0625
 21
0.7499999999999982
 31
0.0
  0
LINE
  5
1AB
330
2
100
AcDbEntity
  8
0
100
AcDbLine
 10
0.1875
 20
0.2499999999999982
 30
0.0
 11
0.1875
 21
0.7499999999999982
 31
0.0
  0
LINE
  5
1AC
330
2
100
AcDbEntity
  8
0
100
AcDbLine
 10
-0.0625
 20
0.2499999999999982
 30
0.0
 11
-0.0625
 21
0.7499999999999982
 31
0.0
  0
LINE
  5
1AD
330
2
100
AcDbEntity
  8
0
100
AcDbLine
 10
0.125
 20
0.2257786858782698
 30
0.0
 11
0.1875
 21
0.2499999999999982
 31
0.0
  0
LINE
  5
1AE
330
2
100
AcDbEntity
  8
0
100
AcDbLine
 10
-0.125
 20
0.2257786858782698
 30
0.0
 11
-0.0625
 21
0.2499999999999982
 31
0.0
  0
LINE
  5
1AF
330
2
100
AcDbEntity
  8
0
100
AcDbLine
 10
0.0625
 20
0.2499999999999982
 30
0.0
 11
0.125
 21
0.2257786858782698
 31
0.0
  0
LINE
  5
1B0
330
2
100
AcDbEntity
  8
0
100
AcDbLine
 10
0.3125
 20
0.2499999999999982
 30
0.0
 11
0.375
 21
0.2257786858782698
 31
0.0
  0
LINE
  5
1B1
330
2
100
AcDbEntity
  8
0
100
AcDbLine
 10
0.125
 20
0.7742213141217267
 30
0.0
 11
0.1875
 21
0.7499999999999982
 31
0.0
  0
LINE
  5
1B2
330
2
100
AcDbEntity
  8
0
100
AcDbLine
 10
-0.125
 20
0.7742213141217267
 30
0.0
 11
-0.0625
 21
0.7499999999999982
 31
0.0
  0
LINE
  5
1B3
330
2
100
AcDbEntity
  8
0
100
AcDbLine
 10
0.0625
 20
0.7499999999999982
 30
0.0
 11
0.125
 21
0.7742213141217267
 31
0.0
  0
LINE
  5
1B4
330
2
100
AcDbEntity
  8
0
100
AcDbLine
 10
0.3125
 20
0.7499999999999982
 30
0.0
 11
0.375
 21
0.7742213141217267
 31
0.0
  0
LINE
  5
1B5
330
2
100
AcDbEntity
  8
0
100
AcDbLine
 10
0.8125
 20
0.2499999999999982
 30
0.0
 11
0.8125
 21
0.7499999999999982
 31
0.0
  0
LINE
  5
1B6
330
2
100
AcDbEntity
  8
0
100
AcDbLine
 10
0.5625
 20
0.2499999999999982
 30
0.0
 11
0.5625
 21
0.7499999999999982
 31
0.0
  0
LINE
  5
1B7
330
2
100
AcDbEntity
  8
0
100
AcDbLine
 10
0.6875
 20
0.2499999999999982
 30
0.0
 11
0.6875
 21
0.7499999999999982
 31
0.0
  0
LINE
  5
1B8
330
2
100
AcDbEntity
  8
0
100
AcDbLine
 10
0.4375
 20
0.2499999999999982
 30
0.0
 11
0.4375
 21
0.7499999999999982
 31
0.0
  0
LINE
  5
1B9
330
2
100
AcDbEntity
  8
0
100
AcDbLine
 10
0.625
 20
0.2257786858782698
 30
0.0
 11
0.6875
 21
0.2499999999999982
 31
0.0
  0
LINE
  5
1BA
330
2
100
AcDbEntity
  8
0
100
AcDbLine
 10
0.5625
 20
0.2499999999999982
 30
0.0
 11
0.625
 21
0.2257786858782698
 31
0.0
  0
LINE
  5
1BB
330
2
100
AcDbEntity
  8
0
100
AcDbLine
 10
0.8125
 20
0.2499999999999982
 30
0.0
 11
0.875
 21
0.2257786858782698
 31
0.0
  0
LINE
  5
1BC
330
2
100
AcDbEntity
  8
0
100
AcDbLine
 10
0.625
 20
0.7742213141217267
 30
0.0
 11
0.6875
 21
0.7499999999999982
 31
0.0
  0
LINE
  5
1BD
330
2
100
AcDbEntity
  8
0
100
AcDbLine
 10
0.5625
 20
0.7499999999999982
 30
0.0
 11
0.625
 21
0.7742213141217267
 31
0.0
  0
LINE
  5
1BE
330
2
100
AcDbEntity
  8
0
100
AcDbLine
 10
0.8125
 20
0.7499999999999982
 30
0.0
 11
0.875
 21
0.7742213141217267
 31
0.0
  0
LINE
  5
1BF
330
2
100
AcDbEntity
  8
0
100
AcDbLine
 10
0.375
 20
1.10077868587827
 30
0.0
 11
0.4375
 21
1.124999999999998
 31
0.0
  0
LINE
  5
1C0
330
2
100
AcDbEntity
  8
0
100
AcDbLine
 10
0.375
 20
1.649221314121727
 30
0.0
 11
0.4375
 21
1.624999999999998
 31
0.0
  0
LINE
  5
1C1
330
2
100
AcDbEntity
  8
0
100
AcDbLine
 10
0.3125
 20
1.124999999999998
 30
0.0
 11
0.3125
 21
1.624999999999998
 31
0.0
  0
LINE
  5
1C2
330
2
100
AcDbEntity
  8
0
100
AcDbLine
 10
0.3125
 20
1.124999999999998
 30
0.0
 11
0.375
 21
1.10077868587827
 31
0.0
  0
LINE
  5
1C3
330
2
100
AcDbEntity
  8
0
100
AcDbLine
 10
0.3125
 20
1.624999999999998
 30
0.0
 11
0.375
 21
1.649221314121727
 31
0.0
  0
LINE
  5
1C4
330
2
100
AcDbEntity
  8
0
100
AcDbLine
 10
0.625
 20
1.10077868587827
 30
0.0
 11
0.6875
 21
1.124999999999998
 31
0.0
  0
LINE
  5
1C5
330
2
100
AcDbEntity
  8
0
100
AcDbLine
 10
0.625
 20
1.649221314121727
 30
0.0
 11
0.6875
 21
1.624999999999998
 31
0.0
  0
LINE
  5
1C6
330
2
100
AcDbEntity
  8
0
100
AcDbLine
 10
0.4375
 20
1.124999999999998
 30
0.0
 11
0.4375
 21
1.624999999999998
 31
0.0
  0
LINE
  5
1C7
330
2
100
AcDbEntity
  8
0
100
AcDbLine
 10
0.5625
 20
1.124999999999998
 30
0.0
 11
0.5625
 21
1.624999999999998
 31
0.0
  0
LINE
  5
1C8
330
2
100
AcDbEntity
  8
0
100
AcDbLine
 10
0.5625
 20
1.124999999999998
 30
0.0
 11
0.625
 21
1.10077868587827
 31
0.0
  0
LINE
  5
1C9
330
2
100
AcDbEntity
  8
0
100
AcDbLine
 10
0.5625
 20
1.624999999999998
 30
0.0
 11
0.625
 21
1.649221314121727
 31
0.0
  0
LINE
  5
1CA
330
2
100
AcDbEntity
  8
0
100
AcDbLine
 10
0.6875
 20
1.124999999999998
 30
0.0
 11
0.6875
 21
1.624999999999998
 31
0.0
  0
LINE
  5
1CB
330
2
100
AcDbEntity
  8
0
100
AcDbLine
 10
0.8125
 20
1.124999999999998
 30
0.0
 11
0.8125
 21
1.624999999999998
 31
0.0
  0
LINE
  5
1CC
330
2
100
AcDbEntity
  8
0
100
AcDbLine
 10
0.8125
 20
1.124999999999998
 30
0.0
 11
0.875
 21
1.10077868587827
 31
0.0
  0
LINE
  5
1CD
330
2
100
AcDbEntity
  8
0
100
AcDbLine
 10
0.8125
 20
1.624999999999998
 30
0.0
 11
0.875
 21
1.649221314121727
 31
0.0
  0
LINE
  5
1CE
330
2
100
AcDbEntity
  8
0
100
AcDbLine
 10
-0.1875
 20
3.249999999999998
 30
0.0
 11
-0.125
 21
3.22577868587827
 31
0.0
  0
LINE
  5
1CF
330
2
100
AcDbEntity
  8
0
100
AcDbLine
 10
-0.1875
 20
3.749999999999998
 30
0.0
 11
-0.125
 21
3.774221314121727
 31
0.0
  0
LINE
  5
1D0
330
2
100
AcDbEntity
  8
0
100
AcDbLine
 10
-0.9375
 20
3.249999999999998
 30
0.0
 11
-0.9375
 21
3.749999999999998
 31
0.0
  0
LINE
  5
1D1
330
2
100
AcDbEntity
  8
0
100
AcDbLine
 10
-0.8125
 20
3.249999999999998
 30
0.0
 11
-0.8125
 21
3.749999999999998
 31
0.0
  0
LINE
  5
1D2
330
2
100
AcDbEntity
  8
0
100
AcDbLine
 10
-0.5625
 20
3.249999999999998
 30
0.0
 11
-0.5625
 21
3.749999999999998
 31
0.0
  0
LINE
  5
1D3
330
2
100
AcDbEntity
  8
0
100
AcDbLine
 10
-0.6875
 20
3.249999999999998
 30
0.0
 11
-0.6875
 21
3.749999999999998
 31
0.0
  0
LINE
  5
1D4
330
2
100
AcDbEntity
  8
0
100
AcDbLine
 10
-0.3125
 20
3.249999999999998
 30
0.0
 11
-0.3125
 21
3.749999999999998
 31
0.0
  0
LINE
  5
1D5
330
2
100
AcDbEntity
  8
0
100
AcDbLine
 10
-0.4375
 20
3.249999999999998
 30
0.0
 11
-0.4375
 21
3.749999999999998
 31
0.0
  0
LINE
  5
1D6
330
2
100
AcDbEntity
  8
0
100
AcDbLine
 10
-0.1875
 20
3.249999999999998
 30
0.0
 11
-0.1875
 21
3.749999999999998
 31
0.0
  0
LINE
  5
1D7
330
2
100
AcDbEntity
  8
0
100
AcDbLine
 10
-0.6875
 20
3.249999999999998
 30
0.0
 11
-0.625
 21
3.22577868587827
 31
0.0
  0
LINE
  5
1D8
330
2
100
AcDbEntity
  8
0
100
AcDbLine
 10
-0.6875
 20
2.874999999999998
 30
0.0
 11
-0.625
 21
2.899221314121727
 31
0.0
  0
LINE
  5
1D9
330
2
100
AcDbEntity
  8
0
100
AcDbLine
 10
-0.9375
 20
2.874999999999998
 30
0.0
 11
-0.875
 21
2.899221314121727
 31
0.0
  0
LINE
  5
1DA
330
2
100
AcDbEntity
  8
0
100
AcDbLine
 10
-0.9375
 20
2.374999999999998
 30
0.0
 11
-0.9375
 21
2.874999999999998
 31
0.0
  0
LINE
  5
1DB
330
2
100
AcDbEntity
  8
0
100
AcDbLine
 10
-0.8125
 20
2.374999999999998
 30
0.0
 11
-0.8125
 21
2.874999999999998
 31
0.0
  0
LINE
  5
1DC
330
2
100
AcDbEntity
  8
0
100
AcDbLine
 10
-0.6875
 20
2.374999999999998
 30
0.0
 11
-0.6875
 21
2.874999999999998
 31
0.0
  0
LINE
  5
1DD
330
2
100
AcDbEntity
  8
0
100
AcDbLine
 10
-0.875
 20
2.899221314121727
 30
0.0
 11
-0.8125
 21
2.874999999999998
 31
0.0
  0
LINE
  5
1DE
330
2
100
AcDbEntity
  8
0
100
AcDbLine
 10
-0.9375
 20
3.249999999999998
 30
0.0
 11
-0.875
 21
3.22577868587827
 31
0.0
  0
LINE
  5
1DF
330
2
100
AcDbEntity
  8
0
100
AcDbLine
 10
-0.875
 20
3.22577868587827
 30
0.0
 11
-0.8125
 21
3.249999999999998
 31
0.0
  0
LINE
  5
1E0
330
2
100
AcDbEntity
  8
0
100
AcDbLine
 10
-0.4375
 20
2.874999999999998
 30
0.0
 11
-0.375
 21
2.899221314121727
 31
0.0
  0
LINE
  5
1E1
330
2
100
AcDbEntity
  8
0
100
AcDbLine
 10
-0.4375
 20
2.374999999999998
 30
0.0
 11
-0.4375
 21
2.874999999999998
 31
0.0
  0
LINE
  5
1E2
330
2
100
AcDbEntity
  8
0
100
AcDbLine
 10
-0.5625
 20
2.374999999999998
 30
0.0
 11
-0.5625
 21
2.874999999999998
 31
0.0
  0
LINE
  5
1E3
330
2
100
AcDbEntity
  8
0
100
AcDbLine
 10
-0.625
 20
2.899221314121727
 30
0.0
 11
-0.5625
 21
2.874999999999998
 31
0.0
  0
LINE
  5
1E4
330
2
100
AcDbEntity
  8
0
100
AcDbLine
 10
-0.3125
 20
2.374999999999998
 30
0.0
 11
-0.3125
 21
2.874999999999998
 31
0.0
  0
LINE
  5
1E5
330
2
100
AcDbEntity
  8
0
100
AcDbLine
 10
-0.375
 20
2.899221314121727
 30
0.0
 11
-0.3125
 21
2.874999999999998
 31
0.0
  0
LINE
  5
1E6
330
2
100
AcDbEntity
  8
0
100
AcDbLine
 10
-0.4375
 20
3.249999999999998
 30
0.0
 11
-0.375
 21
3.22577868587827
 31
0.0
  0
LINE
  5
1E7
330
2
100
AcDbEntity
  8
0
100
AcDbLine
 10
-0.625
 20
3.22577868587827
 30
0.0
 11
-0.5625
 21
3.249999999999998
 31
0.0
  0
LINE
  5
1E8
330
2
100
AcDbEntity
  8
0
100
AcDbLine
 10
-0.375
 20
3.22577868587827
 30
0.0
 11
-0.3125
 21
3.249999999999998
 31
0.0
  0
LINE
  5
1E9
330
2
100
AcDbEntity
  8
0
100
AcDbLine
 10
-0.6875
 20
3.749999999999998
 30
0.0
 11
-0.625
 21
3.774221314121727
 31
0.0
  0
LINE
  5
1EA
330
2
100
AcDbEntity
  8
0
100
AcDbLine
 10
-0.9375
 20
3.749999999999998
 30
0.0
 11
-0.875
 21
3.774221314121727
 31
0.0
  0
LINE
  5
1EB
330
2
100
AcDbEntity
  8
0
100
AcDbLine
 10
-0.875
 20
3.774221314121727
 30
0.0
 11
-0.8125
 21
3.749999999999998
 31
0.0
  0
LINE
  5
1EC
330
2
100
AcDbEntity
  8
0
100
AcDbLine
 10
-0.4375
 20
3.749999999999998
 30
0.0
 11
-0.375
 21
3.774221314121727
 31
0.0
  0
LINE
  5
1ED
330
2
100
AcDbEntity
  8
0
100
AcDbLine
 10
-0.625
 20
3.774221314121727
 30
0.0
 11
-0.5625
 21
3.749999999999998
 31
0.0
  0
LINE
  5
1EE
330
2
100
AcDbEntity
  8
0
100
AcDbLine
 10
-0.375
 20
3.774221314121727
 30
0.0
 11
-0.3125
 21
3.749999999999998
 31
0.0
  0
LINE
  5
1EF
330
2
100
AcDbEntity
  8
0
100
AcDbLine
 10
-0.0625
 20
3.249999999999998
 30
0.0
 11
-0.0625
 21
3.749999999999998
 31
0.0
  0
LINE
  5
1F0
330
2
100
AcDbEntity
  8
0
100
AcDbLine
 10
0.1875
 20
3.249999999999998
 30
0.0
 11
0.1875
 21
3.749999999999998
 31
0.0
  0
LINE
  5
1F1
330
2
100
AcDbEntity
  8
0
100
AcDbLine
 10
0.0625
 20
3.249999999999998
 30
0.0
 11
0.0625
 21
3.749999999999998
 31
0.0
  0
LINE
  5
1F2
330
2
100
AcDbEntity
  8
0
100
AcDbLine
 10
0.4375
 20
3.249999999999998
 30
0.0
 11
0.4375
 21
3.749999999999998
 31
0.0
  0
LINE
  5
1F3
330
2
100
AcDbEntity
  8
0
100
AcDbLine
 10
0.3125
 20
3.249999999999998
 30
0.0
 11
0.3125
 21
3.749999999999998
 31
0.0
  0
LINE
  5
1F4
330
2
100
AcDbEntity
  8
0
100
AcDbLine
 10
0.6875
 20
3.249999999999998
 30
0.0
 11
0.6875
 21
3.749999999999998
 31
0.0
  0
LINE
  5
1F5
330
2
100
AcDbEntity
  8
0
100
AcDbLine
 10
0.5625
 20
3.249999999999998
 30
0.0
 11
0.5625
 21
3.749999999999998
 31
0.0
  0
LINE
  5
1F6
330
2
100
AcDbEntity
  8
0
100
AcDbLine
 10
0.8125
 20
3.249999999999998
 30
0.0
 11
0.8125
 21
3.749999999999998
 31
0.0
  0
LINE
  5
1F7
330
2
100
AcDbEntity
  8
0
100
AcDbLine
 10
0.375
 20
3.22577868587827
 30
0.0
 11
0.4375
 21
3.249999999999998
 31
0.0
  0
LINE
  5
1F8
330
2
100
AcDbEntity
  8
0
100
AcDbLine
 10
0.375
 20
2.899221314121727
 30
0.0
 11
0.4375
 21
2.874999999999998
 31
0.0
  0
LINE
  5
1F9
330
2
100
AcDbEntity
  8
0
100
AcDbLine
 10
0.3125
 20
2.374999999999998
 30
0.0
 11
0.3125
 21
2.874999999999998
 31
0.0
  0
LINE
  5
1FA
330
2
100
AcDbEntity
  8
0
100
AcDbLine
 10
0.3125
 20
2.874999999999998
 30
0.0
 11
0.375
 21
2.899221314121727
 31
0.0
  0
LINE
  5
1FB
330
2
100
AcDbEntity
  8
0
100
AcDbLine
 10
0.125
 20
3.22577868587827
 30
0.0
 11
0.1875
 21
3.249999999999998
 31
0.0
  0
LINE
  5
1FC
330
2
100
AcDbEntity
  8
0
100
AcDbLine
 10
-0.125
 20
3.22577868587827
 30
0.0
 11
-0.0625
 21
3.249999999999998
 31
0.0
  0
LINE
  5
1FD
330
2
100
AcDbEntity
  8
0
100
AcDbLine
 10
0.0625
 20
3.249999999999998
 30
0.0
 11
0.125
 21
3.22577868587827
 31
0.0
  0
LINE
  5
1FE
330
2
100
AcDbEntity
  8
0
100
AcDbLine
 10
0.3125
 20
3.249999999999998
 30
0.0
 11
0.375
 21
3.22577868587827
 31
0.0
  0
LINE
  5
1FF
330
2
100
AcDbEntity
  8
0
100
AcDbLine
 10
0.625
 20
2.899221314121727
 30
0.0
 11
0.6875
 21
2.874999999999998
 31
0.0
  0
LINE
  5
200
330
2
100
AcDbEntity
  8
0
100
AcDbLine
 10
0.4375
 20
2.374999999999998
 30
0.0
 11
0.4375
 21
2.874999999999998
 31
0.0
  0
LINE
  5
201
330
2
100
AcDbEntity
  8
0
100
AcDbLine
 10
0.5625
 20
2.374999999999998
 30
0.0
 11
0.5625
 21
2.874999999999998
 31
0.0
  0
LINE
  5
202
330
2
100
AcDbEntity
  8
0
100
AcDbLine
 10
0.5625
 20
2.874999999999998
 30
0.0
 11
0.625
 21
2.899221314121727
 31
0.0
  0
LINE
  5
203
330
2
100
AcDbEntity
  8
0
100
AcDbLine
 10
0.6875
 20
2.374999999999998
 30
0.0
 11
0.6875
 21
2.874999999999998
 31
0.0
  0
LINE
  5
204
330
2
100
AcDbEntity
  8
0
100
AcDbLine
 10
0.8125
 20
2.374999999999998
 30
0.0
 11
0.8125
 21
2.874999999999998
 31
0.0
  0
LINE
  5
205
330
2
100
AcDbEntity
  8
0
100
AcDbLine
 10
0.8125
 20
2.874999999999998
 30
0.0
 11
0.875
 21
2.899221314121727
 31
0.0
  0
LINE
  5
206
330
2
100
AcDbEntity
  8
0
100
AcDbLine
 10
0.625
 20
3.22577868587827
 30
0.0
 11
0.6875
 21
3.249999999999998
 31
0.0
  0
LINE
  5
207
330
2
100
AcDbEntity
  8
0
100
AcDbLine
 10
0.5625
 20
3.249999999999998
 30
0.0
 11
0.625
 21
3.22577868587827
 31
0.0
  0
LINE
  5
208
330
2
100
AcDbEntity
  8
0
100
AcDbLine
 10
0.8125
 20
3.249999999999998
 30
0.0
 11
0.875
 21
3.22577868587827
 31
0.0
  0
LINE
  5
209
330
2
100
AcDbEntity
  8
0
100
AcDbLine
 10
0.375
 20
3.774221314121727
 30
0.0
 11
0.4375
 21
3.749999999999998
 31
0.0
  0
LINE
  5
20A
330
2
100
AcDbEntity
  8
0
100
AcDbLine
 10
0.125
 20
3.774221314121727
 30
0.0
 11
0.1875
 21
3.749999999999998
 31
0.0
  0
LINE
  5
20B
330
2
100
AcDbEntity
  8
0
100
AcDbLine
 10
-0.125
 20
3.774221314121727
 30
0.0
 11
-0.0625
 21
3.749999999999998
 31
0.0
  0
LINE
  5
20C
330
2
100
AcDbEntity
  8
0
100
AcDbLine
 10
0.0625
 20
3.749999999999998
 30
0.0
 11
0.125
 21
3.774221314121727
 31
0.0
  0
LINE
  5
20D
330
2
100
AcDbEntity
  8
0
100
AcDbLine
 10
0.3125
 20
3.749999999999998
 30
0.0
 11
0.375
 21
3.774221314121727
 31
0.0
  0
LINE
  5
20E
330
2
100
AcDbEntity
  8
0
100
AcDbLine
 10
0.625
 20
3.774221314121727
 30
0.0
 11
0.6875
 21
3.749999999999998
 31
0.0
  0
LINE
  5
20F
330
2
100
AcDbEntity
  8
0
100
AcDbLine
 10
0.5625
 20
3.749999999999998
 30
0.0
 11
0.625
 21
3.774221314121727
 31
0.0
  0
LINE
  5
210
330
2
100
AcDbEntity
  8
0
100
AcDbLine
 10
0.8125
 20
3.749999999999998
 30
0.0
 11
0.875
 21
3.774221314121727
 31
0.0
  0
LINE
  5
211
330
2
100
AcDbEntity
  8
0
100
AcDbLine
 10
1.0
 20
0.0
 30
0.0
 11
1.0
 21
4.0
 31
0.0
  0
LINE
  5
212
330
2
100
AcDbEntity
  8
0
100
AcDbLine
 10
0.9375
 20
0.2499999999999982
 30
0.0
 11
0.9375
 21
0.7499999999999982
 31
0.0
  0
LINE
  5
213
330
2
100
AcDbEntity
  8
0
100
AcDbLine
 10
0.9375
 20
1.124999999999998
 30
0.0
 11
0.9375
 21
1.624999999999998
 31
0.0
  0
LINE
  5
214
330
2
100
AcDbEntity
  8
0
100
AcDbLine
 10
0.9375
 20
3.249999999999998
 30
0.0
 11
0.9375
 21
3.749999999999998
 31
0.0
  0
LINE
  5
215
330
2
100
AcDbEntity
  8
0
100
AcDbLine
 10
0.9375
 20
2.374999999999998
 30
0.0
 11
0.9375
 21
2.874999999999998
 31
0.0
  0
LINE
  5
216
330
2
100
AcDbEntity
  8
0
100
AcDbLine
 10
4.768264961569734
 20
2.364362179350211
 30
0.0
 11
4.86272638452454
 21
2.349872038037468
 31
0.0
  0
LINE
  5
217
330
2
100
AcDbEntity
  8
0
100
AcDbLine
 10
4.519629164062944
 20
4.0
 30
0.0
 11
4.519629164062944
 21
0.0
 31
0.0
  0
LINE
  5
218
330
2
100
AcDbEntity
  8
0
100
AcDbLine
 10
4.484629164062944
 20
4.0
 30
0.0
 11
4.484629164062944
 21
0.0
 31
0.0
  0
LINE
  5
219
330
2
100
AcDbEntity
  8
0
100
AcDbLine
 10
4.544749095710214
 20
0.7756124902239403
 30
0.0
 11
4.860444037312029
 21
0.7925250693391757
 31
0.0
  0
LINE
  5
21A
330
2
100
AcDbEntity
  8
0
100
AcDbLine
 10
4.519629164062944
 20
0.8118930034275724
 30
0.0
 11
4.652902806559948
 21
0.8388152796553445
 31
0.0
  0
LINE
  5
21B
330
2
100
AcDbEntity
  8
0
100
AcDbLine
 10
4.519629164062944
 20
0.8319610296979718
 30
0.0
 11
4.64333994392858
 21
0.8571621792056678
 31
0.0
  0
LINE
  5
21C
330
2
100
AcDbEntity
  8
0
100
AcDbLine
 10
4.519629164062944
 20
0.755586647045174
 30
0.0
 11
4.66530408926332
 21
0.7514700181223812
 31
0.0
  0
LINE
  5
21D
330
2
100
AcDbEntity
  8
0
100
AcDbLine
 10
4.519629164062944
 20
0.2444133529548243
 30
0.0
 11
4.66530408926332
 21
0.2485299818776152
 31
0.0
  0
LINE
  5
21E
330
2
100
AcDbEntity
  8
0
100
AcDbLine
 10
4.519629164062944
 20
0.1680389703020264
 30
0.0
 11
4.64333994392858
 21
0.1428378207943286
 31
0.0
  0
LINE
  5
21F
330
2
100
AcDbEntity
  8
0
100
AcDbLine
 10
4.519629164062944
 20
0.1881069965724258
 30
0.0
 11
4.652902806559948
 21
0.1611847203446519
 31
0.0
  0
LINE
  5
220
330
2
100
AcDbEntity
  8
0
100
AcDbLine
 10
4.544749095710214
 20
0.2243875097760562
 30
0.0
 11
4.860444037312029
 21
0.2074749306608208
 31
0.0
  0
LINE
  5
221
330
2
100
AcDbEntity
  8
0
100
AcDbLine
 10
4.484629164062944
 20
0.0
 30
0.0
 11
4.519629164062944
 21
0.0
 31
0.0
  0
LINE
  5
222
330
2
100
AcDbEntity
  8
0
100
AcDbLine
 10
4.768264961569734
 20
0.2325367698081795
 30
0.0
 11
4.86272638452454
 21
0.2180466284954363
 31
0.0
  0
LINE
  5
223
330
2
100
AcDbEntity
  8
0
100
AcDbLine
 10
4.740168074970204
 20
0.1565096984754
 30
0.0
 11
4.844752051756252
 21
0.1708138095061482
 31
0.0
  0
LINE
  5
224
330
2
100
AcDbEntity
  8
0
100
AcDbLine
 10
4.607063320558553
 20
0.2024066043526851
 30
0.0
 11
4.790149275850664
 21
0.1925982251368037
 31
0.0
  0
LINE
  5
225
330
2
100
AcDbEntity
  8
0
100
AcDbLine
 10
4.66530408926332
 20
0.2485299818776152
 30
0.0
 11
4.768264961569734
 21
0.2325367698081795
 31
0.0
  0
LINE
  5
226
330
2
100
AcDbEntity
  8
0
100
AcDbLine
 10
4.64333994392858
 20
0.1428378207943286
 30
0.0
 11
4.74786795159464
 21
0.15609719654576
 31
0.0
  0
LINE
  5
227
330
2
100
AcDbEntity
  8
0
100
AcDbLine
 10
4.652902806559948
 20
0.1611847203446519
 30
0.0
 11
4.740168074970204
 21
0.1565096984754
 31
0.0
  0
LINE
  5
228
330
2
100
AcDbEntity
  8
0
100
AcDbLine
 10
4.86272638452454
 20
0.2180466284954363
 30
0.0
 11
4.907930986224675
 21
0.2048896627253303
 31
0.0
  0
LINE
  5
229
330
2
100
AcDbEntity
  8
0
100
AcDbLine
 10
4.844752051756252
 20
0.1708138095061482
 30
0.0
 11
4.907930986224675
 21
0.2048896627253303
 31
0.0
  0
LINE
  5
22A
330
2
100
AcDbEntity
  8
0
100
AcDbLine
 10
4.740168074970204
 20
0.8434903015245983
 30
0.0
 11
4.844752051756252
 21
0.82918619049385
 31
0.0
  0
LINE
  5
22B
330
2
100
AcDbEntity
  8
0
100
AcDbLine
 10
4.768264961569734
 20
0.767463230191817
 30
0.0
 11
4.86272638452454
 21
0.7819533715045619
 31
0.0
  0
LINE
  5
22C
330
2
100
AcDbEntity
  8
0
100
AcDbLine
 10
4.652902806559948
 20
0.8388152796553445
 30
0.0
 11
4.740168074970204
 21
0.8434903015245983
 31
0.0
  0
LINE
  5
22D
330
2
100
AcDbEntity
  8
0
100
AcDbLine
 10
4.64333994392858
 20
0.8571621792056678
 30
0.0
 11
4.74786795159464
 21
0.8439028034542364
 31
0.0
  0
LINE
  5
22E
330
2
100
AcDbEntity
  8
0
100
AcDbLine
 10
4.66530408926332
 20
0.7514700181223812
 30
0.0
 11
4.768264961569734
 21
0.767463230191817
 31
0.0
  0
LINE
  5
22F
330
2
100
AcDbEntity
  8
0
100
AcDbLine
 10
4.607063320558553
 20
0.7975933956473131
 30
0.0
 11
4.790149275850664
 21
0.8074017748631945
 31
0.0
  0
LINE
  5
230
330
2
100
AcDbEntity
  8
0
100
AcDbLine
 10
4.844752051756252
 20
0.82918619049385
 30
0.0
 11
4.907930986224675
 21
0.7951103372746662
 31
0.0
  0
LINE
  5
231
330
2
100
AcDbEntity
  8
0
100
AcDbLine
 10
4.86272638452454
 20
0.7819533715045619
 30
0.0
 11
4.907930986224675
 21
0.7951103372746662
 31
0.0
  0
LINE
  5
232
330
2
100
AcDbEntity
  8
0
100
AcDbLine
 10
4.544749095710214
 20
2.356212919318088
 30
0.0
 11
4.860444037312029
 21
2.339300340202852
 31
0.0
  0
LINE
  5
233
330
2
100
AcDbEntity
  8
0
100
AcDbLine
 10
4.519629164062944
 20
2.319932406114457
 30
0.0
 11
4.652902806559948
 21
2.293010129886683
 31
0.0
  0
LINE
  5
234
330
2
100
AcDbEntity
  8
0
100
AcDbLine
 10
4.519629164062944
 20
2.299864379844058
 30
0.0
 11
4.64333994392858
 21
2.27466323033636
 31
0.0
  0
LINE
  5
235
330
2
100
AcDbEntity
  8
0
100
AcDbLine
 10
4.544749095710214
 20
1.092562100234026
 30
0.0
 11
4.860444037312029
 21
1.075649521118791
 31
0.0
  0
LINE
  5
236
330
2
100
AcDbEntity
  8
0
100
AcDbLine
 10
4.519629164062944
 20
1.056281587030396
 30
0.0
 11
4.652902806559948
 21
1.029359310802622
 31
0.0
  0
LINE
  5
237
330
2
100
AcDbEntity
  8
0
100
AcDbLine
 10
4.519629164062944
 20
1.036213560759997
 30
0.0
 11
4.64333994392858
 21
1.011012411252299
 31
0.0
  0
LINE
  5
238
330
2
100
AcDbEntity
  8
0
100
AcDbLine
 10
4.519629164062944
 20
1.112587943412795
 30
0.0
 11
4.66530408926332
 21
1.116704572335586
 31
0.0
  0
LINE
  5
239
330
2
100
AcDbEntity
  8
0
100
AcDbLine
 10
4.519629164062944
 20
1.653055772956929
 30
0.0
 11
4.66530408926332
 21
1.648939144034136
 31
0.0
  0
LINE
  5
23A
330
2
100
AcDbEntity
  8
0
100
AcDbLine
 10
4.519629164062944
 20
1.729430155609727
 30
0.0
 11
4.64333994392858
 21
1.754631305117423
 31
0.0
  0
LINE
  5
23B
330
2
100
AcDbEntity
  8
0
100
AcDbLine
 10
4.519629164062944
 20
1.709362129339327
 30
0.0
 11
4.652902806559948
 21
1.736284405567099
 31
0.0
  0
LINE
  5
23C
330
2
100
AcDbEntity
  8
0
100
AcDbLine
 10
4.544749095710214
 20
1.673081616135695
 30
0.0
 11
4.860444037312029
 21
1.689994195250931
 31
0.0
  0
LINE
  5
23D
330
2
100
AcDbEntity
  8
0
100
AcDbLine
 10
4.768264961569734
 20
1.664932356103572
 30
0.0
 11
4.86272638452454
 21
1.679422497416317
 31
0.0
  0
LINE
  5
23E
330
2
100
AcDbEntity
  8
0
100
AcDbLine
 10
4.740168074970204
 20
1.02468428893337
 30
0.0
 11
4.844752051756252
 21
1.038988399964119
 31
0.0
  0
LINE
  5
23F
330
2
100
AcDbEntity
  8
0
100
AcDbLine
 10
4.768264961569734
 20
1.10071136026615
 30
0.0
 11
4.86272638452454
 21
1.086221218953407
 31
0.0
  0
LINE
  5
240
330
2
100
AcDbEntity
  8
0
100
AcDbLine
 10
4.652902806559948
 20
1.029359310802622
 30
0.0
 11
4.740168074970204
 21
1.02468428893337
 31
0.0
  0
LINE
  5
241
330
2
100
AcDbEntity
  8
0
100
AcDbLine
 10
4.64333994392858
 20
1.011012411252299
 30
0.0
 11
4.74786795159464
 21
1.02427178700373
 31
0.0
  0
LINE
  5
242
330
2
100
AcDbEntity
  8
0
100
AcDbLine
 10
4.66530408926332
 20
1.116704572335586
 30
0.0
 11
4.768264961569734
 21
1.10071136026615
 31
0.0
  0
LINE
  5
243
330
2
100
AcDbEntity
  8
0
100
AcDbLine
 10
4.607063320558553
 20
1.070581194810655
 30
0.0
 11
4.790149275850664
 21
1.060772815594774
 31
0.0
  0
LINE
  5
244
330
2
100
AcDbEntity
  8
0
100
AcDbLine
 10
4.66530408926332
 20
1.648939144034136
 30
0.0
 11
4.768264961569734
 21
1.664932356103572
 31
0.0
  0
LINE
  5
245
330
2
100
AcDbEntity
  8
0
100
AcDbLine
 10
4.844752051756252
 20
1.038988399964119
 30
0.0
 11
4.907930986224675
 21
1.073064253183301
 31
0.0
  0
LINE
  5
246
330
2
100
AcDbEntity
  8
0
100
AcDbLine
 10
4.86272638452454
 20
1.086221218953407
 30
0.0
 11
4.907930986224675
 21
1.073064253183301
 31
0.0
  0
LINE
  5
247
330
2
100
AcDbEntity
  8
0
100
AcDbLine
 10
4.740168074970204
 20
2.288335108017432
 30
0.0
 11
4.844752051756252
 21
2.30263921904818
 31
0.0
  0
LINE
  5
248
330
2
100
AcDbEntity
  8
0
100
AcDbLine
 10
4.740168074970204
 20
1.740959427436353
 30
0.0
 11
4.844752051756252
 21
1.726655316405605
 31
0.0
  0
LINE
  5
249
330
2
100
AcDbEntity
  8
0
100
AcDbLine
 10
4.607063320558553
 20
1.695062521559068
 30
0.0
 11
4.790149275850664
 21
1.704870900774949
 31
0.0
  0
LINE
  5
24A
330
2
100
AcDbEntity
  8
0
100
AcDbLine
 10
4.64333994392858
 20
1.754631305117423
 30
0.0
 11
4.74786795159464
 21
1.741371929365991
 31
0.0
  0
LINE
  5
24B
330
2
100
AcDbEntity
  8
0
100
AcDbLine
 10
4.652902806559948
 20
1.736284405567099
 30
0.0
 11
4.740168074970204
 21
1.740959427436353
 31
0.0
  0
LINE
  5
24C
330
2
100
AcDbEntity
  8
0
100
AcDbLine
 10
4.652902806559948
 20
2.293010129886683
 30
0.0
 11
4.740168074970204
 21
2.288335108017432
 31
0.0
  0
LINE
  5
24D
330
2
100
AcDbEntity
  8
0
100
AcDbLine
 10
4.64333994392858
 20
2.27466323033636
 30
0.0
 11
4.74786795159464
 21
2.287922606087792
 31
0.0
  0
LINE
  5
24E
330
2
100
AcDbEntity
  8
0
100
AcDbLine
 10
4.607063320558553
 20
2.334232013894717
 30
0.0
 11
4.790149275850664
 21
2.324423634678835
 31
0.0
  0
LINE
  5
24F
330
2
100
AcDbEntity
  8
0
100
AcDbLine
 10
4.86272638452454
 20
1.679422497416317
 30
0.0
 11
4.907930986224675
 21
1.692579463186421
 31
0.0
  0
LINE
  5
250
330
2
100
AcDbEntity
  8
0
100
AcDbLine
 10
4.844752051756252
 20
1.726655316405605
 30
0.0
 11
4.907930986224675
 21
1.692579463186421
 31
0.0
  0
LINE
  5
251
330
2
100
AcDbEntity
  8
0
100
AcDbLine
 10
4.844752051756252
 20
2.30263921904818
 30
0.0
 11
4.907930986224675
 21
2.336715072267362
 31
0.0
  0
LINE
  5
252
330
2
100
AcDbEntity
  8
0
100
AcDbLine
 10
4.86272638452454
 20
2.349872038037468
 30
0.0
 11
4.907930986224675
 21
2.336715072267362
 31
0.0
  0
LINE
  5
253
330
2
100
AcDbEntity
  8
0
100
AcDbLine
 10
4.544749095710214
 20
3.239034777502948
 30
0.0
 11
4.860444037312029
 21
3.222122198387712
 31
0.0
  0
LINE
  5
254
330
2
100
AcDbEntity
  8
0
100
AcDbLine
 10
4.519629164062944
 20
3.202754264299317
 30
0.0
 11
4.652902806559948
 21
3.175831988071543
 31
0.0
  0
LINE
  5
255
330
2
100
AcDbEntity
  8
0
100
AcDbLine
 10
4.519629164062944
 20
3.182686238028918
 30
0.0
 11
4.64333994392858
 21
3.15748508852122
 31
0.0
  0
LINE
  5
256
330
2
100
AcDbEntity
  8
0
100
AcDbLine
 10
4.519629164062944
 20
3.259060620681716
 30
0.0
 11
4.66530408926332
 21
3.263177249604507
 31
0.0
  0
LINE
  5
257
330
2
100
AcDbEntity
  8
0
100
AcDbLine
 10
4.519629164062944
 20
2.376238762496856
 30
0.0
 11
4.66530408926332
 21
2.380355391419647
 31
0.0
  0
LINE
  5
258
330
2
100
AcDbEntity
  8
0
100
AcDbLine
 10
4.519629164062944
 20
2.902059324314097
 30
0.0
 11
4.66530408926332
 21
2.897942695391304
 31
0.0
  0
LINE
  5
259
330
2
100
AcDbEntity
  8
0
100
AcDbLine
 10
4.519629164062944
 20
2.978433706966895
 30
0.0
 11
4.64333994392858
 21
3.003634856474591
 31
0.0
  0
LINE
  5
25A
330
2
100
AcDbEntity
  8
0
100
AcDbLine
 10
4.519629164062944
 20
2.958365680696495
 30
0.0
 11
4.652902806559948
 21
2.985287956924267
 31
0.0
  0
LINE
  5
25B
330
2
100
AcDbEntity
  8
0
100
AcDbLine
 10
4.544749095710214
 20
2.922085167492863
 30
0.0
 11
4.860444037312029
 21
2.938997746608099
 31
0.0
  0
LINE
  5
25C
330
2
100
AcDbEntity
  8
0
100
AcDbLine
 10
4.768264961569734
 20
2.91393590746074
 30
0.0
 11
4.86272638452454
 21
2.928426048773485
 31
0.0
  0
LINE
  5
25D
330
2
100
AcDbEntity
  8
0
100
AcDbLine
 10
4.740168074970204
 20
2.989962978793521
 30
0.0
 11
4.844752051756252
 21
2.975658867762773
 31
0.0
  0
LINE
  5
25E
330
2
100
AcDbEntity
  8
0
100
AcDbLine
 10
4.66530408926332
 20
2.380355391419647
 30
0.0
 11
4.768264961569734
 21
2.364362179350211
 31
0.0
  0
LINE
  5
25F
330
2
100
AcDbEntity
  8
0
100
AcDbLine
 10
4.607063320558553
 20
2.944066072916236
 30
0.0
 11
4.790149275850664
 21
2.953874452132117
 31
0.0
  0
LINE
  5
260
330
2
100
AcDbEntity
  8
0
100
AcDbLine
 10
4.66530408926332
 20
2.897942695391304
 30
0.0
 11
4.768264961569734
 21
2.91393590746074
 31
0.0
  0
LINE
  5
261
330
2
100
AcDbEntity
  8
0
100
AcDbLine
 10
4.64333994392858
 20
3.003634856474591
 30
0.0
 11
4.74786795159464
 21
2.990375480723159
 31
0.0
  0
LINE
  5
262
330
2
100
AcDbEntity
  8
0
100
AcDbLine
 10
4.652902806559948
 20
2.985287956924267
 30
0.0
 11
4.740168074970204
 21
2.989962978793521
 31
0.0
  0
LINE
  5
263
330
2
100
AcDbEntity
  8
0
100
AcDbLine
 10
4.86272638452454
 20
2.928426048773485
 30
0.0
 11
4.907930986224675
 21
2.941583014543589
 31
0.0
  0
LINE
  5
264
330
2
100
AcDbEntity
  8
0
100
AcDbLine
 10
4.844752051756252
 20
2.975658867762773
 30
0.0
 11
4.907930986224675
 21
2.941583014543589
 31
0.0
  0
LINE
  5
265
330
2
100
AcDbEntity
  8
0
100
AcDbLine
 10
4.740168074970204
 20
3.171156966202291
 30
0.0
 11
4.844752051756252
 21
3.18546107723304
 31
0.0
  0
LINE
  5
266
330
2
100
AcDbEntity
  8
0
100
AcDbLine
 10
4.768264961569734
 20
3.247184037535071
 30
0.0
 11
4.86272638452454
 21
3.232693896222328
 31
0.0
  0
LINE
  5
267
330
2
100
AcDbEntity
  8
0
100
AcDbLine
 10
4.652902806559948
 20
3.175831988071543
 30
0.0
 11
4.740168074970204
 21
3.171156966202291
 31
0.0
  0
LINE
  5
268
330
2
100
AcDbEntity
  8
0
100
AcDbLine
 10
4.64333994392858
 20
3.15748508852122
 30
0.0
 11
4.74786795159464
 21
3.170744464272651
 31
0.0
  0
LINE
  5
269
330
2
100
AcDbEntity
  8
0
100
AcDbLine
 10
4.66530408926332
 20
3.263177249604507
 30
0.0
 11
4.768264961569734
 21
3.247184037535071
 31
0.0
  0
LINE
  5
26A
330
2
100
AcDbEntity
  8
0
100
AcDbLine
 10
4.607063320558553
 20
3.217053872079577
 30
0.0
 11
4.790149275850664
 21
3.207245492863695
 31
0.0
  0
LINE
  5
26B
330
2
100
AcDbEntity
  8
0
100
AcDbLine
 10
4.844752051756252
 20
3.18546107723304
 30
0.0
 11
4.907930986224675
 21
3.219536930452222
 31
0.0
  0
LINE
  5
26C
330
2
100
AcDbEntity
  8
0
100
AcDbLine
 10
4.86272638452454
 20
3.232693896222328
 30
0.0
 11
4.907930986224675
 21
3.219536930452222
 31
0.0
  0
LINE
  5
26D
330
2
100
AcDbEntity
  8
0
100
AcDbLine
 10
4.519629164062944
 20
3.770233914772065
 30
0.0
 11
4.66530408926332
 21
3.766117285849273
 31
0.0
  0
LINE
  5
26E
330
2
100
AcDbEntity
  8
0
100
AcDbLine
 10
4.519629164062944
 20
3.846608297424863
 30
0.0
 11
4.64333994392858
 21
3.871809446932559
 31
0.0
  0
LINE
  5
26F
330
2
100
AcDbEntity
  8
0
100
AcDbLine
 10
4.519629164062944
 20
3.826540271154464
 30
0.0
 11
4.652902806559948
 21
3.853462547382236
 31
0.0
  0
LINE
  5
270
330
2
100
AcDbEntity
  8
0
100
AcDbLine
 10
4.544749095710214
 20
3.790259757950832
 30
0.0
 11
4.860444037312029
 21
3.807172337066067
 31
0.0
  0
LINE
  5
271
330
2
100
AcDbEntity
  8
0
100
AcDbLine
 10
4.484629164062944
 20
4.0
 30
0.0
 11
4.519629164062944
 21
4.0
 31
0.0
  0
LINE
  5
272
330
2
100
AcDbEntity
  8
0
100
AcDbLine
 10
4.768264961569734
 20
3.782110497918708
 30
0.0
 11
4.86272638452454
 21
3.796600639231453
 31
0.0
  0
LINE
  5
273
330
2
100
AcDbEntity
  8
0
100
AcDbLine
 10
4.740168074970204
 20
3.85813756925149
 30
0.0
 11
4.844752051756252
 21
3.843833458220741
 31
0.0
  0
LINE
  5
274
330
2
100
AcDbEntity
  8
0
100
AcDbLine
 10
4.607063320558553
 20
3.812240663374205
 30
0.0
 11
4.790149275850664
 21
3.822049042590086
 31
0.0
  0
LINE
  5
275
330
2
100
AcDbEntity
  8
0
100
AcDbLine
 10
4.66530408926332
 20
3.766117285849273
 30
0.0
 11
4.768264961569734
 21
3.782110497918708
 31
0.0
  0
LINE
  5
276
330
2
100
AcDbEntity
  8
0
100
AcDbLine
 10
4.64333994392858
 20
3.871809446932559
 30
0.0
 11
4.74786795159464
 21
3.858550071181128
 31
0.0
  0
LINE
  5
277
330
2
100
AcDbEntity
  8
0
100
AcDbLine
 10
4.652902806559948
 20
3.853462547382236
 30
0.0
 11
4.740168074970204
 21
3.85813756925149
 31
0.0
  0
LINE
  5
278
330
2
100
AcDbEntity
  8
0
100
AcDbLine
 10
4.86272638452454
 20
3.796600639231453
 30
0.0
 11
4.907930986224675
 21
3.809757605001558
 31
0.0
  0
LINE
  5
279
330
2
100
AcDbEntity
  8
0
100
AcDbLine
 10
4.844752051756252
 20
3.843833458220741
 30
0.0
 11
4.907930986224675
 21
3.809757605001558
 31
0.0
  0
ENDSEC
  0
SECTION
  2
OBJECTS
  0
DICTIONARY
  5
7
330
0
100
AcDbDictionary
281
     1
  3
ACAD_COLOR
350
289
  3
ACAD_GROUP
350
1F
  3
ACAD_LAYOUT
350
B
  3
ACAD_MATERIAL
350
288
  3
ACAD_MLINESTYLE
350
20
  3
ACAD_PLOTSETTINGS
350
21
  3
ACAD_PLOTSTYLENAME
350
6
  3
ACAD_TABLESTYLE
350
28A
  3
ACDBHEADERROUNDTRIPXREC
350
296
  3
AcDbVariableDictionary
350
15B
  0
DICTIONARY
  5
289
102
{ACAD_REACTORS
330
7
102
}
330
7
100
AcDbDictionary
281
     1
  0
DICTIONARY
  5
1F
102
{ACAD_REACTORS
330
7
102
}
330
7
100
AcDbDictionary
281
     1
  0
DICTIONARY
  5
B
102
{ACAD_REACTORS
330
7
102
}
330
7
100
AcDbDictionary
281
     1
  3
Layout1
350
F
  3
Model
350
A
  0
DICTIONARY
  5
288
102
{ACAD_REACTORS
330
7
102
}
330
7
100
AcDbDictionary
281
     1
  0
DICTIONARY
  5
20
102
{ACAD_REACTORS
330
7
102
}
330
7
100
AcDbDictionary
281
     1
  3
Standard
350
23
  0
DICTIONARY
  5
21
102
{ACAD_REACTORS
330
7
102
}
330
7
100
AcDbDictionary
281
     1
  0
ACDBDICTIONARYWDFLT
  5
6
102
{ACAD_REACTORS
330
7
102
}
330
7
100
AcDbDictionary
281
     1
  3
Normal
350
5
100
AcDbDictionaryWithDefault
340
5
  0
DICTIONARY
  5
28A
102
{ACAD_REACTORS
330
7
102
}
330
7
100
AcDbDictionary
281
     1
  3
Standard
350
28B
  0
DICTIONARY
  5
296
102
{ACAD_REACTORS
330
7
102
}
330
7
100
AcDbDictionary
281
     1
  3
COLORDICT
350
297
  3
MATERIALDICT
350
298
  0
DICTIONARY
  5
15B
102
{ACAD_REACTORS
330
7
102
}
330
7
100
AcDbDictionary
281
     1
  3
CTABLESTYLE
350
294
  3
DIMASSOC
350
15D
  3
HIDETEXT
350
15C
  0
LAYOUT
  5
F
102
{ACAD_REACTORS
330
B
102
}
102
{ACAD_XDICTIONARY
360
299
102
}
330
B
100
AcDbPlotSettings
  1

  2
X:\Program Files\AutoCAD2002\plotters\DWF ePlot (optimized for plotting).pc3
  4

  6

 40
0.0
 41
0.0
 42
0.0
 43
0.0
 44
0.0
 45
0.0
 46
0.0
 47
0.0
 48
0.0
 49
0.0
140
0.0
141
0.0
142
1.0
143
1.0
 70
   688
 72
     0
 73
     0
 74
     5
  7

 75
    16
147
1.0
148
0.0
149
0.0
100
AcDbLayout
  1
Layout1
 70
     0
 71
     1
 10
0.0
 20
0.0
 11
12.0
 21
9.0
 12
0.0
 22
0.0
 32
0.0
 14
1.000000000000000E+20
 24
1.000000000000000E+20
 34
1.000000000000000E+20
 15
-1.000000000000000E+20
 25
-1.000000000000000E+20
 35
-1.000000000000000E+20
146
0.0
 13
0.0
 23
0.0
 33
0.0
 16
1.0
 26
0.0
 36
0.0
 17
0.0
 27
1.0
 37
0.0
 76
     0
330
C
  0
LAYOUT
  5
A
102
{ACAD_REACTORS
330
B
102
}
102
{ACAD_XDICTIONARY
360
29B
102
}
330
B
100
AcDbPlotSettings
  1

  2
X:\Program Files\AutoCAD2002\plotters\DWF ePlot (optimized for plotting).pc3
  4

  6

 40
0.0
 41
0.0
 42
0.0
 43
0.0
 44
0.0
 45
0.0
 46
0.0
 47
0.0
 48
0.0
 49
0.0
140
0.0
141
0.0
142
1.0
143
1.0
 70
  1712
 72
     0
 73
     0
 74
     0
  7

 75
     0
147
1.0
148
0.0
149
0.0
100
AcDbLayout
  1
Model
 70
     1
 71
     0
 10
0.0
 20
0.0
 11
12.0
 21
9.0
 12
0.0
 22
0.0
 32
0.0
 14
0.0
 24
0.0
 34
0.0
 15
0.0
 25
0.0
 35
0.0
146
0.0
 13
0.0
 23
0.0
 33
0.0
 16
1.0
 26
0.0
 36
0.0
 17
0.0
 27
1.0
 37
0.0
 76
     0
330
2
  0
MLINESTYLE
  5
23
102
{ACAD_REACTORS
330
20
102
}
330
20
100
AcDbMlineStyle
  2
STANDARD
 70
     0
  3

 62
   256
 51
90.0
 52
90.0
 71
     2
 49
0.5
 62
   256
  6
BYLAYER
 49
-0.5
 62
   256
  6
BYLAYER
  0
ACDBPLACEHOLDER
  5
5
102
{ACAD_REACTORS
330
6
102
}
330
6
  0
ACAD_PROXY_OBJECT
  5
28B
102
{ACAD_REACTORS
330
28A
102
}
330
28A
100
AcDbProxyObject
 90
      499
 91
      504
 95
   983063
 70
     0
 93
     1841
310
4214DD185B99185C9928B81E85EB51B8AE3F2E07A17AD46E2B8FC02B5E8DC0F42B1CFD028000000C1008070000C3001FDFF8000000C1003FBFF000000182007F7FE00000030400FEFFC00000060801FDFF8000000C1003FBFF00000018200000000000000681FA0B0000001820100E000186003FBFF000000182007F7FE000
310
00030400FEFFC00000060801FDFF8000000C1003FBFF000000182007F7FE000000304000AD7A3703D0AC73F4160000003040201C00030C007F7FE00000030400FEFFC00000060801FDFF8000000C1003FBFF000000182007F7FE00000030400FEFFC000000608000
340
12
340
12
340
12
 94
        0
  0
XRECORD
  5
297
102
{ACAD_REACTORS
330
296
102
}
330
296
100
AcDbXrecord
340
289
  0
XRECORD
  5
298
102
{ACAD_REACTORS
330
296
102
}
330
296
100
AcDbXrecord
340
288
  0
DICTIONARYVAR
  5
294
102
{ACAD_REACTORS
330
15B
102
}
330
15B
100
DictionaryVariables
280
     0
  1
STANDARD
  0
DICTIONARYVAR
  5
15D
102
{ACAD_REACTORS
330
15B
102
}
330
15B
100
DictionaryVariables
280
     0
  1
2
  0
DICTIONARYVAR
  5
15C
102
{ACAD_REACTORS
330
15B
102
}
330
15B
100
DictionaryVariables
280
     0
  1
1
  0
DICTIONARY
  5
299
330
F
100
AcDbDictionary
280
     1
281
     1
  3
ACAD_XREC_ROUNDTRIP
360
29A
  0
DICTIONARY
  5
29B
330
A
100
AcDbDictionary
280
     1
281
     1
  3
ACAD_XREC_ROUNDTRIP
360
29C
  0
XRECORD
  5
29A
102
{ACAD_REACTORS
330
299
102
}
330
299
100
AcDbXrecord
102
SHADEPLOT
 70
     0
102
SHADEPLOTRESLEVEL
 70
     2
102
SHADEPLOTCUSTOMDPI
 70
   300
  0
XRECORD
  5
29C
102
{ACAD_REACTORS
330
29B
102
}
330
29B
100
AcDbXrecord
102
SHADEPLOT
 70
     0
102
SHADEPLOTRESLEVEL
 70
     2
102
SHADEPLOTCUSTOMDPI
 70
   300
  0
ENDSEC
  0
EOF
