  0
SECTION
  2
HEADER
  9
$ACADVER
  1
AC1015
  9
$ACADMAINTVER
 70
     6
  9
$DWGCODEPAGE
  3
ANSI_1252
  9
$INSBASE
 10
0.0
 20
0.0
 30
0.0
  9
$EXTMIN
 10
-1.5
 20
0.0
 30
0.0
  9
$EXTMAX
 10
5.813535478091755
 20
5.999999999999998
 30
0.0
  9
$LIMMIN
 10
0.0
 20
0.0
  9
$LIMMAX
 10
13.3328
 20
17.4993
  9
$ORTHOMODE
 70
     1
  9
$REGENMODE
 70
     1
  9
$FILLMODE
 70
     1
  9
$QTEXTMODE
 70
     0
  9
$MIRRTEXT
 70
     0
  9
$LTSCALE
 40
0.5
  9
$ATTMODE
 70
     1
  9
$TEXTSIZE
 40
0.149994
  9
$TRACEWID
 40
0.05
  9
$TEXTSTYLE
  7
STANDARD
  9
$CLAYER
  8
0
  9
$CELTYPE
  6
ByLayer
  9
$CECOLOR
 62
   256
  9
$CELTSCALE
 40
1.0
  9
$DISPSILH
 70
     0
  9
$DIMSCALE
 40
1.6666
  9
$DIMASZ
 40
0.125
  9
$DIMEXO
 40
0.062
  9
$DIMDLI
 40
0.375
  9
$DIMRND
 40
0.0
  9
$DIMDLE
 40
0.0
  9
$DIMEXE
 40
0.08
  9
$DIMTP
 40
0.0
  9
$DIMTM
 40
0.0
  9
$DIMTXT
 40
0.09
  9
$DIMCEN
 40
-0.06
  9
$DIMTSZ
 40
0.0
  9
$DIMTOL
 70
     0
  9
$DIMLIM
 70
     0
  9
$DIMTIH
 70
     1
  9
$DIMTOH
 70
     1
  9
$DIMSE1
 70
     0
  9
$DIMSE2
 70
     0
  9
$DIMTAD
 70
     0
  9
$DIMZIN
 70
     0
  9
$DIMBLK
  1

  9
$DIMASO
 70
     0
  9
$DIMSHO
 70
     0
  9
$DIMPOST
  1

  9
$DIMAPOST
  1

  9
$DIMALT
 70
     0
  9
$DIMALTD
 70
     2
  9
$DIMALTF
 40
25.4
  9
$DIMLFAC
 40
1.0
  9
$DIMTOFL
 70
     0
  9
$DIMTVP
 40
0.0
  9
$DIMTIX
 70
     0
  9
$DIMSOXD
 70
     0
  9
$DIMSAH
 70
     0
  9
$DIMBLK1
  1

  9
$DIMBLK2
  1

  9
$DIMSTYLE
  2
Standard
  9
$DIMCLRD
 70
     0
  9
$DIMCLRE
 70
     0
  9
$DIMCLRT
 70
     0
  9
$DIMTFAC
 40
1.0
  9
$DIMGAP
 40
0.09
  9
$DIMJUST
 70
     0
  9
$DIMSD1
 70
     0
  9
$DIMSD2
 70
     0
  9
$DIMTOLJ
 70
     1
  9
$DIMTZIN
 70
     0
  9
$DIMALTZ
 70
     0
  9
$DIMALTTZ
 70
     0
  9
$DIMUPT
 70
     0
  9
$DIMDEC
 70
     4
  9
$DIMTDEC
 70
     4
  9
$DIMALTU
 70
     5
  9
$DIMALTTD
 70
     2
  9
$DIMTXSTY
  7
STANDARD
  9
$DIMAUNIT
 70
     0
  9
$DIMADEC
 70
     0
  9
$DIMALTRND
 40
0.0
  9
$DIMAZIN
 70
     0
  9
$DIMDSEP
 70
    46
  9
$DIMATFIT
 70
     3
  9
$DIMFRAC
 70
     0
  9
$DIMLDRBLK
  1

  9
$DIMLUNIT
 70
     5
  9
$DIMLWD
 70
    -2
  9
$DIMLWE
 70
    -2
  9
$DIMTMOVE
 70
     2
  9
$LUNITS
 70
     5
  9
$LUPREC
 70
     4
  9
$SKETCHINC
 40
0.1
  9
$FILLETRAD
 40
0.0
  9
$AUNITS
 70
     0
  9
$AUPREC
 70
     0
  9
$MENU
  1
simpson
  9
$ELEVATION
 40
0.0
  9
$PELEVATION
 40
0.0
  9
$THICKNESS
 40
0.0
  9
$LIMCHECK
 70
     0
  9
$CHAMFERA
 40
0.0
  9
$CHAMFERB
 40
0.0
  9
$CHAMFERC
 40
0.0
  9
$CHAMFERD
 40
0.0
  9
$SKPOLY
 70
     0
  9
$TDCREATE
 40
2449210.986941088
  9
$TDUCREATE
 40
2449211.320274422
  9
$TDUPDATE
 40
2454176.720654977
  9
$TDUUPDATE
 40
2454177.05398831
  9
$TDINDWG
 40
0.0169429282
  9
$TDUSRTIMER
 40
0.0169429282
  9
$USRTIMER
 70
     1
  9
$ANGBASE
 50
0.0
  9
$ANGDIR
 70
     0
  9
$PDMODE
 70
     0
  9
$PDSIZE
 40
0.0
  9
$PLINEWID
 40
0.0
  9
$SPLFRAME
 70
     0
  9
$SPLINETYPE
 70
     6
  9
$SPLINESEGS
 70
     8
  9
$HANDSEED
  5
4D1
  9
$SURFTAB1
 70
     6
  9
$SURFTAB2
 70
     6
  9
$SURFTYPE
 70
     6
  9
$SURFU
 70
     6
  9
$SURFV
 70
     6
  9
$UCSBASE
  2

  9
$UCSNAME
  2

  9
$UCSORG
 10
0.0
 20
0.0
 30
0.0
  9
$UCSXDIR
 10
1.0
 20
0.0
 30
0.0
  9
$UCSYDIR
 10
0.0
 20
1.0
 30
0.0
  9
$UCSORTHOREF
  2

  9
$UCSORTHOVIEW
 70
     0
  9
$UCSORGTOP
 10
0.0
 20
0.0
 30
0.0
  9
$UCSORGBOTTOM
 10
0.0
 20
0.0
 30
0.0
  9
$UCSORGLEFT
 10
0.0
 20
0.0
 30
0.0
  9
$UCSORGRIGHT
 10
0.0
 20
0.0
 30
0.0
  9
$UCSORGFRONT
 10
0.0
 20
0.0
 30
0.0
  9
$UCSORGBACK
 10
0.0
 20
0.0
 30
0.0
  9
$PUCSBASE
  2

  9
$PUCSNAME
  2

  9
$PUCSORG
 10
0.0
 20
0.0
 30
0.0
  9
$PUCSXDIR
 10
1.0
 20
0.0
 30
0.0
  9
$PUCSYDIR
 10
0.0
 20
1.0
 30
0.0
  9
$PUCSORTHOREF
  2

  9
$PUCSORTHOVIEW
 70
     0
  9
$PUCSORGTOP
 10
0.0
 20
0.0
 30
0.0
  9
$PUCSORGBOTTOM
 10
0.0
 20
0.0
 30
0.0
  9
$PUCSORGLEFT
 10
0.0
 20
0.0
 30
0.0
  9
$PUCSORGRIGHT
 10
0.0
 20
0.0
 30
0.0
  9
$PUCSORGFRONT
 10
0.0
 20
0.0
 30
0.0
  9
$PUCSORGBACK
 10
0.0
 20
0.0
 30
0.0
  9
$USERI1
 70
     0
  9
$USERI2
 70
     0
  9
$USERI3
 70
     0
  9
$USERI4
 70
     0
  9
$USERI5
 70
     0
  9
$USERR1
 40
0.0
  9
$USERR2
 40
0.0
  9
$USERR3
 40
0.0
  9
$USERR4
 40
0.0
  9
$USERR5
 40
0.0
  9
$WORLDVIEW
 70
     1
  9
$SHADEDGE
 70
     3
  9
$SHADEDIF
 70
    70
  9
$TILEMODE
 70
     1
  9
$MAXACTVP
 70
    16
  9
$PINSBASE
 10
0.0
 20
0.0
 30
0.0
  9
$PLIMCHECK
 70
     0
  9
$PEXTMIN
 10
1.000000000000000E+20
 20
1.000000000000000E+20
 30
1.000000000000000E+20
  9
$PEXTMAX
 10
-1.000000000000000E+20
 20
-1.000000000000000E+20
 30
-1.000000000000000E+20
  9
$PLIMMIN
 10
0.0
 20
0.0
  9
$PLIMMAX
 10
12.0
 20
9.0
  9
$UNITMODE
 70
     0
  9
$VISRETAIN
 70
     0
  9
$PLINEGEN
 70
     0
  9
$PSLTSCALE
 70
     0
  9
$TREEDEPTH
 70
  3020
  9
$CMLSTYLE
  2
Standard
  9
$CMLJUST
 70
     0
  9
$CMLSCALE
 40
1.0
  9
$PROXYGRAPHICS
 70
     1
  9
$MEASUREMENT
 70
     0
  9
$CELWEIGHT
370
    -1
  9
$ENDCAPS
280
     0
  9
$JOINSTYLE
280
     0
  9
$LWDISPLAY
290
     0
  9
$INSUNITS
 70
     0
  9
$HYPERLINKBASE
  1

  9
$STYLESHEET
  1

  9
$XEDIT
290
     1
  9
$CEPSNTYPE
380
     0
  9
$PSTYLEMODE
290
     1
  9
$FINGERPRINTGUID
  2
{CC9E9932-E59E-4F88-B95A-C2B62AAB5B35}
  9
$VERSIONGUID
  2
{3919FC37-F88C-4F82-AF9B-229B15833FB7}
  9
$EXTNAMES
290
     1
  9
$PSVPSCALE
 40
0.0
  9
$OLESTARTUP
290
     0
  0
ENDSEC
  0
SECTION
  2
CLASSES
  0
CLASS
  1
ACDBDICTIONARYWDFLT
  2
AcDbDictionaryWithDefault
  3
AutoCAD 2000
 90
        0
280
     0
281
     0
  0
CLASS
  1
ACDBPLACEHOLDER
  2
AcDbPlaceHolder
  3
ObjectDBX Classes
 90
        0
280
     0
281
     0
  0
CLASS
  1
LAYOUT
  2
AcDbLayout
  3
ObjectDBX Classes
 90
        0
280
     0
281
     0
  0
CLASS
  1
DICTIONARYVAR
  2
AcDbDictionaryVar
  3
AutoCAD 2000
 90
        0
280
     0
281
     0
  0
CLASS
  1
TABLESTYLE
  2
AcDbTableStyle
  3
ObjectDBX Classes
 90
     2047
280
     1
281
     0
  0
ENDSEC
  0
SECTION
  2
TABLES
  0
TABLE
  2
VPORT
  5
19
330
0
100
AcDbSymbolTable
 70
     3
  0
VPORT
  5
4C4
330
19
100
AcDbSymbolTableRecord
100
AcDbViewportTableRecord
  2
*Active
 70
     0
 10
0.0
 20
0.0
 11
1.0
 21
1.0
 12
5.916002785643936
 22
7.525932996232182
 13
0.0
 23
0.0
 14
0.063
 24
0.063
 15
0.25
 25
0.25
 16
0.0
 26
0.0
 36
1.0
 17
0.0
 27
0.0
 37
0.0
 40
18.86766298011353
 41
1.814583333333333
 42
50.0
 43
0.0
 44
0.0
 50
0.0
 51
0.0
 71
     0
 72
   100
 73
     1
 74
     1
 75
     0
 76
     0
 77
     0
 78
     0
281
     0
 65
     1
110
0.0
120
0.0
130
0.0
111
1.0
121
0.0
131
0.0
112
0.0
122
1.0
132
0.0
 79
     0
146
0.0
  0
ENDTAB
  0
TABLE
  2
LTYPE
  5
14
330
0
100
AcDbSymbolTable
 70
     1
  0
LTYPE
  5
15
330
14
100
AcDbSymbolTableRecord
100
AcDbLinetypeTableRecord
  2
ByBlock
 70
     0
  3

 72
    65
 73
     0
 40
0.0
  0
LTYPE
  5
16
330
14
100
AcDbSymbolTableRecord
100
AcDbLinetypeTableRecord
  2
ByLayer
 70
     0
  3

 72
    65
 73
     0
 40
0.0
  0
LTYPE
  5
8
330
14
100
AcDbSymbolTableRecord
100
AcDbLinetypeTableRecord
  2
CONTINUOUS
 70
     0
  3
Solid line
 72
    65
 73
     0
 40
0.0
  0
ENDTAB
  0
TABLE
  2
LAYER
  5
10
330
0
100
AcDbSymbolTable
 70
     1
  0
LAYER
  5
4
330
10
100
AcDbSymbolTableRecord
100
AcDbLayerTableRecord
  2
0
 70
     0
 62
     7
  6
CONTINUOUS
370
    -3
390
5
  0
ENDTAB
  0
TABLE
  2
STYLE
  5
11
330
0
100
AcDbSymbolTable
 70
     1
  0
STYLE
  5
12
330
11
100
AcDbSymbolTableRecord
100
AcDbTextStyleTableRecord
  2
STANDARD
 70
     0
 40
0.0
 41
1.0
 50
0.0
 71
     0
 42
0.149994
  3
TXT
  4

  0
ENDTAB
  0
TABLE
  2
VIEW
  5
17
330
0
100
AcDbSymbolTable
 70
     0
  0
ENDTAB
  0
TABLE
  2
UCS
  5
18
330
0
100
AcDbSymbolTable
 70
     0
  0
ENDTAB
  0
TABLE
  2
APPID
  5
1B
330
0
100
AcDbSymbolTable
 70
     1
  0
APPID
  5
1C
330
1B
100
AcDbSymbolTableRecord
100
AcDbRegAppTableRecord
  2
ACAD
 70
     0
  0
ENDTAB
  0
TABLE
  2
DIMSTYLE
  5
1D
330
0
100
AcDbSymbolTable
 70
     1
100
AcDbDimStyleTable
  0
DIMSTYLE
105
24
330
1D
100
AcDbSymbolTableRecord
100
AcDbDimStyleTableRecord
  2
Standard
 70
     0
  3

  4

340
12
  0
ENDTAB
  0
TABLE
  2
BLOCK_RECORD
  5
1
330
0
100
AcDbSymbolTable
 70
     0
  0
BLOCK_RECORD
  5
2
330
1
100
AcDbSymbolTableRecord
100
AcDbBlockTableRecord
  2
*Model_Space
340
A
  0
BLOCK_RECORD
  5
C
330
1
100
AcDbSymbolTableRecord
100
AcDbBlockTableRecord
  2
*Paper_Space
340
F
  0
ENDTAB
  0
ENDSEC
  0
SECTION
  2
BLOCKS
  0
BLOCK
  5
3
330
2
100
AcDbEntity
  8
0
100
AcDbBlockBegin
  2
*Model_Space
 70
     0
 10
0.0
 20
0.0
 30
0.0
  3
*Model_Space
  1

  4

  0
ENDBLK
  5
9
330
2
100
AcDbEntity
  8
0
100
AcDbBlockEnd
  0
BLOCK
  5
D
330
C
100
AcDbEntity
 67
     1
  8
0
100
AcDbBlockBegin
  2
*Paper_Space
 70
     0
 10
0.0
 20
0.0
 30
0.0
  3
*Paper_Space
  1

  4

  0
ENDBLK
  5
E
330
C
100
AcDbEntity
 67
     1
  8
0
100
AcDbBlockEnd
  0
ENDSEC
  0
SECTION
  2
ENTITIES
  0
LINE
  5
277
330
2
100
AcDbEntity
  8
0
100
AcDbLine
 10
0.8125
 20
5.249999999999998
 30
0.0
 11
0.875
 21
5.22577868587827
 31
0.0
  0
LINE
  5
278
330
2
100
AcDbEntity
  8
0
100
AcDbLine
 10
0.8125
 20
5.749999999999998
 30
0.0
 11
0.875
 21
5.774221314121727
 31
0.0
  0
LINE
  5
279
330
2
100
AcDbEntity
  8
0
100
AcDbLine
 10
0.8125
 20
4.249999999999998
 30
0.0
 11
0.875
 21
4.22577868587827
 31
0.0
  0
LINE
  5
27A
330
2
100
AcDbEntity
  8
0
100
AcDbLine
 10
0.8125
 20
4.749999999999998
 30
0.0
 11
0.875
 21
4.774221314121727
 31
0.0
  0
LINE
  5
27B
330
2
100
AcDbEntity
  8
0
100
AcDbLine
 10
0.8125
 20
3.374999999999998
 30
0.0
 11
0.875
 21
3.35077868587827
 31
0.0
  0
LINE
  5
27C
330
2
100
AcDbEntity
  8
0
100
AcDbLine
 10
0.8125
 20
3.874999999999998
 30
0.0
 11
0.875
 21
3.899221314121727
 31
0.0
  0
LINE
  5
27D
330
2
100
AcDbEntity
  8
0
100
AcDbLine
 10
0.8125
 20
2.124999999999998
 30
0.0
 11
0.875
 21
2.10077868587827
 31
0.0
  0
LINE
  5
27E
330
2
100
AcDbEntity
  8
0
100
AcDbLine
 10
0.8125
 20
2.624999999999998
 30
0.0
 11
0.875
 21
2.649221314121727
 31
0.0
  0
LINE
  5
27F
330
2
100
AcDbEntity
  8
0
100
AcDbLine
 10
0.8125
 20
1.249999999999998
 30
0.0
 11
0.875
 21
1.22577868587827
 31
0.0
  0
LINE
  5
280
330
2
100
AcDbEntity
  8
0
100
AcDbLine
 10
0.8125
 20
1.749999999999998
 30
0.0
 11
0.875
 21
1.774221314121727
 31
0.0
  0
LINE
  5
281
330
2
100
AcDbEntity
  8
0
100
AcDbLine
 10
0.8125
 20
0.7499999999999982
 30
0.0
 11
0.875
 21
0.7742213141217267
 31
0.0
  0
LINE
  5
282
330
2
100
AcDbEntity
  8
0
100
AcDbLine
 10
0.8125
 20
0.2499999999999982
 30
0.0
 11
0.875
 21
0.2257786858782698
 31
0.0
  0
LINE
  5
283
330
2
100
AcDbEntity
  8
0
100
AcDbLine
 10
1.5
 20
0.0
 30
0.0
 11
-1.5
 21
0.0
 31
0.0
  0
LINE
  5
284
330
2
100
AcDbEntity
  8
0
100
AcDbLine
 10
-1.5
 20
5.999999999999998
 30
0.0
 11
1.5
 21
5.999999999999998
 31
0.0
  0
LINE
  5
285
330
2
100
AcDbEntity
  8
0
100
AcDbLine
 10
0.8125
 20
0.2499999999999982
 30
0.0
 11
0.8125
 21
0.7499999999999982
 31
0.0
  0
LINE
  5
286
330
2
100
AcDbEntity
  8
0
100
AcDbLine
 10
0.5625
 20
0.2499999999999982
 30
0.0
 11
0.5625
 21
0.7499999999999982
 31
0.0
  0
LINE
  5
287
330
2
100
AcDbEntity
  8
0
100
AcDbLine
 10
0.6875
 20
0.2499999999999982
 30
0.0
 11
0.6875
 21
0.7499999999999982
 31
0.0
  0
LINE
  5
288
330
2
100
AcDbEntity
  8
0
100
AcDbLine
 10
0.3125
 20
0.2499999999999982
 30
0.0
 11
0.3125
 21
0.7499999999999982
 31
0.0
  0
LINE
  5
289
330
2
100
AcDbEntity
  8
0
100
AcDbLine
 10
0.4375
 20
0.2499999999999982
 30
0.0
 11
0.4375
 21
0.7499999999999982
 31
0.0
  0
LINE
  5
28A
330
2
100
AcDbEntity
  8
0
100
AcDbLine
 10
0.0625
 20
0.2499999999999982
 30
0.0
 11
0.0625
 21
0.7499999999999982
 31
0.0
  0
LINE
  5
28B
330
2
100
AcDbEntity
  8
0
100
AcDbLine
 10
0.1875
 20
0.2499999999999982
 30
0.0
 11
0.1875
 21
0.7499999999999982
 31
0.0
  0
LINE
  5
28C
330
2
100
AcDbEntity
  8
0
100
AcDbLine
 10
-0.1875
 20
0.2499999999999982
 30
0.0
 11
-0.1875
 21
0.7499999999999982
 31
0.0
  0
LINE
  5
28D
330
2
100
AcDbEntity
  8
0
100
AcDbLine
 10
-0.0625
 20
0.2499999999999982
 30
0.0
 11
-0.0625
 21
0.7499999999999982
 31
0.0
  0
LINE
  5
28E
330
2
100
AcDbEntity
  8
0
100
AcDbLine
 10
-0.4375
 20
0.2499999999999982
 30
0.0
 11
-0.4375
 21
0.7499999999999982
 31
0.0
  0
LINE
  5
28F
330
2
100
AcDbEntity
  8
0
100
AcDbLine
 10
-0.3125
 20
0.2499999999999982
 30
0.0
 11
-0.3125
 21
0.7499999999999982
 31
0.0
  0
LINE
  5
290
330
2
100
AcDbEntity
  8
0
100
AcDbLine
 10
-0.6875
 20
0.2499999999999982
 30
0.0
 11
-0.6875
 21
0.7499999999999982
 31
0.0
  0
LINE
  5
291
330
2
100
AcDbEntity
  8
0
100
AcDbLine
 10
-0.5625
 20
0.2499999999999982
 30
0.0
 11
-0.5625
 21
0.7499999999999982
 31
0.0
  0
LINE
  5
292
330
2
100
AcDbEntity
  8
0
100
AcDbLine
 10
-0.9375
 20
0.2499999999999982
 30
0.0
 11
-0.9375
 21
0.7499999999999982
 31
0.0
  0
LINE
  5
293
330
2
100
AcDbEntity
  8
0
100
AcDbLine
 10
-0.8125
 20
0.2499999999999982
 30
0.0
 11
-0.8125
 21
0.7499999999999982
 31
0.0
  0
LINE
  5
294
330
2
100
AcDbEntity
  8
0
100
AcDbLine
 10
-1.1875
 20
0.2499999999999982
 30
0.0
 11
-1.1875
 21
0.7499999999999982
 31
0.0
  0
LINE
  5
295
330
2
100
AcDbEntity
  8
0
100
AcDbLine
 10
-1.0625
 20
0.2499999999999982
 30
0.0
 11
-1.0625
 21
0.7499999999999982
 31
0.0
  0
LINE
  5
296
330
2
100
AcDbEntity
  8
0
100
AcDbLine
 10
-1.3125
 20
0.2499999999999982
 30
0.0
 11
-1.3125
 21
0.7499999999999982
 31
0.0
  0
LINE
  5
297
330
2
100
AcDbEntity
  8
0
100
AcDbLine
 10
-1.4375
 20
0.2499999999999982
 30
0.0
 11
-1.4375
 21
0.7499999999999982
 31
0.0
  0
LINE
  5
298
330
2
100
AcDbEntity
  8
0
100
AcDbLine
 10
-1.5
 20
0.0
 30
0.0
 11
-1.5
 21
5.999999999999998
 31
0.0
  0
LINE
  5
299
330
2
100
AcDbEntity
  8
0
100
AcDbLine
 10
-1.4375
 20
0.2499999999999982
 30
0.0
 11
-1.375
 21
0.2257786858782698
 31
0.0
  0
LINE
  5
29A
330
2
100
AcDbEntity
  8
0
100
AcDbLine
 10
-1.375
 20
0.2257786858782698
 30
0.0
 11
-1.3125
 21
0.2499999999999982
 31
0.0
  0
LINE
  5
29B
330
2
100
AcDbEntity
  8
0
100
AcDbLine
 10
-1.1875
 20
0.2499999999999982
 30
0.0
 11
-1.125
 21
0.2257786858782698
 31
0.0
  0
LINE
  5
29C
330
2
100
AcDbEntity
  8
0
100
AcDbLine
 10
-1.125
 20
0.2257786858782698
 30
0.0
 11
-1.0625
 21
0.2499999999999982
 31
0.0
  0
LINE
  5
29D
330
2
100
AcDbEntity
  8
0
100
AcDbLine
 10
-0.9375
 20
0.2499999999999982
 30
0.0
 11
-0.875
 21
0.2257786858782698
 31
0.0
  0
LINE
  5
29E
330
2
100
AcDbEntity
  8
0
100
AcDbLine
 10
-0.875
 20
0.2257786858782698
 30
0.0
 11
-0.8125
 21
0.2499999999999982
 31
0.0
  0
LINE
  5
29F
330
2
100
AcDbEntity
  8
0
100
AcDbLine
 10
-0.625
 20
0.2257786858782698
 30
0.0
 11
-0.5625
 21
0.2499999999999982
 31
0.0
  0
LINE
  5
2A0
330
2
100
AcDbEntity
  8
0
100
AcDbLine
 10
-0.6875
 20
0.2499999999999982
 30
0.0
 11
-0.625
 21
0.2257786858782698
 31
0.0
  0
LINE
  5
2A1
330
2
100
AcDbEntity
  8
0
100
AcDbLine
 10
-0.375
 20
0.2257786858782698
 30
0.0
 11
-0.3125
 21
0.2499999999999982
 31
0.0
  0
LINE
  5
2A2
330
2
100
AcDbEntity
  8
0
100
AcDbLine
 10
-0.4375
 20
0.2499999999999982
 30
0.0
 11
-0.375
 21
0.2257786858782698
 31
0.0
  0
LINE
  5
2A3
330
2
100
AcDbEntity
  8
0
100
AcDbLine
 10
-0.125
 20
0.2257786858782698
 30
0.0
 11
-0.0625
 21
0.2499999999999982
 31
0.0
  0
LINE
  5
2A4
330
2
100
AcDbEntity
  8
0
100
AcDbLine
 10
-0.1875
 20
0.2499999999999982
 30
0.0
 11
-0.125
 21
0.2257786858782698
 31
0.0
  0
LINE
  5
2A5
330
2
100
AcDbEntity
  8
0
100
AcDbLine
 10
0.125
 20
0.2257786858782698
 30
0.0
 11
0.1875
 21
0.2499999999999982
 31
0.0
  0
LINE
  5
2A6
330
2
100
AcDbEntity
  8
0
100
AcDbLine
 10
0.0625
 20
0.2499999999999982
 30
0.0
 11
0.125
 21
0.2257786858782698
 31
0.0
  0
LINE
  5
2A7
330
2
100
AcDbEntity
  8
0
100
AcDbLine
 10
0.375
 20
0.2257786858782698
 30
0.0
 11
0.4375
 21
0.2499999999999982
 31
0.0
  0
LINE
  5
2A8
330
2
100
AcDbEntity
  8
0
100
AcDbLine
 10
0.3125
 20
0.2499999999999982
 30
0.0
 11
0.375
 21
0.2257786858782698
 31
0.0
  0
LINE
  5
2A9
330
2
100
AcDbEntity
  8
0
100
AcDbLine
 10
0.625
 20
0.2257786858782698
 30
0.0
 11
0.6875
 21
0.2499999999999982
 31
0.0
  0
LINE
  5
2AA
330
2
100
AcDbEntity
  8
0
100
AcDbLine
 10
0.5625
 20
0.2499999999999982
 30
0.0
 11
0.625
 21
0.2257786858782698
 31
0.0
  0
LINE
  5
2AB
330
2
100
AcDbEntity
  8
0
100
AcDbLine
 10
-1.375
 20
3.35077868587827
 30
0.0
 11
-1.3125
 21
3.374999999999998
 31
0.0
  0
LINE
  5
2AC
330
2
100
AcDbEntity
  8
0
100
AcDbLine
 10
-1.4375
 20
3.374999999999998
 30
0.0
 11
-1.375
 21
3.35077868587827
 31
0.0
  0
LINE
  5
2AD
330
2
100
AcDbEntity
  8
0
100
AcDbLine
 10
-1.4375
 20
1.249999999999998
 30
0.0
 11
-1.4375
 21
1.749999999999998
 31
0.0
  0
LINE
  5
2AE
330
2
100
AcDbEntity
  8
0
100
AcDbLine
 10
-1.3125
 20
1.249999999999998
 30
0.0
 11
-1.3125
 21
1.749999999999998
 31
0.0
  0
LINE
  5
2AF
330
2
100
AcDbEntity
  8
0
100
AcDbLine
 10
-1.4375
 20
0.7499999999999982
 30
0.0
 11
-1.375
 21
0.7742213141217267
 31
0.0
  0
LINE
  5
2B0
330
2
100
AcDbEntity
  8
0
100
AcDbLine
 10
-1.375
 20
0.7742213141217267
 30
0.0
 11
-1.3125
 21
0.7499999999999982
 31
0.0
  0
LINE
  5
2B1
330
2
100
AcDbEntity
  8
0
100
AcDbLine
 10
-1.4375
 20
1.249999999999998
 30
0.0
 11
-1.375
 21
1.22577868587827
 31
0.0
  0
LINE
  5
2B2
330
2
100
AcDbEntity
  8
0
100
AcDbLine
 10
-1.375
 20
1.22577868587827
 30
0.0
 11
-1.3125
 21
1.249999999999998
 31
0.0
  0
LINE
  5
2B3
330
2
100
AcDbEntity
  8
0
100
AcDbLine
 10
-1.4375
 20
1.749999999999998
 30
0.0
 11
-1.375
 21
1.774221314121727
 31
0.0
  0
LINE
  5
2B4
330
2
100
AcDbEntity
  8
0
100
AcDbLine
 10
-1.375
 20
1.774221314121727
 30
0.0
 11
-1.3125
 21
1.749999999999998
 31
0.0
  0
LINE
  5
2B5
330
2
100
AcDbEntity
  8
0
100
AcDbLine
 10
-1.4375
 20
2.124999999999998
 30
0.0
 11
-1.4375
 21
2.624999999999998
 31
0.0
  0
LINE
  5
2B6
330
2
100
AcDbEntity
  8
0
100
AcDbLine
 10
-1.3125
 20
2.124999999999998
 30
0.0
 11
-1.3125
 21
2.624999999999998
 31
0.0
  0
LINE
  5
2B7
330
2
100
AcDbEntity
  8
0
100
AcDbLine
 10
-1.4375
 20
2.124999999999998
 30
0.0
 11
-1.375
 21
2.10077868587827
 31
0.0
  0
LINE
  5
2B8
330
2
100
AcDbEntity
  8
0
100
AcDbLine
 10
-1.375
 20
2.10077868587827
 30
0.0
 11
-1.3125
 21
2.124999999999998
 31
0.0
  0
LINE
  5
2B9
330
2
100
AcDbEntity
  8
0
100
AcDbLine
 10
-1.4375
 20
2.624999999999998
 30
0.0
 11
-1.375
 21
2.649221314121727
 31
0.0
  0
LINE
  5
2BA
330
2
100
AcDbEntity
  8
0
100
AcDbLine
 10
-1.375
 20
2.649221314121727
 30
0.0
 11
-1.3125
 21
2.624999999999998
 31
0.0
  0
LINE
  5
2BB
330
2
100
AcDbEntity
  8
0
100
AcDbLine
 10
-1.4375
 20
3.011068342699989
 30
0.0
 11
-1.271791647403353
 21
3.176776695296637
 31
0.0
  0
LINE
  5
2BC
330
2
100
AcDbEntity
  8
0
100
AcDbLine
 10
-1.4375
 20
3.011068342699989
 30
0.0
 11
-1.271791647403353
 21
2.84535999010334
 31
0.0
  0
LINE
  5
2BD
330
2
100
AcDbEntity
  8
0
100
AcDbLine
 10
-1.4375
 20
4.249999999999998
 30
0.0
 11
-1.4375
 21
4.749999999999998
 31
0.0
  0
LINE
  5
2BE
330
2
100
AcDbEntity
  8
0
100
AcDbLine
 10
-1.3125
 20
4.249999999999998
 30
0.0
 11
-1.3125
 21
4.749999999999998
 31
0.0
  0
LINE
  5
2BF
330
2
100
AcDbEntity
  8
0
100
AcDbLine
 10
-1.4375
 20
3.374999999999998
 30
0.0
 11
-1.4375
 21
3.874999999999998
 31
0.0
  0
LINE
  5
2C0
330
2
100
AcDbEntity
  8
0
100
AcDbLine
 10
-1.3125
 20
3.374999999999998
 30
0.0
 11
-1.3125
 21
3.874999999999998
 31
0.0
  0
LINE
  5
2C1
330
2
100
AcDbEntity
  8
0
100
AcDbLine
 10
-1.4375
 20
3.874999999999998
 30
0.0
 11
-1.375
 21
3.899221314121727
 31
0.0
  0
LINE
  5
2C2
330
2
100
AcDbEntity
  8
0
100
AcDbLine
 10
-1.375
 20
3.899221314121727
 30
0.0
 11
-1.3125
 21
3.874999999999998
 31
0.0
  0
LINE
  5
2C3
330
2
100
AcDbEntity
  8
0
100
AcDbLine
 10
-1.4375
 20
4.249999999999998
 30
0.0
 11
-1.375
 21
4.22577868587827
 31
0.0
  0
LINE
  5
2C4
330
2
100
AcDbEntity
  8
0
100
AcDbLine
 10
-1.375
 20
4.22577868587827
 30
0.0
 11
-1.3125
 21
4.249999999999998
 31
0.0
  0
LINE
  5
2C5
330
2
100
AcDbEntity
  8
0
100
AcDbLine
 10
-1.4375
 20
5.249999999999998
 30
0.0
 11
-1.4375
 21
5.749999999999998
 31
0.0
  0
LINE
  5
2C6
330
2
100
AcDbEntity
  8
0
100
AcDbLine
 10
-1.3125
 20
5.249999999999998
 30
0.0
 11
-1.3125
 21
5.749999999999998
 31
0.0
  0
LINE
  5
2C7
330
2
100
AcDbEntity
  8
0
100
AcDbLine
 10
-1.4375
 20
4.749999999999998
 30
0.0
 11
-1.375
 21
4.774221314121727
 31
0.0
  0
LINE
  5
2C8
330
2
100
AcDbEntity
  8
0
100
AcDbLine
 10
-1.375
 20
4.774221314121727
 30
0.0
 11
-1.3125
 21
4.749999999999998
 31
0.0
  0
LINE
  5
2C9
330
2
100
AcDbEntity
  8
0
100
AcDbLine
 10
-1.4375
 20
5.249999999999998
 30
0.0
 11
-1.375
 21
5.22577868587827
 31
0.0
  0
LINE
  5
2CA
330
2
100
AcDbEntity
  8
0
100
AcDbLine
 10
-1.375
 20
5.22577868587827
 30
0.0
 11
-1.3125
 21
5.249999999999998
 31
0.0
  0
LINE
  5
2CB
330
2
100
AcDbEntity
  8
0
100
AcDbLine
 10
-1.4375
 20
5.749999999999998
 30
0.0
 11
-1.375
 21
5.774221314121727
 31
0.0
  0
LINE
  5
2CC
330
2
100
AcDbEntity
  8
0
100
AcDbLine
 10
-1.375
 20
5.774221314121727
 30
0.0
 11
-1.3125
 21
5.749999999999998
 31
0.0
  0
LINE
  5
2CD
330
2
100
AcDbEntity
  8
0
100
AcDbLine
 10
-0.375
 20
3.35077868587827
 30
0.0
 11
-0.3125
 21
3.374999999999998
 31
0.0
  0
LINE
  5
2CE
330
2
100
AcDbEntity
  8
0
100
AcDbLine
 10
-0.4375
 20
3.374999999999998
 30
0.0
 11
-0.375
 21
3.35077868587827
 31
0.0
  0
LINE
  5
2CF
330
2
100
AcDbEntity
  8
0
100
AcDbLine
 10
-1.1875
 20
3.374999999999998
 30
0.0
 11
-1.125
 21
3.35077868587827
 31
0.0
  0
LINE
  5
2D0
330
2
100
AcDbEntity
  8
0
100
AcDbLine
 10
-1.125
 20
3.35077868587827
 30
0.0
 11
-1.0625
 21
3.374999999999998
 31
0.0
  0
LINE
  5
2D1
330
2
100
AcDbEntity
  8
0
100
AcDbLine
 10
-0.9375
 20
3.374999999999998
 30
0.0
 11
-0.875
 21
3.35077868587827
 31
0.0
  0
LINE
  5
2D2
330
2
100
AcDbEntity
  8
0
100
AcDbLine
 10
-0.875
 20
3.35077868587827
 30
0.0
 11
-0.8125
 21
3.374999999999998
 31
0.0
  0
LINE
  5
2D3
330
2
100
AcDbEntity
  8
0
100
AcDbLine
 10
-0.6875
 20
3.374999999999998
 30
0.0
 11
-0.625
 21
3.35077868587827
 31
0.0
  0
LINE
  5
2D4
330
2
100
AcDbEntity
  8
0
100
AcDbLine
 10
-0.625
 20
3.35077868587827
 30
0.0
 11
-0.5625
 21
3.374999999999998
 31
0.0
  0
LINE
  5
2D5
330
2
100
AcDbEntity
  8
0
100
AcDbLine
 10
0.3125
 20
3.374999999999998
 30
0.0
 11
0.375
 21
3.35077868587827
 31
0.0
  0
LINE
  5
2D6
330
2
100
AcDbEntity
  8
0
100
AcDbLine
 10
0.375
 20
3.35077868587827
 30
0.0
 11
0.4375
 21
3.374999999999998
 31
0.0
  0
LINE
  5
2D7
330
2
100
AcDbEntity
  8
0
100
AcDbLine
 10
0.5625
 20
3.374999999999998
 30
0.0
 11
0.625
 21
3.35077868587827
 31
0.0
  0
LINE
  5
2D8
330
2
100
AcDbEntity
  8
0
100
AcDbLine
 10
0.625
 20
3.35077868587827
 30
0.0
 11
0.6875
 21
3.374999999999998
 31
0.0
  0
LINE
  5
2D9
330
2
100
AcDbEntity
  8
0
100
AcDbLine
 10
-1.0625
 20
1.249999999999998
 30
0.0
 11
-1.0625
 21
1.749999999999998
 31
0.0
  0
LINE
  5
2DA
330
2
100
AcDbEntity
  8
0
100
AcDbLine
 10
-1.1875
 20
1.249999999999998
 30
0.0
 11
-1.1875
 21
1.749999999999998
 31
0.0
  0
LINE
  5
2DB
330
2
100
AcDbEntity
  8
0
100
AcDbLine
 10
-0.8125
 20
1.249999999999998
 30
0.0
 11
-0.8125
 21
1.749999999999998
 31
0.0
  0
LINE
  5
2DC
330
2
100
AcDbEntity
  8
0
100
AcDbLine
 10
-0.9375
 20
1.249999999999998
 30
0.0
 11
-0.9375
 21
1.749999999999998
 31
0.0
  0
LINE
  5
2DD
330
2
100
AcDbEntity
  8
0
100
AcDbLine
 10
-1.1875
 20
0.7499999999999982
 30
0.0
 11
-1.125
 21
0.7742213141217267
 31
0.0
  0
LINE
  5
2DE
330
2
100
AcDbEntity
  8
0
100
AcDbLine
 10
-1.125
 20
0.7742213141217267
 30
0.0
 11
-1.0625
 21
0.7499999999999982
 31
0.0
  0
LINE
  5
2DF
330
2
100
AcDbEntity
  8
0
100
AcDbLine
 10
-1.1875
 20
1.249999999999998
 30
0.0
 11
-1.125
 21
1.22577868587827
 31
0.0
  0
LINE
  5
2E0
330
2
100
AcDbEntity
  8
0
100
AcDbLine
 10
-1.125
 20
1.22577868587827
 30
0.0
 11
-1.0625
 21
1.249999999999998
 31
0.0
  0
LINE
  5
2E1
330
2
100
AcDbEntity
  8
0
100
AcDbLine
 10
-0.9375
 20
0.7499999999999982
 30
0.0
 11
-0.875
 21
0.7742213141217267
 31
0.0
  0
LINE
  5
2E2
330
2
100
AcDbEntity
  8
0
100
AcDbLine
 10
-0.875
 20
0.7742213141217267
 30
0.0
 11
-0.8125
 21
0.7499999999999982
 31
0.0
  0
LINE
  5
2E3
330
2
100
AcDbEntity
  8
0
100
AcDbLine
 10
-0.9375
 20
1.249999999999998
 30
0.0
 11
-0.875
 21
1.22577868587827
 31
0.0
  0
LINE
  5
2E4
330
2
100
AcDbEntity
  8
0
100
AcDbLine
 10
-0.875
 20
1.22577868587827
 30
0.0
 11
-0.8125
 21
1.249999999999998
 31
0.0
  0
LINE
  5
2E5
330
2
100
AcDbEntity
  8
0
100
AcDbLine
 10
-1.1875
 20
1.749999999999998
 30
0.0
 11
-1.125
 21
1.774221314121727
 31
0.0
  0
LINE
  5
2E6
330
2
100
AcDbEntity
  8
0
100
AcDbLine
 10
-1.125
 20
1.774221314121727
 30
0.0
 11
-1.0625
 21
1.749999999999998
 31
0.0
  0
LINE
  5
2E7
330
2
100
AcDbEntity
  8
0
100
AcDbLine
 10
-0.9375
 20
1.749999999999998
 30
0.0
 11
-0.875
 21
1.774221314121727
 31
0.0
  0
LINE
  5
2E8
330
2
100
AcDbEntity
  8
0
100
AcDbLine
 10
-0.875
 20
1.774221314121727
 30
0.0
 11
-0.8125
 21
1.749999999999998
 31
0.0
  0
LINE
  5
2E9
330
2
100
AcDbEntity
  8
0
100
AcDbLine
 10
-0.5625
 20
1.249999999999998
 30
0.0
 11
-0.5625
 21
1.749999999999998
 31
0.0
  0
LINE
  5
2EA
330
2
100
AcDbEntity
  8
0
100
AcDbLine
 10
-0.6875
 20
1.249999999999998
 30
0.0
 11
-0.6875
 21
1.749999999999998
 31
0.0
  0
LINE
  5
2EB
330
2
100
AcDbEntity
  8
0
100
AcDbLine
 10
-0.3125
 20
1.249999999999998
 30
0.0
 11
-0.3125
 21
1.749999999999998
 31
0.0
  0
LINE
  5
2EC
330
2
100
AcDbEntity
  8
0
100
AcDbLine
 10
-0.4375
 20
1.249999999999998
 30
0.0
 11
-0.4375
 21
1.749999999999998
 31
0.0
  0
LINE
  5
2ED
330
2
100
AcDbEntity
  8
0
100
AcDbLine
 10
-0.625
 20
0.7742213141217267
 30
0.0
 11
-0.5625
 21
0.7499999999999982
 31
0.0
  0
LINE
  5
2EE
330
2
100
AcDbEntity
  8
0
100
AcDbLine
 10
-0.6875
 20
0.7499999999999982
 30
0.0
 11
-0.625
 21
0.7742213141217267
 31
0.0
  0
LINE
  5
2EF
330
2
100
AcDbEntity
  8
0
100
AcDbLine
 10
-0.625
 20
1.22577868587827
 30
0.0
 11
-0.5625
 21
1.249999999999998
 31
0.0
  0
LINE
  5
2F0
330
2
100
AcDbEntity
  8
0
100
AcDbLine
 10
-0.6875
 20
1.249999999999998
 30
0.0
 11
-0.625
 21
1.22577868587827
 31
0.0
  0
LINE
  5
2F1
330
2
100
AcDbEntity
  8
0
100
AcDbLine
 10
-0.375
 20
0.7742213141217267
 30
0.0
 11
-0.3125
 21
0.7499999999999982
 31
0.0
  0
LINE
  5
2F2
330
2
100
AcDbEntity
  8
0
100
AcDbLine
 10
-0.4375
 20
0.7499999999999982
 30
0.0
 11
-0.375
 21
0.7742213141217267
 31
0.0
  0
LINE
  5
2F3
330
2
100
AcDbEntity
  8
0
100
AcDbLine
 10
-0.375
 20
1.22577868587827
 30
0.0
 11
-0.3125
 21
1.249999999999998
 31
0.0
  0
LINE
  5
2F4
330
2
100
AcDbEntity
  8
0
100
AcDbLine
 10
-0.4375
 20
1.249999999999998
 30
0.0
 11
-0.375
 21
1.22577868587827
 31
0.0
  0
LINE
  5
2F5
330
2
100
AcDbEntity
  8
0
100
AcDbLine
 10
-0.625
 20
1.774221314121727
 30
0.0
 11
-0.5625
 21
1.749999999999998
 31
0.0
  0
LINE
  5
2F6
330
2
100
AcDbEntity
  8
0
100
AcDbLine
 10
-0.6875
 20
1.749999999999998
 30
0.0
 11
-0.625
 21
1.774221314121727
 31
0.0
  0
LINE
  5
2F7
330
2
100
AcDbEntity
  8
0
100
AcDbLine
 10
-0.375
 20
1.774221314121727
 30
0.0
 11
-0.3125
 21
1.749999999999998
 31
0.0
  0
LINE
  5
2F8
330
2
100
AcDbEntity
  8
0
100
AcDbLine
 10
-0.4375
 20
1.749999999999998
 30
0.0
 11
-0.375
 21
1.774221314121727
 31
0.0
  0
LINE
  5
2F9
330
2
100
AcDbEntity
  8
0
100
AcDbLine
 10
-1.0625
 20
2.124999999999998
 30
0.0
 11
-1.0625
 21
2.624999999999998
 31
0.0
  0
LINE
  5
2FA
330
2
100
AcDbEntity
  8
0
100
AcDbLine
 10
-1.1875
 20
2.124999999999998
 30
0.0
 11
-1.1875
 21
2.624999999999998
 31
0.0
  0
LINE
  5
2FB
330
2
100
AcDbEntity
  8
0
100
AcDbLine
 10
-1.1875
 20
2.124999999999998
 30
0.0
 11
-1.125
 21
2.10077868587827
 31
0.0
  0
LINE
  5
2FC
330
2
100
AcDbEntity
  8
0
100
AcDbLine
 10
-1.125
 20
2.10077868587827
 30
0.0
 11
-1.0625
 21
2.124999999999998
 31
0.0
  0
LINE
  5
2FD
330
2
100
AcDbEntity
  8
0
100
AcDbLine
 10
-1.1875
 20
2.624999999999998
 30
0.0
 11
-1.125
 21
2.649221314121727
 31
0.0
  0
LINE
  5
2FE
330
2
100
AcDbEntity
  8
0
100
AcDbLine
 10
-1.125
 20
2.649221314121727
 30
0.0
 11
-1.0625
 21
2.624999999999998
 31
0.0
  0
LINE
  5
2FF
330
2
100
AcDbEntity
  8
0
100
AcDbLine
 10
-0.8125
 20
2.124999999999998
 30
0.0
 11
-0.8125
 21
2.624999999999998
 31
0.0
  0
LINE
  5
300
330
2
100
AcDbEntity
  8
0
100
AcDbLine
 10
-0.9375
 20
2.124999999999998
 30
0.0
 11
-0.9375
 21
2.624999999999998
 31
0.0
  0
LINE
  5
301
330
2
100
AcDbEntity
  8
0
100
AcDbLine
 10
-0.9375
 20
2.124999999999998
 30
0.0
 11
-0.875
 21
2.10077868587827
 31
0.0
  0
LINE
  5
302
330
2
100
AcDbEntity
  8
0
100
AcDbLine
 10
-0.875
 20
2.10077868587827
 30
0.0
 11
-0.8125
 21
2.124999999999998
 31
0.0
  0
LINE
  5
303
330
2
100
AcDbEntity
  8
0
100
AcDbLine
 10
-0.9375
 20
2.624999999999998
 30
0.0
 11
-0.875
 21
2.649221314121727
 31
0.0
  0
LINE
  5
304
330
2
100
AcDbEntity
  8
0
100
AcDbLine
 10
-0.875
 20
2.649221314121727
 30
0.0
 11
-0.8125
 21
2.624999999999998
 31
0.0
  0
LINE
  5
305
330
2
100
AcDbEntity
  8
0
100
AcDbLine
 10
-0.5625
 20
2.124999999999998
 30
0.0
 11
-0.5625
 21
2.624999999999998
 31
0.0
  0
LINE
  5
306
330
2
100
AcDbEntity
  8
0
100
AcDbLine
 10
-0.6875
 20
2.124999999999998
 30
0.0
 11
-0.6875
 21
2.624999999999998
 31
0.0
  0
LINE
  5
307
330
2
100
AcDbEntity
  8
0
100
AcDbLine
 10
-0.625
 20
2.10077868587827
 30
0.0
 11
-0.5625
 21
2.124999999999998
 31
0.0
  0
LINE
  5
308
330
2
100
AcDbEntity
  8
0
100
AcDbLine
 10
-0.6875
 20
2.124999999999998
 30
0.0
 11
-0.625
 21
2.10077868587827
 31
0.0
  0
LINE
  5
309
330
2
100
AcDbEntity
  8
0
100
AcDbLine
 10
-0.625
 20
2.649221314121727
 30
0.0
 11
-0.5625
 21
2.624999999999998
 31
0.0
  0
LINE
  5
30A
330
2
100
AcDbEntity
  8
0
100
AcDbLine
 10
-0.6875
 20
2.624999999999998
 30
0.0
 11
-0.625
 21
2.649221314121727
 31
0.0
  0
LINE
  5
30B
330
2
100
AcDbEntity
  8
0
100
AcDbLine
 10
-0.4375
 20
2.124999999999998
 30
0.0
 11
-0.4375
 21
2.624999999999998
 31
0.0
  0
LINE
  5
30C
330
2
100
AcDbEntity
  8
0
100
AcDbLine
 10
-0.3125
 20
2.124999999999998
 30
0.0
 11
-0.3125
 21
2.624999999999998
 31
0.0
  0
LINE
  5
30D
330
2
100
AcDbEntity
  8
0
100
AcDbLine
 10
-0.375
 20
2.10077868587827
 30
0.0
 11
-0.3125
 21
2.124999999999998
 31
0.0
  0
LINE
  5
30E
330
2
100
AcDbEntity
  8
0
100
AcDbLine
 10
-0.4375
 20
2.124999999999998
 30
0.0
 11
-0.375
 21
2.10077868587827
 31
0.0
  0
LINE
  5
30F
330
2
100
AcDbEntity
  8
0
100
AcDbLine
 10
-0.375
 20
2.649221314121727
 30
0.0
 11
-0.3125
 21
2.624999999999998
 31
0.0
  0
LINE
  5
310
330
2
100
AcDbEntity
  8
0
100
AcDbLine
 10
-0.4375
 20
2.624999999999998
 30
0.0
 11
-0.375
 21
2.649221314121727
 31
0.0
  0
LINE
  5
311
330
2
100
AcDbEntity
  8
0
100
AcDbLine
 10
-0.0625
 20
1.249999999999998
 30
0.0
 11
-0.0625
 21
1.749999999999998
 31
0.0
  0
LINE
  5
312
330
2
100
AcDbEntity
  8
0
100
AcDbLine
 10
-0.1875
 20
1.249999999999998
 30
0.0
 11
-0.1875
 21
1.749999999999998
 31
0.0
  0
LINE
  5
313
330
2
100
AcDbEntity
  8
0
100
AcDbLine
 10
0.1875
 20
1.249999999999998
 30
0.0
 11
0.1875
 21
1.749999999999998
 31
0.0
  0
LINE
  5
314
330
2
100
AcDbEntity
  8
0
100
AcDbLine
 10
0.0625
 20
1.249999999999998
 30
0.0
 11
0.0625
 21
1.749999999999998
 31
0.0
  0
LINE
  5
315
330
2
100
AcDbEntity
  8
0
100
AcDbLine
 10
-0.125
 20
0.7742213141217267
 30
0.0
 11
-0.0625
 21
0.7499999999999982
 31
0.0
  0
LINE
  5
316
330
2
100
AcDbEntity
  8
0
100
AcDbLine
 10
-0.1875
 20
0.7499999999999982
 30
0.0
 11
-0.125
 21
0.7742213141217267
 31
0.0
  0
LINE
  5
317
330
2
100
AcDbEntity
  8
0
100
AcDbLine
 10
-0.125
 20
1.22577868587827
 30
0.0
 11
-0.0625
 21
1.249999999999998
 31
0.0
  0
LINE
  5
318
330
2
100
AcDbEntity
  8
0
100
AcDbLine
 10
-0.1875
 20
1.249999999999998
 30
0.0
 11
-0.125
 21
1.22577868587827
 31
0.0
  0
LINE
  5
319
330
2
100
AcDbEntity
  8
0
100
AcDbLine
 10
0.125
 20
0.7742213141217267
 30
0.0
 11
0.1875
 21
0.7499999999999982
 31
0.0
  0
LINE
  5
31A
330
2
100
AcDbEntity
  8
0
100
AcDbLine
 10
0.0625
 20
0.7499999999999982
 30
0.0
 11
0.125
 21
0.7742213141217267
 31
0.0
  0
LINE
  5
31B
330
2
100
AcDbEntity
  8
0
100
AcDbLine
 10
0.125
 20
1.22577868587827
 30
0.0
 11
0.1875
 21
1.249999999999998
 31
0.0
  0
LINE
  5
31C
330
2
100
AcDbEntity
  8
0
100
AcDbLine
 10
0.0625
 20
1.249999999999998
 30
0.0
 11
0.125
 21
1.22577868587827
 31
0.0
  0
LINE
  5
31D
330
2
100
AcDbEntity
  8
0
100
AcDbLine
 10
-0.125
 20
1.774221314121727
 30
0.0
 11
-0.0625
 21
1.749999999999998
 31
0.0
  0
LINE
  5
31E
330
2
100
AcDbEntity
  8
0
100
AcDbLine
 10
-0.1875
 20
1.749999999999998
 30
0.0
 11
-0.125
 21
1.774221314121727
 31
0.0
  0
LINE
  5
31F
330
2
100
AcDbEntity
  8
0
100
AcDbLine
 10
0.125
 20
1.774221314121727
 30
0.0
 11
0.1875
 21
1.749999999999998
 31
0.0
  0
LINE
  5
320
330
2
100
AcDbEntity
  8
0
100
AcDbLine
 10
0.0625
 20
1.749999999999998
 30
0.0
 11
0.125
 21
1.774221314121727
 31
0.0
  0
LINE
  5
321
330
2
100
AcDbEntity
  8
0
100
AcDbLine
 10
0.4375
 20
1.249999999999998
 30
0.0
 11
0.4375
 21
1.749999999999998
 31
0.0
  0
LINE
  5
322
330
2
100
AcDbEntity
  8
0
100
AcDbLine
 10
0.3125
 20
1.249999999999998
 30
0.0
 11
0.3125
 21
1.749999999999998
 31
0.0
  0
LINE
  5
323
330
2
100
AcDbEntity
  8
0
100
AcDbLine
 10
0.6875
 20
1.249999999999998
 30
0.0
 11
0.6875
 21
1.749999999999998
 31
0.0
  0
LINE
  5
324
330
2
100
AcDbEntity
  8
0
100
AcDbLine
 10
0.5625
 20
1.249999999999998
 30
0.0
 11
0.5625
 21
1.749999999999998
 31
0.0
  0
LINE
  5
325
330
2
100
AcDbEntity
  8
0
100
AcDbLine
 10
0.8125
 20
1.249999999999998
 30
0.0
 11
0.8125
 21
1.749999999999998
 31
0.0
  0
LINE
  5
326
330
2
100
AcDbEntity
  8
0
100
AcDbLine
 10
0.375
 20
0.7742213141217267
 30
0.0
 11
0.4375
 21
0.7499999999999982
 31
0.0
  0
LINE
  5
327
330
2
100
AcDbEntity
  8
0
100
AcDbLine
 10
0.3125
 20
0.7499999999999982
 30
0.0
 11
0.375
 21
0.7742213141217267
 31
0.0
  0
LINE
  5
328
330
2
100
AcDbEntity
  8
0
100
AcDbLine
 10
0.375
 20
1.22577868587827
 30
0.0
 11
0.4375
 21
1.249999999999998
 31
0.0
  0
LINE
  5
329
330
2
100
AcDbEntity
  8
0
100
AcDbLine
 10
0.3125
 20
1.249999999999998
 30
0.0
 11
0.375
 21
1.22577868587827
 31
0.0
  0
LINE
  5
32A
330
2
100
AcDbEntity
  8
0
100
AcDbLine
 10
0.625
 20
0.7742213141217267
 30
0.0
 11
0.6875
 21
0.7499999999999982
 31
0.0
  0
LINE
  5
32B
330
2
100
AcDbEntity
  8
0
100
AcDbLine
 10
0.5625
 20
0.7499999999999982
 30
0.0
 11
0.625
 21
0.7742213141217267
 31
0.0
  0
LINE
  5
32C
330
2
100
AcDbEntity
  8
0
100
AcDbLine
 10
0.625
 20
1.22577868587827
 30
0.0
 11
0.6875
 21
1.249999999999998
 31
0.0
  0
LINE
  5
32D
330
2
100
AcDbEntity
  8
0
100
AcDbLine
 10
0.5625
 20
1.249999999999998
 30
0.0
 11
0.625
 21
1.22577868587827
 31
0.0
  0
LINE
  5
32E
330
2
100
AcDbEntity
  8
0
100
AcDbLine
 10
0.375
 20
1.774221314121727
 30
0.0
 11
0.4375
 21
1.749999999999998
 31
0.0
  0
LINE
  5
32F
330
2
100
AcDbEntity
  8
0
100
AcDbLine
 10
0.3125
 20
1.749999999999998
 30
0.0
 11
0.375
 21
1.774221314121727
 31
0.0
  0
LINE
  5
330
330
2
100
AcDbEntity
  8
0
100
AcDbLine
 10
0.625
 20
1.774221314121727
 30
0.0
 11
0.6875
 21
1.749999999999998
 31
0.0
  0
LINE
  5
331
330
2
100
AcDbEntity
  8
0
100
AcDbLine
 10
0.5625
 20
1.749999999999998
 30
0.0
 11
0.625
 21
1.774221314121727
 31
0.0
  0
LINE
  5
332
330
2
100
AcDbEntity
  8
0
100
AcDbLine
 10
0.4375
 20
2.124999999999998
 30
0.0
 11
0.4375
 21
2.624999999999998
 31
0.0
  0
LINE
  5
333
330
2
100
AcDbEntity
  8
0
100
AcDbLine
 10
0.3125
 20
2.124999999999998
 30
0.0
 11
0.3125
 21
2.624999999999998
 31
0.0
  0
LINE
  5
334
330
2
100
AcDbEntity
  8
0
100
AcDbLine
 10
0.375
 20
2.10077868587827
 30
0.0
 11
0.4375
 21
2.124999999999998
 31
0.0
  0
LINE
  5
335
330
2
100
AcDbEntity
  8
0
100
AcDbLine
 10
0.3125
 20
2.124999999999998
 30
0.0
 11
0.375
 21
2.10077868587827
 31
0.0
  0
LINE
  5
336
330
2
100
AcDbEntity
  8
0
100
AcDbLine
 10
0.375
 20
2.649221314121727
 30
0.0
 11
0.4375
 21
2.624999999999998
 31
0.0
  0
LINE
  5
337
330
2
100
AcDbEntity
  8
0
100
AcDbLine
 10
0.3125
 20
2.624999999999998
 30
0.0
 11
0.375
 21
2.649221314121727
 31
0.0
  0
LINE
  5
338
330
2
100
AcDbEntity
  8
0
100
AcDbLine
 10
0.6875
 20
2.124999999999998
 30
0.0
 11
0.6875
 21
2.624999999999998
 31
0.0
  0
LINE
  5
339
330
2
100
AcDbEntity
  8
0
100
AcDbLine
 10
0.5625
 20
2.124999999999998
 30
0.0
 11
0.5625
 21
2.624999999999998
 31
0.0
  0
LINE
  5
33A
330
2
100
AcDbEntity
  8
0
100
AcDbLine
 10
0.8125
 20
2.124999999999998
 30
0.0
 11
0.8125
 21
2.624999999999998
 31
0.0
  0
LINE
  5
33B
330
2
100
AcDbEntity
  8
0
100
AcDbLine
 10
0.625
 20
2.10077868587827
 30
0.0
 11
0.6875
 21
2.124999999999998
 31
0.0
  0
LINE
  5
33C
330
2
100
AcDbEntity
  8
0
100
AcDbLine
 10
0.5625
 20
2.124999999999998
 30
0.0
 11
0.625
 21
2.10077868587827
 31
0.0
  0
LINE
  5
33D
330
2
100
AcDbEntity
  8
0
100
AcDbLine
 10
0.625
 20
2.649221314121727
 30
0.0
 11
0.6875
 21
2.624999999999998
 31
0.0
  0
LINE
  5
33E
330
2
100
AcDbEntity
  8
0
100
AcDbLine
 10
0.5625
 20
2.624999999999998
 30
0.0
 11
0.625
 21
2.649221314121727
 31
0.0
  0
LINE
  5
33F
330
2
100
AcDbEntity
  8
0
100
AcDbLine
 10
-1.0625
 20
4.249999999999998
 30
0.0
 11
-1.0625
 21
4.749999999999998
 31
0.0
  0
LINE
  5
340
330
2
100
AcDbEntity
  8
0
100
AcDbLine
 10
-1.1875
 20
4.249999999999998
 30
0.0
 11
-1.1875
 21
4.749999999999998
 31
0.0
  0
LINE
  5
341
330
2
100
AcDbEntity
  8
0
100
AcDbLine
 10
-0.8125
 20
4.249999999999998
 30
0.0
 11
-0.8125
 21
4.749999999999998
 31
0.0
  0
LINE
  5
342
330
2
100
AcDbEntity
  8
0
100
AcDbLine
 10
-0.9375
 20
4.249999999999998
 30
0.0
 11
-0.9375
 21
4.749999999999998
 31
0.0
  0
LINE
  5
343
330
2
100
AcDbEntity
  8
0
100
AcDbLine
 10
-0.5625
 20
4.249999999999998
 30
0.0
 11
-0.5625
 21
4.749999999999998
 31
0.0
  0
LINE
  5
344
330
2
100
AcDbEntity
  8
0
100
AcDbLine
 10
-0.6875
 20
4.249999999999998
 30
0.0
 11
-0.6875
 21
4.749999999999998
 31
0.0
  0
LINE
  5
345
330
2
100
AcDbEntity
  8
0
100
AcDbLine
 10
-0.3125
 20
4.249999999999998
 30
0.0
 11
-0.3125
 21
4.749999999999998
 31
0.0
  0
LINE
  5
346
330
2
100
AcDbEntity
  8
0
100
AcDbLine
 10
-0.4375
 20
4.249999999999998
 30
0.0
 11
-0.4375
 21
4.749999999999998
 31
0.0
  0
LINE
  5
347
330
2
100
AcDbEntity
  8
0
100
AcDbLine
 10
-1.0625
 20
3.374999999999998
 30
0.0
 11
-1.0625
 21
3.874999999999998
 31
0.0
  0
LINE
  5
348
330
2
100
AcDbEntity
  8
0
100
AcDbLine
 10
-1.1875
 20
3.374999999999998
 30
0.0
 11
-1.1875
 21
3.874999999999998
 31
0.0
  0
LINE
  5
349
330
2
100
AcDbEntity
  8
0
100
AcDbLine
 10
-1.1875
 20
3.874999999999998
 30
0.0
 11
-1.125
 21
3.899221314121727
 31
0.0
  0
LINE
  5
34A
330
2
100
AcDbEntity
  8
0
100
AcDbLine
 10
-1.125
 20
3.899221314121727
 30
0.0
 11
-1.0625
 21
3.874999999999998
 31
0.0
  0
LINE
  5
34B
330
2
100
AcDbEntity
  8
0
100
AcDbLine
 10
-0.8125
 20
3.374999999999998
 30
0.0
 11
-0.8125
 21
3.874999999999998
 31
0.0
  0
LINE
  5
34C
330
2
100
AcDbEntity
  8
0
100
AcDbLine
 10
-0.9375
 20
3.374999999999998
 30
0.0
 11
-0.9375
 21
3.874999999999998
 31
0.0
  0
LINE
  5
34D
330
2
100
AcDbEntity
  8
0
100
AcDbLine
 10
-0.9375
 20
3.874999999999998
 30
0.0
 11
-0.875
 21
3.899221314121727
 31
0.0
  0
LINE
  5
34E
330
2
100
AcDbEntity
  8
0
100
AcDbLine
 10
-0.875
 20
3.899221314121727
 30
0.0
 11
-0.8125
 21
3.874999999999998
 31
0.0
  0
LINE
  5
34F
330
2
100
AcDbEntity
  8
0
100
AcDbLine
 10
-1.1875
 20
4.249999999999998
 30
0.0
 11
-1.125
 21
4.22577868587827
 31
0.0
  0
LINE
  5
350
330
2
100
AcDbEntity
  8
0
100
AcDbLine
 10
-1.125
 20
4.22577868587827
 30
0.0
 11
-1.0625
 21
4.249999999999998
 31
0.0
  0
LINE
  5
351
330
2
100
AcDbEntity
  8
0
100
AcDbLine
 10
-0.9375
 20
4.249999999999998
 30
0.0
 11
-0.875
 21
4.22577868587827
 31
0.0
  0
LINE
  5
352
330
2
100
AcDbEntity
  8
0
100
AcDbLine
 10
-0.875
 20
4.22577868587827
 30
0.0
 11
-0.8125
 21
4.249999999999998
 31
0.0
  0
LINE
  5
353
330
2
100
AcDbEntity
  8
0
100
AcDbLine
 10
-0.5625
 20
3.374999999999998
 30
0.0
 11
-0.5625
 21
3.874999999999998
 31
0.0
  0
LINE
  5
354
330
2
100
AcDbEntity
  8
0
100
AcDbLine
 10
-0.6875
 20
3.374999999999998
 30
0.0
 11
-0.6875
 21
3.874999999999998
 31
0.0
  0
LINE
  5
355
330
2
100
AcDbEntity
  8
0
100
AcDbLine
 10
-0.625
 20
3.899221314121727
 30
0.0
 11
-0.5625
 21
3.874999999999998
 31
0.0
  0
LINE
  5
356
330
2
100
AcDbEntity
  8
0
100
AcDbLine
 10
-0.6875
 20
3.874999999999998
 30
0.0
 11
-0.625
 21
3.899221314121727
 31
0.0
  0
LINE
  5
357
330
2
100
AcDbEntity
  8
0
100
AcDbLine
 10
-0.4375
 20
3.374999999999998
 30
0.0
 11
-0.4375
 21
3.874999999999998
 31
0.0
  0
LINE
  5
358
330
2
100
AcDbEntity
  8
0
100
AcDbLine
 10
-0.3125
 20
3.374999999999998
 30
0.0
 11
-0.3125
 21
3.874999999999998
 31
0.0
  0
LINE
  5
359
330
2
100
AcDbEntity
  8
0
100
AcDbLine
 10
-0.375
 20
3.899221314121727
 30
0.0
 11
-0.3125
 21
3.874999999999998
 31
0.0
  0
LINE
  5
35A
330
2
100
AcDbEntity
  8
0
100
AcDbLine
 10
-0.4375
 20
3.874999999999998
 30
0.0
 11
-0.375
 21
3.899221314121727
 31
0.0
  0
LINE
  5
35B
330
2
100
AcDbEntity
  8
0
100
AcDbLine
 10
-0.625
 20
4.22577868587827
 30
0.0
 11
-0.5625
 21
4.249999999999998
 31
0.0
  0
LINE
  5
35C
330
2
100
AcDbEntity
  8
0
100
AcDbLine
 10
-0.6875
 20
4.249999999999998
 30
0.0
 11
-0.625
 21
4.22577868587827
 31
0.0
  0
LINE
  5
35D
330
2
100
AcDbEntity
  8
0
100
AcDbLine
 10
-0.375
 20
4.22577868587827
 30
0.0
 11
-0.3125
 21
4.249999999999998
 31
0.0
  0
LINE
  5
35E
330
2
100
AcDbEntity
  8
0
100
AcDbLine
 10
-0.4375
 20
4.249999999999998
 30
0.0
 11
-0.375
 21
4.22577868587827
 31
0.0
  0
LINE
  5
35F
330
2
100
AcDbEntity
  8
0
100
AcDbLine
 10
-1.0625
 20
5.249999999999998
 30
0.0
 11
-1.0625
 21
5.749999999999998
 31
0.0
  0
LINE
  5
360
330
2
100
AcDbEntity
  8
0
100
AcDbLine
 10
-1.1875
 20
5.249999999999998
 30
0.0
 11
-1.1875
 21
5.749999999999998
 31
0.0
  0
LINE
  5
361
330
2
100
AcDbEntity
  8
0
100
AcDbLine
 10
-0.8125
 20
5.249999999999998
 30
0.0
 11
-0.8125
 21
5.749999999999998
 31
0.0
  0
LINE
  5
362
330
2
100
AcDbEntity
  8
0
100
AcDbLine
 10
-0.9375
 20
5.249999999999998
 30
0.0
 11
-0.9375
 21
5.749999999999998
 31
0.0
  0
LINE
  5
363
330
2
100
AcDbEntity
  8
0
100
AcDbLine
 10
-1.1875
 20
4.749999999999998
 30
0.0
 11
-1.125
 21
4.774221314121727
 31
0.0
  0
LINE
  5
364
330
2
100
AcDbEntity
  8
0
100
AcDbLine
 10
-1.125
 20
4.774221314121727
 30
0.0
 11
-1.0625
 21
4.749999999999998
 31
0.0
  0
LINE
  5
365
330
2
100
AcDbEntity
  8
0
100
AcDbLine
 10
-1.1875
 20
5.249999999999998
 30
0.0
 11
-1.125
 21
5.22577868587827
 31
0.0
  0
LINE
  5
366
330
2
100
AcDbEntity
  8
0
100
AcDbLine
 10
-1.125
 20
5.22577868587827
 30
0.0
 11
-1.0625
 21
5.249999999999998
 31
0.0
  0
LINE
  5
367
330
2
100
AcDbEntity
  8
0
100
AcDbLine
 10
-0.9375
 20
4.749999999999998
 30
0.0
 11
-0.875
 21
4.774221314121727
 31
0.0
  0
LINE
  5
368
330
2
100
AcDbEntity
  8
0
100
AcDbLine
 10
-0.875
 20
4.774221314121727
 30
0.0
 11
-0.8125
 21
4.749999999999998
 31
0.0
  0
LINE
  5
369
330
2
100
AcDbEntity
  8
0
100
AcDbLine
 10
-0.9375
 20
5.249999999999998
 30
0.0
 11
-0.875
 21
5.22577868587827
 31
0.0
  0
LINE
  5
36A
330
2
100
AcDbEntity
  8
0
100
AcDbLine
 10
-0.875
 20
5.22577868587827
 30
0.0
 11
-0.8125
 21
5.249999999999998
 31
0.0
  0
LINE
  5
36B
330
2
100
AcDbEntity
  8
0
100
AcDbLine
 10
-1.125
 20
5.774221314121727
 30
0.0
 11
-1.0625
 21
5.749999999999998
 31
0.0
  0
LINE
  5
36C
330
2
100
AcDbEntity
  8
0
100
AcDbLine
 10
-1.1875
 20
5.749999999999998
 30
0.0
 11
-1.125
 21
5.774221314121727
 31
0.0
  0
LINE
  5
36D
330
2
100
AcDbEntity
  8
0
100
AcDbLine
 10
-0.875
 20
5.774221314121727
 30
0.0
 11
-0.8125
 21
5.749999999999998
 31
0.0
  0
LINE
  5
36E
330
2
100
AcDbEntity
  8
0
100
AcDbLine
 10
-0.9375
 20
5.749999999999998
 30
0.0
 11
-0.875
 21
5.774221314121727
 31
0.0
  0
LINE
  5
36F
330
2
100
AcDbEntity
  8
0
100
AcDbLine
 10
-0.5625
 20
5.249999999999998
 30
0.0
 11
-0.5625
 21
5.749999999999998
 31
0.0
  0
LINE
  5
370
330
2
100
AcDbEntity
  8
0
100
AcDbLine
 10
-0.6875
 20
5.249999999999998
 30
0.0
 11
-0.6875
 21
5.749999999999998
 31
0.0
  0
LINE
  5
371
330
2
100
AcDbEntity
  8
0
100
AcDbLine
 10
-0.3125
 20
5.249999999999998
 30
0.0
 11
-0.3125
 21
5.749999999999998
 31
0.0
  0
LINE
  5
372
330
2
100
AcDbEntity
  8
0
100
AcDbLine
 10
-0.4375
 20
5.249999999999998
 30
0.0
 11
-0.4375
 21
5.749999999999998
 31
0.0
  0
LINE
  5
373
330
2
100
AcDbEntity
  8
0
100
AcDbLine
 10
-0.625
 20
4.774221314121727
 30
0.0
 11
-0.5625
 21
4.749999999999998
 31
0.0
  0
LINE
  5
374
330
2
100
AcDbEntity
  8
0
100
AcDbLine
 10
-0.6875
 20
4.749999999999998
 30
0.0
 11
-0.625
 21
4.774221314121727
 31
0.0
  0
LINE
  5
375
330
2
100
AcDbEntity
  8
0
100
AcDbLine
 10
-0.625
 20
5.22577868587827
 30
0.0
 11
-0.5625
 21
5.249999999999998
 31
0.0
  0
LINE
  5
376
330
2
100
AcDbEntity
  8
0
100
AcDbLine
 10
-0.6875
 20
5.249999999999998
 30
0.0
 11
-0.625
 21
5.22577868587827
 31
0.0
  0
LINE
  5
377
330
2
100
AcDbEntity
  8
0
100
AcDbLine
 10
-0.375
 20
4.774221314121727
 30
0.0
 11
-0.3125
 21
4.749999999999998
 31
0.0
  0
LINE
  5
378
330
2
100
AcDbEntity
  8
0
100
AcDbLine
 10
-0.4375
 20
4.749999999999998
 30
0.0
 11
-0.375
 21
4.774221314121727
 31
0.0
  0
LINE
  5
379
330
2
100
AcDbEntity
  8
0
100
AcDbLine
 10
-0.375
 20
5.22577868587827
 30
0.0
 11
-0.3125
 21
5.249999999999998
 31
0.0
  0
LINE
  5
37A
330
2
100
AcDbEntity
  8
0
100
AcDbLine
 10
-0.4375
 20
5.249999999999998
 30
0.0
 11
-0.375
 21
5.22577868587827
 31
0.0
  0
LINE
  5
37B
330
2
100
AcDbEntity
  8
0
100
AcDbLine
 10
-0.625
 20
5.774221314121727
 30
0.0
 11
-0.5625
 21
5.749999999999998
 31
0.0
  0
LINE
  5
37C
330
2
100
AcDbEntity
  8
0
100
AcDbLine
 10
-0.6875
 20
5.749999999999998
 30
0.0
 11
-0.625
 21
5.774221314121727
 31
0.0
  0
LINE
  5
37D
330
2
100
AcDbEntity
  8
0
100
AcDbLine
 10
-0.375
 20
5.774221314121727
 30
0.0
 11
-0.3125
 21
5.749999999999998
 31
0.0
  0
LINE
  5
37E
330
2
100
AcDbEntity
  8
0
100
AcDbLine
 10
-0.4375
 20
5.749999999999998
 30
0.0
 11
-0.375
 21
5.774221314121727
 31
0.0
  0
LINE
  5
37F
330
2
100
AcDbEntity
  8
0
100
AcDbLine
 10
-0.0625
 20
4.249999999999998
 30
0.0
 11
-0.0625
 21
4.749999999999998
 31
0.0
  0
LINE
  5
380
330
2
100
AcDbEntity
  8
0
100
AcDbLine
 10
-0.1875
 20
4.249999999999998
 30
0.0
 11
-0.1875
 21
4.749999999999998
 31
0.0
  0
LINE
  5
381
330
2
100
AcDbEntity
  8
0
100
AcDbLine
 10
0.1875
 20
4.249999999999998
 30
0.0
 11
0.1875
 21
4.749999999999998
 31
0.0
  0
LINE
  5
382
330
2
100
AcDbEntity
  8
0
100
AcDbLine
 10
0.0625
 20
4.249999999999998
 30
0.0
 11
0.0625
 21
4.749999999999998
 31
0.0
  0
LINE
  5
383
330
2
100
AcDbEntity
  8
0
100
AcDbLine
 10
0.4375
 20
4.249999999999998
 30
0.0
 11
0.4375
 21
4.749999999999998
 31
0.0
  0
LINE
  5
384
330
2
100
AcDbEntity
  8
0
100
AcDbLine
 10
0.3125
 20
4.249999999999998
 30
0.0
 11
0.3125
 21
4.749999999999998
 31
0.0
  0
LINE
  5
385
330
2
100
AcDbEntity
  8
0
100
AcDbLine
 10
0.6875
 20
4.249999999999998
 30
0.0
 11
0.6875
 21
4.749999999999998
 31
0.0
  0
LINE
  5
386
330
2
100
AcDbEntity
  8
0
100
AcDbLine
 10
0.5625
 20
4.249999999999998
 30
0.0
 11
0.5625
 21
4.749999999999998
 31
0.0
  0
LINE
  5
387
330
2
100
AcDbEntity
  8
0
100
AcDbLine
 10
0.8125
 20
4.249999999999998
 30
0.0
 11
0.8125
 21
4.749999999999998
 31
0.0
  0
LINE
  5
388
330
2
100
AcDbEntity
  8
0
100
AcDbLine
 10
-0.125
 20
4.22577868587827
 30
0.0
 11
-0.0625
 21
4.249999999999998
 31
0.0
  0
LINE
  5
389
330
2
100
AcDbEntity
  8
0
100
AcDbLine
 10
-0.1875
 20
4.249999999999998
 30
0.0
 11
-0.125
 21
4.22577868587827
 31
0.0
  0
LINE
  5
38A
330
2
100
AcDbEntity
  8
0
100
AcDbLine
 10
0.125
 20
4.22577868587827
 30
0.0
 11
0.1875
 21
4.249999999999998
 31
0.0
  0
LINE
  5
38B
330
2
100
AcDbEntity
  8
0
100
AcDbLine
 10
0.0625
 20
4.249999999999998
 30
0.0
 11
0.125
 21
4.22577868587827
 31
0.0
  0
LINE
  5
38C
330
2
100
AcDbEntity
  8
0
100
AcDbLine
 10
0.4375
 20
3.374999999999998
 30
0.0
 11
0.4375
 21
3.874999999999998
 31
0.0
  0
LINE
  5
38D
330
2
100
AcDbEntity
  8
0
100
AcDbLine
 10
0.3125
 20
3.374999999999998
 30
0.0
 11
0.3125
 21
3.874999999999998
 31
0.0
  0
LINE
  5
38E
330
2
100
AcDbEntity
  8
0
100
AcDbLine
 10
0.375
 20
3.899221314121727
 30
0.0
 11
0.4375
 21
3.874999999999998
 31
0.0
  0
LINE
  5
38F
330
2
100
AcDbEntity
  8
0
100
AcDbLine
 10
0.3125
 20
3.874999999999998
 30
0.0
 11
0.375
 21
3.899221314121727
 31
0.0
  0
LINE
  5
390
330
2
100
AcDbEntity
  8
0
100
AcDbLine
 10
0.6875
 20
3.374999999999998
 30
0.0
 11
0.6875
 21
3.874999999999998
 31
0.0
  0
LINE
  5
391
330
2
100
AcDbEntity
  8
0
100
AcDbLine
 10
0.5625
 20
3.374999999999998
 30
0.0
 11
0.5625
 21
3.874999999999998
 31
0.0
  0
LINE
  5
392
330
2
100
AcDbEntity
  8
0
100
AcDbLine
 10
0.8125
 20
3.374999999999998
 30
0.0
 11
0.8125
 21
3.874999999999998
 31
0.0
  0
LINE
  5
393
330
2
100
AcDbEntity
  8
0
100
AcDbLine
 10
0.625
 20
3.899221314121727
 30
0.0
 11
0.6875
 21
3.874999999999998
 31
0.0
  0
LINE
  5
394
330
2
100
AcDbEntity
  8
0
100
AcDbLine
 10
0.5625
 20
3.874999999999998
 30
0.0
 11
0.625
 21
3.899221314121727
 31
0.0
  0
LINE
  5
395
330
2
100
AcDbEntity
  8
0
100
AcDbLine
 10
0.375
 20
4.22577868587827
 30
0.0
 11
0.4375
 21
4.249999999999998
 31
0.0
  0
LINE
  5
396
330
2
100
AcDbEntity
  8
0
100
AcDbLine
 10
0.3125
 20
4.249999999999998
 30
0.0
 11
0.375
 21
4.22577868587827
 31
0.0
  0
LINE
  5
397
330
2
100
AcDbEntity
  8
0
100
AcDbLine
 10
0.625
 20
4.22577868587827
 30
0.0
 11
0.6875
 21
4.249999999999998
 31
0.0
  0
LINE
  5
398
330
2
100
AcDbEntity
  8
0
100
AcDbLine
 10
0.5625
 20
4.249999999999998
 30
0.0
 11
0.625
 21
4.22577868587827
 31
0.0
  0
LINE
  5
399
330
2
100
AcDbEntity
  8
0
100
AcDbLine
 10
-0.0625
 20
5.249999999999998
 30
0.0
 11
-0.0625
 21
5.749999999999998
 31
0.0
  0
LINE
  5
39A
330
2
100
AcDbEntity
  8
0
100
AcDbLine
 10
-0.1875
 20
5.249999999999998
 30
0.0
 11
-0.1875
 21
5.749999999999998
 31
0.0
  0
LINE
  5
39B
330
2
100
AcDbEntity
  8
0
100
AcDbLine
 10
0.1875
 20
5.249999999999998
 30
0.0
 11
0.1875
 21
5.749999999999998
 31
0.0
  0
LINE
  5
39C
330
2
100
AcDbEntity
  8
0
100
AcDbLine
 10
0.0625
 20
5.249999999999998
 30
0.0
 11
0.0625
 21
5.749999999999998
 31
0.0
  0
LINE
  5
39D
330
2
100
AcDbEntity
  8
0
100
AcDbLine
 10
-0.125
 20
4.774221314121727
 30
0.0
 11
-0.0625
 21
4.749999999999998
 31
0.0
  0
LINE
  5
39E
330
2
100
AcDbEntity
  8
0
100
AcDbLine
 10
-0.1875
 20
4.749999999999998
 30
0.0
 11
-0.125
 21
4.774221314121727
 31
0.0
  0
LINE
  5
39F
330
2
100
AcDbEntity
  8
0
100
AcDbLine
 10
-0.125
 20
5.22577868587827
 30
0.0
 11
-0.0625
 21
5.249999999999998
 31
0.0
  0
LINE
  5
3A0
330
2
100
AcDbEntity
  8
0
100
AcDbLine
 10
-0.1875
 20
5.249999999999998
 30
0.0
 11
-0.125
 21
5.22577868587827
 31
0.0
  0
LINE
  5
3A1
330
2
100
AcDbEntity
  8
0
100
AcDbLine
 10
0.125
 20
4.774221314121727
 30
0.0
 11
0.1875
 21
4.749999999999998
 31
0.0
  0
LINE
  5
3A2
330
2
100
AcDbEntity
  8
0
100
AcDbLine
 10
0.0625
 20
4.749999999999998
 30
0.0
 11
0.125
 21
4.774221314121727
 31
0.0
  0
LINE
  5
3A3
330
2
100
AcDbEntity
  8
0
100
AcDbLine
 10
0.125
 20
5.22577868587827
 30
0.0
 11
0.1875
 21
5.249999999999998
 31
0.0
  0
LINE
  5
3A4
330
2
100
AcDbEntity
  8
0
100
AcDbLine
 10
0.0625
 20
5.249999999999998
 30
0.0
 11
0.125
 21
5.22577868587827
 31
0.0
  0
LINE
  5
3A5
330
2
100
AcDbEntity
  8
0
100
AcDbLine
 10
-0.125
 20
5.774221314121727
 30
0.0
 11
-0.0625
 21
5.749999999999998
 31
0.0
  0
LINE
  5
3A6
330
2
100
AcDbEntity
  8
0
100
AcDbLine
 10
-0.1875
 20
5.749999999999998
 30
0.0
 11
-0.125
 21
5.774221314121727
 31
0.0
  0
LINE
  5
3A7
330
2
100
AcDbEntity
  8
0
100
AcDbLine
 10
0.125
 20
5.774221314121727
 30
0.0
 11
0.1875
 21
5.749999999999998
 31
0.0
  0
LINE
  5
3A8
330
2
100
AcDbEntity
  8
0
100
AcDbLine
 10
0.0625
 20
5.749999999999998
 30
0.0
 11
0.125
 21
5.774221314121727
 31
0.0
  0
LINE
  5
3A9
330
2
100
AcDbEntity
  8
0
100
AcDbLine
 10
0.4375
 20
5.249999999999998
 30
0.0
 11
0.4375
 21
5.749999999999998
 31
0.0
  0
LINE
  5
3AA
330
2
100
AcDbEntity
  8
0
100
AcDbLine
 10
0.3125
 20
5.249999999999998
 30
0.0
 11
0.3125
 21
5.749999999999998
 31
0.0
  0
LINE
  5
3AB
330
2
100
AcDbEntity
  8
0
100
AcDbLine
 10
0.6875
 20
5.249999999999998
 30
0.0
 11
0.6875
 21
5.749999999999998
 31
0.0
  0
LINE
  5
3AC
330
2
100
AcDbEntity
  8
0
100
AcDbLine
 10
0.5625
 20
5.249999999999998
 30
0.0
 11
0.5625
 21
5.749999999999998
 31
0.0
  0
LINE
  5
3AD
330
2
100
AcDbEntity
  8
0
100
AcDbLine
 10
0.8125
 20
5.249999999999998
 30
0.0
 11
0.8125
 21
5.749999999999998
 31
0.0
  0
LINE
  5
3AE
330
2
100
AcDbEntity
  8
0
100
AcDbLine
 10
0.375
 20
4.774221314121727
 30
0.0
 11
0.4375
 21
4.749999999999998
 31
0.0
  0
LINE
  5
3AF
330
2
100
AcDbEntity
  8
0
100
AcDbLine
 10
0.3125
 20
4.749999999999998
 30
0.0
 11
0.375
 21
4.774221314121727
 31
0.0
  0
LINE
  5
3B0
330
2
100
AcDbEntity
  8
0
100
AcDbLine
 10
0.375
 20
5.22577868587827
 30
0.0
 11
0.4375
 21
5.249999999999998
 31
0.0
  0
LINE
  5
3B1
330
2
100
AcDbEntity
  8
0
100
AcDbLine
 10
0.3125
 20
5.249999999999998
 30
0.0
 11
0.375
 21
5.22577868587827
 31
0.0
  0
LINE
  5
3B2
330
2
100
AcDbEntity
  8
0
100
AcDbLine
 10
0.625
 20
4.774221314121727
 30
0.0
 11
0.6875
 21
4.749999999999998
 31
0.0
  0
LINE
  5
3B3
330
2
100
AcDbEntity
  8
0
100
AcDbLine
 10
0.5625
 20
4.749999999999998
 30
0.0
 11
0.625
 21
4.774221314121727
 31
0.0
  0
LINE
  5
3B4
330
2
100
AcDbEntity
  8
0
100
AcDbLine
 10
0.625
 20
5.22577868587827
 30
0.0
 11
0.6875
 21
5.249999999999998
 31
0.0
  0
LINE
  5
3B5
330
2
100
AcDbEntity
  8
0
100
AcDbLine
 10
0.5625
 20
5.249999999999998
 30
0.0
 11
0.625
 21
5.22577868587827
 31
0.0
  0
LINE
  5
3B6
330
2
100
AcDbEntity
  8
0
100
AcDbLine
 10
0.375
 20
5.774221314121727
 30
0.0
 11
0.4375
 21
5.749999999999998
 31
0.0
  0
LINE
  5
3B7
330
2
100
AcDbEntity
  8
0
100
AcDbLine
 10
0.3125
 20
5.749999999999998
 30
0.0
 11
0.375
 21
5.774221314121727
 31
0.0
  0
LINE
  5
3B8
330
2
100
AcDbEntity
  8
0
100
AcDbLine
 10
0.625
 20
5.774221314121727
 30
0.0
 11
0.6875
 21
5.749999999999998
 31
0.0
  0
LINE
  5
3B9
330
2
100
AcDbEntity
  8
0
100
AcDbLine
 10
0.5625
 20
5.749999999999998
 30
0.0
 11
0.625
 21
5.774221314121727
 31
0.0
  0
LINE
  5
3BA
330
2
100
AcDbEntity
  8
0
100
AcDbLine
 10
1.3125
 20
0.2499999999999982
 30
0.0
 11
1.3125
 21
0.7499999999999982
 31
0.0
  0
LINE
  5
3BB
330
2
100
AcDbEntity
  8
0
100
AcDbLine
 10
1.4375
 20
0.2499999999999982
 30
0.0
 11
1.4375
 21
0.7499999999999982
 31
0.0
  0
LINE
  5
3BC
330
2
100
AcDbEntity
  8
0
100
AcDbLine
 10
1.0625
 20
0.2499999999999982
 30
0.0
 11
1.0625
 21
0.7499999999999982
 31
0.0
  0
LINE
  5
3BD
330
2
100
AcDbEntity
  8
0
100
AcDbLine
 10
1.1875
 20
0.2499999999999982
 30
0.0
 11
1.1875
 21
0.7499999999999982
 31
0.0
  0
LINE
  5
3BE
330
2
100
AcDbEntity
  8
0
100
AcDbLine
 10
0.9375
 20
0.2499999999999982
 30
0.0
 11
0.9375
 21
0.7499999999999982
 31
0.0
  0
LINE
  5
3BF
330
2
100
AcDbEntity
  8
0
100
AcDbLine
 10
1.5
 20
5.999999999999998
 30
0.0
 11
1.5
 21
0.0
 31
0.0
  0
LINE
  5
3C0
330
2
100
AcDbEntity
  8
0
100
AcDbLine
 10
1.3125
 20
0.2499999999999982
 30
0.0
 11
1.375
 21
0.2257786858782698
 31
0.0
  0
LINE
  5
3C1
330
2
100
AcDbEntity
  8
0
100
AcDbLine
 10
1.0625
 20
0.2499999999999982
 30
0.0
 11
1.125
 21
0.2257786858782698
 31
0.0
  0
LINE
  5
3C2
330
2
100
AcDbEntity
  8
0
100
AcDbLine
 10
0.875
 20
0.2257786858782698
 30
0.0
 11
0.9375
 21
0.2499999999999982
 31
0.0
  0
LINE
  5
3C3
330
2
100
AcDbEntity
  8
0
100
AcDbLine
 10
1.125
 20
0.2257786858782698
 30
0.0
 11
1.1875
 21
0.2499999999999982
 31
0.0
  0
LINE
  5
3C4
330
2
100
AcDbEntity
  8
0
100
AcDbLine
 10
1.375
 20
0.2257786858782698
 30
0.0
 11
1.4375
 21
0.2499999999999982
 31
0.0
  0
LINE
  5
3C5
330
2
100
AcDbEntity
  8
0
100
AcDbLine
 10
0.875
 20
3.35077868587827
 30
0.0
 11
0.9375
 21
3.374999999999998
 31
0.0
  0
LINE
  5
3C6
330
2
100
AcDbEntity
  8
0
100
AcDbLine
 10
1.0625
 20
3.374999999999998
 30
0.0
 11
1.125
 21
3.35077868587827
 31
0.0
  0
LINE
  5
3C7
330
2
100
AcDbEntity
  8
0
100
AcDbLine
 10
1.125
 20
3.35077868587827
 30
0.0
 11
1.1875
 21
3.374999999999998
 31
0.0
  0
LINE
  5
3C8
330
2
100
AcDbEntity
  8
0
100
AcDbLine
 10
1.3125
 20
3.374999999999998
 30
0.0
 11
1.375
 21
3.35077868587827
 31
0.0
  0
LINE
  5
3C9
330
2
100
AcDbEntity
  8
0
100
AcDbLine
 10
1.375
 20
3.35077868587827
 30
0.0
 11
1.4375
 21
3.374999999999998
 31
0.0
  0
LINE
  5
3CA
330
2
100
AcDbEntity
  8
0
100
AcDbLine
 10
1.3125
 20
1.249999999999998
 30
0.0
 11
1.375
 21
1.22577868587827
 31
0.0
  0
LINE
  5
3CB
330
2
100
AcDbEntity
  8
0
100
AcDbLine
 10
1.3125
 20
1.749999999999998
 30
0.0
 11
1.375
 21
1.774221314121727
 31
0.0
  0
LINE
  5
3CC
330
2
100
AcDbEntity
  8
0
100
AcDbLine
 10
1.3125
 20
0.7499999999999982
 30
0.0
 11
1.375
 21
0.7742213141217267
 31
0.0
  0
LINE
  5
3CD
330
2
100
AcDbEntity
  8
0
100
AcDbLine
 10
0.9375
 20
1.249999999999998
 30
0.0
 11
0.9375
 21
1.749999999999998
 31
0.0
  0
LINE
  5
3CE
330
2
100
AcDbEntity
  8
0
100
AcDbLine
 10
1.1875
 20
1.249999999999998
 30
0.0
 11
1.1875
 21
1.749999999999998
 31
0.0
  0
LINE
  5
3CF
330
2
100
AcDbEntity
  8
0
100
AcDbLine
 10
1.0625
 20
1.249999999999998
 30
0.0
 11
1.0625
 21
1.749999999999998
 31
0.0
  0
LINE
  5
3D0
330
2
100
AcDbEntity
  8
0
100
AcDbLine
 10
1.3125
 20
1.249999999999998
 30
0.0
 11
1.3125
 21
1.749999999999998
 31
0.0
  0
LINE
  5
3D1
330
2
100
AcDbEntity
  8
0
100
AcDbLine
 10
1.0625
 20
1.249999999999998
 30
0.0
 11
1.125
 21
1.22577868587827
 31
0.0
  0
LINE
  5
3D2
330
2
100
AcDbEntity
  8
0
100
AcDbLine
 10
1.0625
 20
0.7499999999999982
 30
0.0
 11
1.125
 21
0.7742213141217267
 31
0.0
  0
LINE
  5
3D3
330
2
100
AcDbEntity
  8
0
100
AcDbLine
 10
0.875
 20
0.7742213141217267
 30
0.0
 11
0.9375
 21
0.7499999999999982
 31
0.0
  0
LINE
  5
3D4
330
2
100
AcDbEntity
  8
0
100
AcDbLine
 10
0.875
 20
1.22577868587827
 30
0.0
 11
0.9375
 21
1.249999999999998
 31
0.0
  0
LINE
  5
3D5
330
2
100
AcDbEntity
  8
0
100
AcDbLine
 10
1.125
 20
0.7742213141217267
 30
0.0
 11
1.1875
 21
0.7499999999999982
 31
0.0
  0
LINE
  5
3D6
330
2
100
AcDbEntity
  8
0
100
AcDbLine
 10
1.125
 20
1.22577868587827
 30
0.0
 11
1.1875
 21
1.249999999999998
 31
0.0
  0
LINE
  5
3D7
330
2
100
AcDbEntity
  8
0
100
AcDbLine
 10
1.0625
 20
1.749999999999998
 30
0.0
 11
1.125
 21
1.774221314121727
 31
0.0
  0
LINE
  5
3D8
330
2
100
AcDbEntity
  8
0
100
AcDbLine
 10
0.875
 20
1.774221314121727
 30
0.0
 11
0.9375
 21
1.749999999999998
 31
0.0
  0
LINE
  5
3D9
330
2
100
AcDbEntity
  8
0
100
AcDbLine
 10
1.125
 20
1.774221314121727
 30
0.0
 11
1.1875
 21
1.749999999999998
 31
0.0
  0
LINE
  5
3DA
330
2
100
AcDbEntity
  8
0
100
AcDbLine
 10
1.4375
 20
1.249999999999998
 30
0.0
 11
1.4375
 21
1.749999999999998
 31
0.0
  0
LINE
  5
3DB
330
2
100
AcDbEntity
  8
0
100
AcDbLine
 10
1.375
 20
0.7742213141217267
 30
0.0
 11
1.4375
 21
0.7499999999999982
 31
0.0
  0
LINE
  5
3DC
330
2
100
AcDbEntity
  8
0
100
AcDbLine
 10
1.375
 20
1.22577868587827
 30
0.0
 11
1.4375
 21
1.249999999999998
 31
0.0
  0
LINE
  5
3DD
330
2
100
AcDbEntity
  8
0
100
AcDbLine
 10
1.375
 20
1.774221314121727
 30
0.0
 11
1.4375
 21
1.749999999999998
 31
0.0
  0
LINE
  5
3DE
330
2
100
AcDbEntity
  8
0
100
AcDbLine
 10
1.4375
 20
3.011068342699989
 30
0.0
 11
1.271791647403351
 21
2.84535999010334
 31
0.0
  0
LINE
  5
3DF
330
2
100
AcDbEntity
  8
0
100
AcDbLine
 10
1.4375
 20
3.011068342699989
 30
0.0
 11
1.271791647403351
 21
3.176776695296637
 31
0.0
  0
LINE
  5
3E0
330
2
100
AcDbEntity
  8
0
100
AcDbLine
 10
1.3125
 20
2.124999999999998
 30
0.0
 11
1.375
 21
2.10077868587827
 31
0.0
  0
LINE
  5
3E1
330
2
100
AcDbEntity
  8
0
100
AcDbLine
 10
1.3125
 20
2.624999999999998
 30
0.0
 11
1.375
 21
2.649221314121727
 31
0.0
  0
LINE
  5
3E2
330
2
100
AcDbEntity
  8
0
100
AcDbLine
 10
1.0625
 20
2.124999999999998
 30
0.0
 11
1.125
 21
2.10077868587827
 31
0.0
  0
LINE
  5
3E3
330
2
100
AcDbEntity
  8
0
100
AcDbLine
 10
1.0625
 20
2.624999999999998
 30
0.0
 11
1.125
 21
2.649221314121727
 31
0.0
  0
LINE
  5
3E4
330
2
100
AcDbEntity
  8
0
100
AcDbLine
 10
0.9375
 20
2.124999999999998
 30
0.0
 11
0.9375
 21
2.624999999999998
 31
0.0
  0
LINE
  5
3E5
330
2
100
AcDbEntity
  8
0
100
AcDbLine
 10
1.0625
 20
2.124999999999998
 30
0.0
 11
1.0625
 21
2.624999999999998
 31
0.0
  0
LINE
  5
3E6
330
2
100
AcDbEntity
  8
0
100
AcDbLine
 10
0.875
 20
2.10077868587827
 30
0.0
 11
0.9375
 21
2.124999999999998
 31
0.0
  0
LINE
  5
3E7
330
2
100
AcDbEntity
  8
0
100
AcDbLine
 10
0.875
 20
2.649221314121727
 30
0.0
 11
0.9375
 21
2.624999999999998
 31
0.0
  0
LINE
  5
3E8
330
2
100
AcDbEntity
  8
0
100
AcDbLine
 10
1.1875
 20
2.124999999999998
 30
0.0
 11
1.1875
 21
2.624999999999998
 31
0.0
  0
LINE
  5
3E9
330
2
100
AcDbEntity
  8
0
100
AcDbLine
 10
1.3125
 20
2.124999999999998
 30
0.0
 11
1.3125
 21
2.624999999999998
 31
0.0
  0
LINE
  5
3EA
330
2
100
AcDbEntity
  8
0
100
AcDbLine
 10
1.125
 20
2.10077868587827
 30
0.0
 11
1.1875
 21
2.124999999999998
 31
0.0
  0
LINE
  5
3EB
330
2
100
AcDbEntity
  8
0
100
AcDbLine
 10
1.125
 20
2.649221314121727
 30
0.0
 11
1.1875
 21
2.624999999999998
 31
0.0
  0
LINE
  5
3EC
330
2
100
AcDbEntity
  8
0
100
AcDbLine
 10
1.4375
 20
2.124999999999998
 30
0.0
 11
1.4375
 21
2.624999999999998
 31
0.0
  0
LINE
  5
3ED
330
2
100
AcDbEntity
  8
0
100
AcDbLine
 10
1.375
 20
2.10077868587827
 30
0.0
 11
1.4375
 21
2.124999999999998
 31
0.0
  0
LINE
  5
3EE
330
2
100
AcDbEntity
  8
0
100
AcDbLine
 10
1.375
 20
2.649221314121727
 30
0.0
 11
1.4375
 21
2.624999999999998
 31
0.0
  0
LINE
  5
3EF
330
2
100
AcDbEntity
  8
0
100
AcDbLine
 10
0.9375
 20
4.249999999999998
 30
0.0
 11
0.9375
 21
4.749999999999998
 31
0.0
  0
LINE
  5
3F0
330
2
100
AcDbEntity
  8
0
100
AcDbLine
 10
1.1875
 20
4.249999999999998
 30
0.0
 11
1.1875
 21
4.749999999999998
 31
0.0
  0
LINE
  5
3F1
330
2
100
AcDbEntity
  8
0
100
AcDbLine
 10
1.0625
 20
4.249999999999998
 30
0.0
 11
1.0625
 21
4.749999999999998
 31
0.0
  0
LINE
  5
3F2
330
2
100
AcDbEntity
  8
0
100
AcDbLine
 10
1.4375
 20
4.249999999999998
 30
0.0
 11
1.4375
 21
4.749999999999998
 31
0.0
  0
LINE
  5
3F3
330
2
100
AcDbEntity
  8
0
100
AcDbLine
 10
1.3125
 20
4.249999999999998
 30
0.0
 11
1.3125
 21
4.749999999999998
 31
0.0
  0
LINE
  5
3F4
330
2
100
AcDbEntity
  8
0
100
AcDbLine
 10
1.3125
 20
4.249999999999998
 30
0.0
 11
1.375
 21
4.22577868587827
 31
0.0
  0
LINE
  5
3F5
330
2
100
AcDbEntity
  8
0
100
AcDbLine
 10
1.3125
 20
3.874999999999998
 30
0.0
 11
1.375
 21
3.899221314121727
 31
0.0
  0
LINE
  5
3F6
330
2
100
AcDbEntity
  8
0
100
AcDbLine
 10
1.0625
 20
3.874999999999998
 30
0.0
 11
1.125
 21
3.899221314121727
 31
0.0
  0
LINE
  5
3F7
330
2
100
AcDbEntity
  8
0
100
AcDbLine
 10
0.9375
 20
3.374999999999998
 30
0.0
 11
0.9375
 21
3.874999999999998
 31
0.0
  0
LINE
  5
3F8
330
2
100
AcDbEntity
  8
0
100
AcDbLine
 10
1.0625
 20
3.374999999999998
 30
0.0
 11
1.0625
 21
3.874999999999998
 31
0.0
  0
LINE
  5
3F9
330
2
100
AcDbEntity
  8
0
100
AcDbLine
 10
0.875
 20
3.899221314121727
 30
0.0
 11
0.9375
 21
3.874999999999998
 31
0.0
  0
LINE
  5
3FA
330
2
100
AcDbEntity
  8
0
100
AcDbLine
 10
1.1875
 20
3.374999999999998
 30
0.0
 11
1.1875
 21
3.874999999999998
 31
0.0
  0
LINE
  5
3FB
330
2
100
AcDbEntity
  8
0
100
AcDbLine
 10
1.3125
 20
3.374999999999998
 30
0.0
 11
1.3125
 21
3.874999999999998
 31
0.0
  0
LINE
  5
3FC
330
2
100
AcDbEntity
  8
0
100
AcDbLine
 10
1.125
 20
3.899221314121727
 30
0.0
 11
1.1875
 21
3.874999999999998
 31
0.0
  0
LINE
  5
3FD
330
2
100
AcDbEntity
  8
0
100
AcDbLine
 10
1.0625
 20
4.249999999999998
 30
0.0
 11
1.125
 21
4.22577868587827
 31
0.0
  0
LINE
  5
3FE
330
2
100
AcDbEntity
  8
0
100
AcDbLine
 10
0.875
 20
4.22577868587827
 30
0.0
 11
0.9375
 21
4.249999999999998
 31
0.0
  0
LINE
  5
3FF
330
2
100
AcDbEntity
  8
0
100
AcDbLine
 10
1.125
 20
4.22577868587827
 30
0.0
 11
1.1875
 21
4.249999999999998
 31
0.0
  0
LINE
  5
400
330
2
100
AcDbEntity
  8
0
100
AcDbLine
 10
1.4375
 20
3.374999999999998
 30
0.0
 11
1.4375
 21
3.874999999999998
 31
0.0
  0
LINE
  5
401
330
2
100
AcDbEntity
  8
0
100
AcDbLine
 10
1.375
 20
3.899221314121727
 30
0.0
 11
1.4375
 21
3.874999999999998
 31
0.0
  0
LINE
  5
402
330
2
100
AcDbEntity
  8
0
100
AcDbLine
 10
1.375
 20
4.22577868587827
 30
0.0
 11
1.4375
 21
4.249999999999998
 31
0.0
  0
LINE
  5
403
330
2
100
AcDbEntity
  8
0
100
AcDbLine
 10
1.3125
 20
5.249999999999998
 30
0.0
 11
1.375
 21
5.22577868587827
 31
0.0
  0
LINE
  5
404
330
2
100
AcDbEntity
  8
0
100
AcDbLine
 10
1.3125
 20
5.749999999999998
 30
0.0
 11
1.375
 21
5.774221314121727
 31
0.0
  0
LINE
  5
405
330
2
100
AcDbEntity
  8
0
100
AcDbLine
 10
1.3125
 20
4.749999999999998
 30
0.0
 11
1.375
 21
4.774221314121727
 31
0.0
  0
LINE
  5
406
330
2
100
AcDbEntity
  8
0
100
AcDbLine
 10
0.9375
 20
5.249999999999998
 30
0.0
 11
0.9375
 21
5.749999999999998
 31
0.0
  0
LINE
  5
407
330
2
100
AcDbEntity
  8
0
100
AcDbLine
 10
1.1875
 20
5.249999999999998
 30
0.0
 11
1.1875
 21
5.749999999999998
 31
0.0
  0
LINE
  5
408
330
2
100
AcDbEntity
  8
0
100
AcDbLine
 10
1.0625
 20
5.249999999999998
 30
0.0
 11
1.0625
 21
5.749999999999998
 31
0.0
  0
LINE
  5
409
330
2
100
AcDbEntity
  8
0
100
AcDbLine
 10
1.3125
 20
5.249999999999998
 30
0.0
 11
1.3125
 21
5.749999999999998
 31
0.0
  0
LINE
  5
40A
330
2
100
AcDbEntity
  8
0
100
AcDbLine
 10
1.0625
 20
5.249999999999998
 30
0.0
 11
1.125
 21
5.22577868587827
 31
0.0
  0
LINE
  5
40B
330
2
100
AcDbEntity
  8
0
100
AcDbLine
 10
1.0625
 20
4.749999999999998
 30
0.0
 11
1.125
 21
4.774221314121727
 31
0.0
  0
LINE
  5
40C
330
2
100
AcDbEntity
  8
0
100
AcDbLine
 10
0.875
 20
4.774221314121727
 30
0.0
 11
0.9375
 21
4.749999999999998
 31
0.0
  0
LINE
  5
40D
330
2
100
AcDbEntity
  8
0
100
AcDbLine
 10
0.875
 20
5.22577868587827
 30
0.0
 11
0.9375
 21
5.249999999999998
 31
0.0
  0
LINE
  5
40E
330
2
100
AcDbEntity
  8
0
100
AcDbLine
 10
1.125
 20
4.774221314121727
 30
0.0
 11
1.1875
 21
4.749999999999998
 31
0.0
  0
LINE
  5
40F
330
2
100
AcDbEntity
  8
0
100
AcDbLine
 10
1.125
 20
5.22577868587827
 30
0.0
 11
1.1875
 21
5.249999999999998
 31
0.0
  0
LINE
  5
410
330
2
100
AcDbEntity
  8
0
100
AcDbLine
 10
1.0625
 20
5.749999999999998
 30
0.0
 11
1.125
 21
5.774221314121727
 31
0.0
  0
LINE
  5
411
330
2
100
AcDbEntity
  8
0
100
AcDbLine
 10
0.875
 20
5.774221314121727
 30
0.0
 11
0.9375
 21
5.749999999999998
 31
0.0
  0
LINE
  5
412
330
2
100
AcDbEntity
  8
0
100
AcDbLine
 10
1.125
 20
5.774221314121727
 30
0.0
 11
1.1875
 21
5.749999999999998
 31
0.0
  0
LINE
  5
413
330
2
100
AcDbEntity
  8
0
100
AcDbLine
 10
1.4375
 20
5.249999999999998
 30
0.0
 11
1.4375
 21
5.749999999999998
 31
0.0
  0
LINE
  5
414
330
2
100
AcDbEntity
  8
0
100
AcDbLine
 10
1.375
 20
4.774221314121727
 30
0.0
 11
1.4375
 21
4.749999999999998
 31
0.0
  0
LINE
  5
415
330
2
100
AcDbEntity
  8
0
100
AcDbLine
 10
1.375
 20
5.22577868587827
 30
0.0
 11
1.4375
 21
5.249999999999998
 31
0.0
  0
LINE
  5
416
330
2
100
AcDbEntity
  8
0
100
AcDbLine
 10
1.375
 20
5.774221314121727
 30
0.0
 11
1.4375
 21
5.749999999999998
 31
0.0
  0
ENDSEC
  0
SECTION
  2
OBJECTS
  0
DICTIONARY
  5
7
330
0
100
AcDbDictionary
281
     1
  3
ACAD_COLOR
350
4AE
  3
ACAD_GROUP
350
1F
  3
ACAD_LAYOUT
350
B
  3
ACAD_MATERIAL
350
4AD
  3
ACAD_MLINESTYLE
350
20
  3
ACAD_PLOTSETTINGS
350
21
  3
ACAD_PLOTSTYLENAME
350
6
  3
ACAD_TABLESTYLE
350
4AF
  3
ACDBHEADERROUNDTRIPXREC
350
4CA
  3
AcDbVariableDictionary
350
26D
  0
DICTIONARY
  5
4AE
102
{ACAD_REACTORS
330
7
102
}
330
7
100
AcDbDictionary
281
     1
  0
DICTIONARY
  5
1F
102
{ACAD_REACTORS
330
7
102
}
330
7
100
AcDbDictionary
281
     1
  0
DICTIONARY
  5
B
102
{ACAD_REACTORS
330
7
102
}
330
7
100
AcDbDictionary
281
     1
  3
Layout1
350
F
  3
Model
350
A
  0
DICTIONARY
  5
4AD
102
{ACAD_REACTORS
330
7
102
}
330
7
100
AcDbDictionary
281
     1
  0
DICTIONARY
  5
20
102
{ACAD_REACTORS
330
7
102
}
330
7
100
AcDbDictionary
281
     1
  3
Standard
350
23
  0
DICTIONARY
  5
21
102
{ACAD_REACTORS
330
7
102
}
330
7
100
AcDbDictionary
281
     1
  0
ACDBDICTIONARYWDFLT
  5
6
102
{ACAD_REACTORS
330
7
102
}
330
7
100
AcDbDictionary
281
     1
  3
Normal
350
5
100
AcDbDictionaryWithDefault
340
5
  0
DICTIONARY
  5
4AF
102
{ACAD_REACTORS
330
7
102
}
330
7
100
AcDbDictionary
281
     1
  3
Standard
350
4B0
  0
DICTIONARY
  5
4CA
102
{ACAD_REACTORS
330
7
102
}
330
7
100
AcDbDictionary
281
     1
  3
COLORDICT
350
4CB
  3
MATERIALDICT
350
4CC
  0
DICTIONARY
  5
26D
102
{ACAD_REACTORS
330
7
102
}
330
7
100
AcDbDictionary
281
     1
  3
CTABLESTYLE
350
4B9
  3
DIMASSOC
350
26F
  3
HIDETEXT
350
26E
  0
LAYOUT
  5
F
102
{ACAD_REACTORS
330
B
102
}
102
{ACAD_XDICTIONARY
360
4CD
102
}
330
B
100
AcDbPlotSettings
  1

  2
X:\Program Files\AutoCAD2002\plotters\DWF ePlot (optimized for plotting).pc3
  4

  6

 40
0.0
 41
0.0
 42
0.0
 43
0.0
 44
0.0
 45
0.0
 46
0.0
 47
0.0
 48
0.0
 49
0.0
140
0.0
141
0.0
142
1.0
143
1.0
 70
   688
 72
     0
 73
     0
 74
     5
  7

 75
    16
147
1.0
148
0.0
149
0.0
100
AcDbLayout
  1
Layout1
 70
     0
 71
     1
 10
0.0
 20
0.0
 11
12.0
 21
9.0
 12
0.0
 22
0.0
 32
0.0
 14
1.000000000000000E+20
 24
1.000000000000000E+20
 34
1.000000000000000E+20
 15
-1.000000000000000E+20
 25
-1.000000000000000E+20
 35
-1.000000000000000E+20
146
0.0
 13
0.0
 23
0.0
 33
0.0
 16
1.0
 26
0.0
 36
0.0
 17
0.0
 27
1.0
 37
0.0
 76
     0
330
C
  0
LAYOUT
  5
A
102
{ACAD_REACTORS
330
B
102
}
102
{ACAD_XDICTIONARY
360
4CF
102
}
330
B
100
AcDbPlotSettings
  1

  2
X:\Program Files\AutoCAD2002\plotters\DWF ePlot (optimized for plotting).pc3
  4

  6

 40
0.0
 41
0.0
 42
0.0
 43
0.0
 44
0.0
 45
0.0
 46
0.0
 47
0.0
 48
0.0
 49
0.0
140
0.0
141
0.0
142
1.0
143
1.0
 70
  1712
 72
     0
 73
     0
 74
     0
  7

 75
     0
147
1.0
148
0.0
149
0.0
100
AcDbLayout
  1
Model
 70
     1
 71
     0
 10
0.0
 20
0.0
 11
12.0
 21
9.0
 12
0.0
 22
0.0
 32
0.0
 14
0.0
 24
0.0
 34
0.0
 15
0.0
 25
0.0
 35
0.0
146
0.0
 13
0.0
 23
0.0
 33
0.0
 16
1.0
 26
0.0
 36
0.0
 17
0.0
 27
1.0
 37
0.0
 76
     0
330
2
  0
MLINESTYLE
  5
23
102
{ACAD_REACTORS
330
20
102
}
330
20
100
AcDbMlineStyle
  2
STANDARD
 70
     0
  3

 62
   256
 51
90.0
 52
90.0
 71
     2
 49
0.5
 62
   256
  6
BYLAYER
 49
-0.5
 62
   256
  6
BYLAYER
  0
ACDBPLACEHOLDER
  5
5
102
{ACAD_REACTORS
330
6
102
}
330
6
  0
ACAD_PROXY_OBJECT
  5
4B0
102
{ACAD_REACTORS
330
4AF
102
}
330
4AF
100
AcDbProxyObject
 90
      499
 91
      504
 95
   983063
 70
     0
 93
     1841
310
4214DD185B99185C9928B81E85EB51B8AE3F2E07A17AD46E2B8FC02B5E8DC0F42B1CFD028000000C1008070000C3001FDFF8000000C1003FBFF000000182007F7FE00000030400FEFFC00000060801FDFF8000000C1003FBFF00000018200000000000000681FA0B0000001820100E000186003FBFF000000182007F7FE000
310
00030400FEFFC00000060801FDFF8000000C1003FBFF000000182007F7FE000000304000AD7A3703D0AC73F4160000003040201C00030C007F7FE00000030400FEFFC00000060801FDFF8000000C1003FBFF000000182007F7FE00000030400FEFFC000000608000
340
12
340
12
340
12
 94
        0
  0
XRECORD
  5
4CB
102
{ACAD_REACTORS
330
4CA
102
}
330
4CA
100
AcDbXrecord
340
4AE
  0
XRECORD
  5
4CC
102
{ACAD_REACTORS
330
4CA
102
}
330
4CA
100
AcDbXrecord
340
4AD
  0
DICTIONARYVAR
  5
4B9
102
{ACAD_REACTORS
330
26D
102
}
330
26D
100
DictionaryVariables
280
     0
  1
STANDARD
  0
DICTIONARYVAR
  5
26F
102
{ACAD_REACTORS
330
26D
102
}
330
26D
100
DictionaryVariables
280
     0
  1
2
  0
DICTIONARYVAR
  5
26E
102
{ACAD_REACTORS
330
26D
102
}
330
26D
100
DictionaryVariables
280
     0
  1
1
  0
DICTIONARY
  5
4CD
330
F
100
AcDbDictionary
280
     1
281
     1
  3
ACAD_XREC_ROUNDTRIP
360
4CE
  0
DICTIONARY
  5
4CF
330
A
100
AcDbDictionary
280
     1
281
     1
  3
ACAD_XREC_ROUNDTRIP
360
4D0
  0
XRECORD
  5
4CE
102
{ACAD_REACTORS
330
4CD
102
}
330
4CD
100
AcDbXrecord
102
SHADEPLOT
 70
     0
102
SHADEPLOTRESLEVEL
 70
     2
102
SHADEPLOTCUSTOMDPI
 70
   300
  0
XRECORD
  5
4D0
102
{ACAD_REACTORS
330
4CF
102
}
330
4CF
100
AcDbXrecord
102
SHADEPLOT
 70
     0
102
SHADEPLOTRESLEVEL
 70
     2
102
SHADEPLOTCUSTOMDPI
 70
   300
  0
ENDSEC
  0
EOF
