  0
SECTION
  2
HEADER
  9
$ACADVER
  1
AC1015
  9
$ACADMAINTVER
 70
     6
  9
$DWGCODEPAGE
  3
ANSI_1252
  9
$INSBASE
 10
0.0
 20
0.0
 30
0.0
  9
$EXTMIN
 10
-1.5
 20
0.0
 30
0.0
  9
$EXTMAX
 10
5.813535478091755
 20
5.999999999999998
 30
0.0
  9
$LIMMIN
 10
0.0
 20
0.0
  9
$LIMMAX
 10
13.3328
 20
17.4993
  9
$ORTHOMODE
 70
     1
  9
$REGENMODE
 70
     1
  9
$FILLMODE
 70
     1
  9
$QTEXTMODE
 70
     0
  9
$MIRRTEXT
 70
     0
  9
$LTSCALE
 40
0.5
  9
$ATTMODE
 70
     1
  9
$TEXTSIZE
 40
0.149994
  9
$TRACEWID
 40
0.05
  9
$TEXTSTYLE
  7
STANDARD
  9
$CLAYER
  8
0
  9
$CELTYPE
  6
ByLayer
  9
$CECOLOR
 62
   256
  9
$CELTSCALE
 40
1.0
  9
$DISPSILH
 70
     0
  9
$DIMSCALE
 40
1.6666
  9
$DIMASZ
 40
0.125
  9
$DIMEXO
 40
0.062
  9
$DIMDLI
 40
0.375
  9
$DIMRND
 40
0.0
  9
$DIMDLE
 40
0.0
  9
$DIMEXE
 40
0.08
  9
$DIMTP
 40
0.0
  9
$DIMTM
 40
0.0
  9
$DIMTXT
 40
0.09
  9
$DIMCEN
 40
-0.06
  9
$DIMTSZ
 40
0.0
  9
$DIMTOL
 70
     0
  9
$DIMLIM
 70
     0
  9
$DIMTIH
 70
     1
  9
$DIMTOH
 70
     1
  9
$DIMSE1
 70
     0
  9
$DIMSE2
 70
     0
  9
$DIMTAD
 70
     0
  9
$DIMZIN
 70
     0
  9
$DIMBLK
  1

  9
$DIMASO
 70
     0
  9
$DIMSHO
 70
     0
  9
$DIMPOST
  1

  9
$DIMAPOST
  1

  9
$DIMALT
 70
     0
  9
$DIMALTD
 70
     2
  9
$DIMALTF
 40
25.4
  9
$DIMLFAC
 40
1.0
  9
$DIMTOFL
 70
     0
  9
$DIMTVP
 40
0.0
  9
$DIMTIX
 70
     0
  9
$DIMSOXD
 70
     0
  9
$DIMSAH
 70
     0
  9
$DIMBLK1
  1

  9
$DIMBLK2
  1

  9
$DIMSTYLE
  2
Standard
  9
$DIMCLRD
 70
     0
  9
$DIMCLRE
 70
     0
  9
$DIMCLRT
 70
     0
  9
$DIMTFAC
 40
1.0
  9
$DIMGAP
 40
0.09
  9
$DIMJUST
 70
     0
  9
$DIMSD1
 70
     0
  9
$DIMSD2
 70
     0
  9
$DIMTOLJ
 70
     1
  9
$DIMTZIN
 70
     0
  9
$DIMALTZ
 70
     0
  9
$DIMALTTZ
 70
     0
  9
$DIMUPT
 70
     0
  9
$DIMDEC
 70
     4
  9
$DIMTDEC
 70
     4
  9
$DIMALTU
 70
     5
  9
$DIMALTTD
 70
     2
  9
$DIMTXSTY
  7
STANDARD
  9
$DIMAUNIT
 70
     0
  9
$DIMADEC
 70
     0
  9
$DIMALTRND
 40
0.0
  9
$DIMAZIN
 70
     0
  9
$DIMDSEP
 70
    46
  9
$DIMATFIT
 70
     3
  9
$DIMFRAC
 70
     0
  9
$DIMLDRBLK
  1

  9
$DIMLUNIT
 70
     5
  9
$DIMLWD
 70
    -2
  9
$DIMLWE
 70
    -2
  9
$DIMTMOVE
 70
     2
  9
$LUNITS
 70
     5
  9
$LUPREC
 70
     4
  9
$SKETCHINC
 40
0.1
  9
$FILLETRAD
 40
0.0
  9
$AUNITS
 70
     0
  9
$AUPREC
 70
     0
  9
$MENU
  1
simpson
  9
$ELEVATION
 40
0.0
  9
$PELEVATION
 40
0.0
  9
$THICKNESS
 40
0.0
  9
$LIMCHECK
 70
     0
  9
$CHAMFERA
 40
0.0
  9
$CHAMFERB
 40
0.0
  9
$CHAMFERC
 40
0.0
  9
$CHAMFERD
 40
0.0
  9
$SKPOLY
 70
     0
  9
$TDCREATE
 40
2449210.986941088
  9
$TDUCREATE
 40
2449211.320274422
  9
$TDUPDATE
 40
2454176.720472673
  9
$TDUUPDATE
 40
2454177.053806007
  9
$TDINDWG
 40
0.0168027662
  9
$TDUSRTIMER
 40
0.0168027662
  9
$USRTIMER
 70
     1
  9
$ANGBASE
 50
0.0
  9
$ANGDIR
 70
     0
  9
$PDMODE
 70
     0
  9
$PDSIZE
 40
0.0
  9
$PLINEWID
 40
0.0
  9
$SPLFRAME
 70
     0
  9
$SPLINETYPE
 70
     6
  9
$SPLINESEGS
 70
     8
  9
$HANDSEED
  5
4C2
  9
$SURFTAB1
 70
     6
  9
$SURFTAB2
 70
     6
  9
$SURFTYPE
 70
     6
  9
$SURFU
 70
     6
  9
$SURFV
 70
     6
  9
$UCSBASE
  2

  9
$UCSNAME
  2

  9
$UCSORG
 10
0.0
 20
0.0
 30
0.0
  9
$UCSXDIR
 10
1.0
 20
0.0
 30
0.0
  9
$UCSYDIR
 10
0.0
 20
1.0
 30
0.0
  9
$UCSORTHOREF
  2

  9
$UCSORTHOVIEW
 70
     0
  9
$UCSORGTOP
 10
0.0
 20
0.0
 30
0.0
  9
$UCSORGBOTTOM
 10
0.0
 20
0.0
 30
0.0
  9
$UCSORGLEFT
 10
0.0
 20
0.0
 30
0.0
  9
$UCSORGRIGHT
 10
0.0
 20
0.0
 30
0.0
  9
$UCSORGFRONT
 10
0.0
 20
0.0
 30
0.0
  9
$UCSORGBACK
 10
0.0
 20
0.0
 30
0.0
  9
$PUCSBASE
  2

  9
$PUCSNAME
  2

  9
$PUCSORG
 10
0.0
 20
0.0
 30
0.0
  9
$PUCSXDIR
 10
1.0
 20
0.0
 30
0.0
  9
$PUCSYDIR
 10
0.0
 20
1.0
 30
0.0
  9
$PUCSORTHOREF
  2

  9
$PUCSORTHOVIEW
 70
     0
  9
$PUCSORGTOP
 10
0.0
 20
0.0
 30
0.0
  9
$PUCSORGBOTTOM
 10
0.0
 20
0.0
 30
0.0
  9
$PUCSORGLEFT
 10
0.0
 20
0.0
 30
0.0
  9
$PUCSORGRIGHT
 10
0.0
 20
0.0
 30
0.0
  9
$PUCSORGFRONT
 10
0.0
 20
0.0
 30
0.0
  9
$PUCSORGBACK
 10
0.0
 20
0.0
 30
0.0
  9
$USERI1
 70
     0
  9
$USERI2
 70
     0
  9
$USERI3
 70
     0
  9
$USERI4
 70
     0
  9
$USERI5
 70
     0
  9
$USERR1
 40
0.0
  9
$USERR2
 40
0.0
  9
$USERR3
 40
0.0
  9
$USERR4
 40
0.0
  9
$USERR5
 40
0.0
  9
$WORLDVIEW
 70
     1
  9
$SHADEDGE
 70
     3
  9
$SHADEDIF
 70
    70
  9
$TILEMODE
 70
     1
  9
$MAXACTVP
 70
    16
  9
$PINSBASE
 10
0.0
 20
0.0
 30
0.0
  9
$PLIMCHECK
 70
     0
  9
$PEXTMIN
 10
1.000000000000000E+20
 20
1.000000000000000E+20
 30
1.000000000000000E+20
  9
$PEXTMAX
 10
-1.000000000000000E+20
 20
-1.000000000000000E+20
 30
-1.000000000000000E+20
  9
$PLIMMIN
 10
0.0
 20
0.0
  9
$PLIMMAX
 10
12.0
 20
9.0
  9
$UNITMODE
 70
     0
  9
$VISRETAIN
 70
     0
  9
$PLINEGEN
 70
     0
  9
$PSLTSCALE
 70
     0
  9
$TREEDEPTH
 70
  3020
  9
$CMLSTYLE
  2
Standard
  9
$CMLJUST
 70
     0
  9
$CMLSCALE
 40
1.0
  9
$PROXYGRAPHICS
 70
     1
  9
$MEASUREMENT
 70
     0
  9
$CELWEIGHT
370
    -1
  9
$ENDCAPS
280
     0
  9
$JOINSTYLE
280
     0
  9
$LWDISPLAY
290
     0
  9
$INSUNITS
 70
     0
  9
$HYPERLINKBASE
  1

  9
$STYLESHEET
  1

  9
$XEDIT
290
     1
  9
$CEPSNTYPE
380
     0
  9
$PSTYLEMODE
290
     1
  9
$FINGERPRINTGUID
  2
{CC9E9932-E59E-4F88-B95A-C2B62AAB5B35}
  9
$VERSIONGUID
  2
{A27E9CF5-D5B0-43B3-AF48-739F3042BD67}
  9
$EXTNAMES
290
     1
  9
$PSVPSCALE
 40
0.0
  9
$OLESTARTUP
290
     0
  0
ENDSEC
  0
SECTION
  2
CLASSES
  0
CLASS
  1
ACDBDICTIONARYWDFLT
  2
AcDbDictionaryWithDefault
  3
AutoCAD 2000
 90
        0
280
     0
281
     0
  0
CLASS
  1
ACDBPLACEHOLDER
  2
AcDbPlaceHolder
  3
ObjectDBX Classes
 90
        0
280
     0
281
     0
  0
CLASS
  1
LAYOUT
  2
AcDbLayout
  3
ObjectDBX Classes
 90
        0
280
     0
281
     0
  0
CLASS
  1
DICTIONARYVAR
  2
AcDbDictionaryVar
  3
AutoCAD 2000
 90
        0
280
     0
281
     0
  0
CLASS
  1
TABLESTYLE
  2
AcDbTableStyle
  3
ObjectDBX Classes
 90
     2047
280
     1
281
     0
  0
ENDSEC
  0
SECTION
  2
TABLES
  0
TABLE
  2
VPORT
  5
19
330
0
100
AcDbSymbolTable
 70
     2
  0
VPORT
  5
4B3
330
19
100
AcDbSymbolTableRecord
100
AcDbViewportTableRecord
  2
*Active
 70
     0
 10
0.0
 20
0.0
 11
1.0
 21
1.0
 12
5.916002785643942
 22
9.294776385516988
 13
0.0
 23
0.0
 14
0.063
 24
0.063
 15
0.25
 25
0.25
 16
0.0
 26
0.0
 36
1.0
 17
0.0
 27
0.0
 37
0.0
 40
18.8676629888994
 41
1.814583333333334
 42
50.0
 43
0.0
 44
0.0
 50
0.0
 51
0.0
 71
     0
 72
   100
 73
     1
 74
     1
 75
     0
 76
     0
 77
     0
 78
     0
281
     0
 65
     1
110
0.0
120
0.0
130
0.0
111
1.0
121
0.0
131
0.0
112
0.0
122
1.0
132
0.0
 79
     0
146
0.0
  0
ENDTAB
  0
TABLE
  2
LTYPE
  5
14
330
0
100
AcDbSymbolTable
 70
     1
  0
LTYPE
  5
15
330
14
100
AcDbSymbolTableRecord
100
AcDbLinetypeTableRecord
  2
ByBlock
 70
     0
  3

 72
    65
 73
     0
 40
0.0
  0
LTYPE
  5
16
330
14
100
AcDbSymbolTableRecord
100
AcDbLinetypeTableRecord
  2
ByLayer
 70
     0
  3

 72
    65
 73
     0
 40
0.0
  0
LTYPE
  5
8
330
14
100
AcDbSymbolTableRecord
100
AcDbLinetypeTableRecord
  2
CONTINUOUS
 70
     0
  3
Solid line
 72
    65
 73
     0
 40
0.0
  0
ENDTAB
  0
TABLE
  2
LAYER
  5
10
330
0
100
AcDbSymbolTable
 70
     2
  0
LAYER
  5
4
330
10
100
AcDbSymbolTableRecord
100
AcDbLayerTableRecord
  2
0
 70
     0
 62
     7
  6
CONTINUOUS
370
    -3
390
5
  0
ENDTAB
  0
TABLE
  2
STYLE
  5
11
330
0
100
AcDbSymbolTable
 70
     1
  0
STYLE
  5
12
330
11
100
AcDbSymbolTableRecord
100
AcDbTextStyleTableRecord
  2
STANDARD
 70
     0
 40
0.0
 41
1.0
 50
0.0
 71
     0
 42
0.149994
  3
TXT
  4

  0
ENDTAB
  0
TABLE
  2
VIEW
  5
17
330
0
100
AcDbSymbolTable
 70
     0
  0
ENDTAB
  0
TABLE
  2
UCS
  5
18
330
0
100
AcDbSymbolTable
 70
     0
  0
ENDTAB
  0
TABLE
  2
APPID
  5
1B
330
0
100
AcDbSymbolTable
 70
     1
  0
APPID
  5
1C
330
1B
100
AcDbSymbolTableRecord
100
AcDbRegAppTableRecord
  2
ACAD
 70
     0
  0
ENDTAB
  0
TABLE
  2
DIMSTYLE
  5
1D
330
0
100
AcDbSymbolTable
 70
     1
100
AcDbDimStyleTable
  0
DIMSTYLE
105
24
330
1D
100
AcDbSymbolTableRecord
100
AcDbDimStyleTableRecord
  2
Standard
 70
     0
  3

  4

340
12
  0
ENDTAB
  0
TABLE
  2
BLOCK_RECORD
  5
1
330
0
100
AcDbSymbolTable
 70
     0
  0
BLOCK_RECORD
  5
2
330
1
100
AcDbSymbolTableRecord
100
AcDbBlockTableRecord
  2
*Model_Space
340
A
  0
BLOCK_RECORD
  5
C
330
1
100
AcDbSymbolTableRecord
100
AcDbBlockTableRecord
  2
*Paper_Space
340
F
  0
ENDTAB
  0
ENDSEC
  0
SECTION
  2
BLOCKS
  0
BLOCK
  5
3
330
2
100
AcDbEntity
  8
0
100
AcDbBlockBegin
  2
*Model_Space
 70
     0
 10
0.0
 20
0.0
 30
0.0
  3
*Model_Space
  1

  4

  0
ENDBLK
  5
9
330
2
100
AcDbEntity
  8
0
100
AcDbBlockEnd
  0
BLOCK
  5
D
330
C
100
AcDbEntity
 67
     1
  8
0
100
AcDbBlockBegin
  2
*Paper_Space
 70
     0
 10
0.0
 20
0.0
 30
0.0
  3
*Paper_Space
  1

  4

  0
ENDBLK
  5
E
330
C
100
AcDbEntity
 67
     1
  8
0
100
AcDbBlockEnd
  0
ENDSEC
  0
SECTION
  2
ENTITIES
  0
LINE
  5
277
330
2
100
AcDbEntity
  8
0
100
AcDbLine
 10
0.8125
 20
5.249999999999998
 30
0.0
 11
0.875
 21
5.22577868587827
 31
0.0
  0
LINE
  5
278
330
2
100
AcDbEntity
  8
0
100
AcDbLine
 10
0.8125
 20
5.749999999999998
 30
0.0
 11
0.875
 21
5.774221314121727
 31
0.0
  0
LINE
  5
279
330
2
100
AcDbEntity
  8
0
100
AcDbLine
 10
0.8125
 20
4.249999999999998
 30
0.0
 11
0.875
 21
4.22577868587827
 31
0.0
  0
LINE
  5
27A
330
2
100
AcDbEntity
  8
0
100
AcDbLine
 10
0.8125
 20
4.749999999999998
 30
0.0
 11
0.875
 21
4.774221314121727
 31
0.0
  0
LINE
  5
27B
330
2
100
AcDbEntity
  8
0
100
AcDbLine
 10
0.8125
 20
3.374999999999998
 30
0.0
 11
0.875
 21
3.35077868587827
 31
0.0
  0
LINE
  5
27C
330
2
100
AcDbEntity
  8
0
100
AcDbLine
 10
0.8125
 20
3.874999999999998
 30
0.0
 11
0.875
 21
3.899221314121727
 31
0.0
  0
LINE
  5
27D
330
2
100
AcDbEntity
  8
0
100
AcDbLine
 10
0.8125
 20
2.124999999999998
 30
0.0
 11
0.875
 21
2.10077868587827
 31
0.0
  0
LINE
  5
27E
330
2
100
AcDbEntity
  8
0
100
AcDbLine
 10
0.8125
 20
2.624999999999998
 30
0.0
 11
0.875
 21
2.649221314121727
 31
0.0
  0
LINE
  5
27F
330
2
100
AcDbEntity
  8
0
100
AcDbLine
 10
0.8125
 20
1.249999999999998
 30
0.0
 11
0.875
 21
1.22577868587827
 31
0.0
  0
LINE
  5
280
330
2
100
AcDbEntity
  8
0
100
AcDbLine
 10
0.8125
 20
1.749999999999998
 30
0.0
 11
0.875
 21
1.774221314121727
 31
0.0
  0
LINE
  5
281
330
2
100
AcDbEntity
  8
0
100
AcDbLine
 10
0.8125
 20
0.7499999999999982
 30
0.0
 11
0.875
 21
0.7742213141217267
 31
0.0
  0
LINE
  5
282
330
2
100
AcDbEntity
  8
0
100
AcDbLine
 10
0.8125
 20
0.2499999999999982
 30
0.0
 11
0.875
 21
0.2257786858782698
 31
0.0
  0
LINE
  5
283
330
2
100
AcDbEntity
  8
0
100
AcDbLine
 10
1.5
 20
0.0
 30
0.0
 11
-1.5
 21
0.0
 31
0.0
  0
LINE
  5
284
330
2
100
AcDbEntity
  8
0
100
AcDbLine
 10
-1.5
 20
5.999999999999998
 30
0.0
 11
1.5
 21
5.999999999999998
 31
0.0
  0
LINE
  5
285
330
2
100
AcDbEntity
  8
0
100
AcDbLine
 10
0.8125
 20
0.2499999999999982
 30
0.0
 11
0.8125
 21
0.7499999999999982
 31
0.0
  0
LINE
  5
286
330
2
100
AcDbEntity
  8
0
100
AcDbLine
 10
0.5625
 20
0.2499999999999982
 30
0.0
 11
0.5625
 21
0.7499999999999982
 31
0.0
  0
LINE
  5
287
330
2
100
AcDbEntity
  8
0
100
AcDbLine
 10
0.6875
 20
0.2499999999999982
 30
0.0
 11
0.6875
 21
0.7499999999999982
 31
0.0
  0
LINE
  5
288
330
2
100
AcDbEntity
  8
0
100
AcDbLine
 10
0.3125
 20
0.2499999999999982
 30
0.0
 11
0.3125
 21
0.7499999999999982
 31
0.0
  0
LINE
  5
289
330
2
100
AcDbEntity
  8
0
100
AcDbLine
 10
0.4375
 20
0.2499999999999982
 30
0.0
 11
0.4375
 21
0.7499999999999982
 31
0.0
  0
LINE
  5
28A
330
2
100
AcDbEntity
  8
0
100
AcDbLine
 10
0.0625
 20
0.2499999999999982
 30
0.0
 11
0.0625
 21
0.7499999999999982
 31
0.0
  0
LINE
  5
28B
330
2
100
AcDbEntity
  8
0
100
AcDbLine
 10
0.1875
 20
0.2499999999999982
 30
0.0
 11
0.1875
 21
0.7499999999999982
 31
0.0
  0
LINE
  5
28C
330
2
100
AcDbEntity
  8
0
100
AcDbLine
 10
-0.1875
 20
0.2499999999999982
 30
0.0
 11
-0.1875
 21
0.7499999999999982
 31
0.0
  0
LINE
  5
28D
330
2
100
AcDbEntity
  8
0
100
AcDbLine
 10
-0.0625
 20
0.2499999999999982
 30
0.0
 11
-0.0625
 21
0.7499999999999982
 31
0.0
  0
LINE
  5
28E
330
2
100
AcDbEntity
  8
0
100
AcDbLine
 10
-0.4375
 20
0.2499999999999982
 30
0.0
 11
-0.4375
 21
0.7499999999999982
 31
0.0
  0
LINE
  5
28F
330
2
100
AcDbEntity
  8
0
100
AcDbLine
 10
-0.3125
 20
0.2499999999999982
 30
0.0
 11
-0.3125
 21
0.7499999999999982
 31
0.0
  0
LINE
  5
290
330
2
100
AcDbEntity
  8
0
100
AcDbLine
 10
-0.6875
 20
0.2499999999999982
 30
0.0
 11
-0.6875
 21
0.7499999999999982
 31
0.0
  0
LINE
  5
291
330
2
100
AcDbEntity
  8
0
100
AcDbLine
 10
-0.5625
 20
0.2499999999999982
 30
0.0
 11
-0.5625
 21
0.7499999999999982
 31
0.0
  0
LINE
  5
292
330
2
100
AcDbEntity
  8
0
100
AcDbLine
 10
-0.9375
 20
0.2499999999999982
 30
0.0
 11
-0.9375
 21
0.7499999999999982
 31
0.0
  0
LINE
  5
293
330
2
100
AcDbEntity
  8
0
100
AcDbLine
 10
-0.8125
 20
0.2499999999999982
 30
0.0
 11
-0.8125
 21
0.7499999999999982
 31
0.0
  0
LINE
  5
294
330
2
100
AcDbEntity
  8
0
100
AcDbLine
 10
-1.1875
 20
0.2499999999999982
 30
0.0
 11
-1.1875
 21
0.7499999999999982
 31
0.0
  0
LINE
  5
295
330
2
100
AcDbEntity
  8
0
100
AcDbLine
 10
-1.0625
 20
0.2499999999999982
 30
0.0
 11
-1.0625
 21
0.7499999999999982
 31
0.0
  0
LINE
  5
296
330
2
100
AcDbEntity
  8
0
100
AcDbLine
 10
-1.3125
 20
0.2499999999999982
 30
0.0
 11
-1.3125
 21
0.7499999999999982
 31
0.0
  0
LINE
  5
297
330
2
100
AcDbEntity
  8
0
100
AcDbLine
 10
-1.4375
 20
0.2499999999999982
 30
0.0
 11
-1.4375
 21
0.7499999999999982
 31
0.0
  0
LINE
  5
298
330
2
100
AcDbEntity
  8
0
100
AcDbLine
 10
-1.5
 20
0.0
 30
0.0
 11
-1.5
 21
5.999999999999998
 31
0.0
  0
LINE
  5
299
330
2
100
AcDbEntity
  8
0
100
AcDbLine
 10
-1.4375
 20
0.2499999999999982
 30
0.0
 11
-1.375
 21
0.2257786858782698
 31
0.0
  0
LINE
  5
29A
330
2
100
AcDbEntity
  8
0
100
AcDbLine
 10
-1.375
 20
0.2257786858782698
 30
0.0
 11
-1.3125
 21
0.2499999999999982
 31
0.0
  0
LINE
  5
29B
330
2
100
AcDbEntity
  8
0
100
AcDbLine
 10
-1.1875
 20
0.2499999999999982
 30
0.0
 11
-1.125
 21
0.2257786858782698
 31
0.0
  0
LINE
  5
29C
330
2
100
AcDbEntity
  8
0
100
AcDbLine
 10
-1.125
 20
0.2257786858782698
 30
0.0
 11
-1.0625
 21
0.2499999999999982
 31
0.0
  0
LINE
  5
29D
330
2
100
AcDbEntity
  8
0
100
AcDbLine
 10
-0.9375
 20
0.2499999999999982
 30
0.0
 11
-0.875
 21
0.2257786858782698
 31
0.0
  0
LINE
  5
29E
330
2
100
AcDbEntity
  8
0
100
AcDbLine
 10
-0.875
 20
0.2257786858782698
 30
0.0
 11
-0.8125
 21
0.2499999999999982
 31
0.0
  0
LINE
  5
29F
330
2
100
AcDbEntity
  8
0
100
AcDbLine
 10
-0.625
 20
0.2257786858782698
 30
0.0
 11
-0.5625
 21
0.2499999999999982
 31
0.0
  0
LINE
  5
2A0
330
2
100
AcDbEntity
  8
0
100
AcDbLine
 10
-0.6875
 20
0.2499999999999982
 30
0.0
 11
-0.625
 21
0.2257786858782698
 31
0.0
  0
LINE
  5
2A1
330
2
100
AcDbEntity
  8
0
100
AcDbLine
 10
-0.375
 20
0.2257786858782698
 30
0.0
 11
-0.3125
 21
0.2499999999999982
 31
0.0
  0
LINE
  5
2A2
330
2
100
AcDbEntity
  8
0
100
AcDbLine
 10
-0.4375
 20
0.2499999999999982
 30
0.0
 11
-0.375
 21
0.2257786858782698
 31
0.0
  0
LINE
  5
2A3
330
2
100
AcDbEntity
  8
0
100
AcDbLine
 10
-0.125
 20
0.2257786858782698
 30
0.0
 11
-0.0625
 21
0.2499999999999982
 31
0.0
  0
LINE
  5
2A4
330
2
100
AcDbEntity
  8
0
100
AcDbLine
 10
-0.1875
 20
0.2499999999999982
 30
0.0
 11
-0.125
 21
0.2257786858782698
 31
0.0
  0
LINE
  5
2A5
330
2
100
AcDbEntity
  8
0
100
AcDbLine
 10
0.125
 20
0.2257786858782698
 30
0.0
 11
0.1875
 21
0.2499999999999982
 31
0.0
  0
LINE
  5
2A6
330
2
100
AcDbEntity
  8
0
100
AcDbLine
 10
0.0625
 20
0.2499999999999982
 30
0.0
 11
0.125
 21
0.2257786858782698
 31
0.0
  0
LINE
  5
2A7
330
2
100
AcDbEntity
  8
0
100
AcDbLine
 10
0.375
 20
0.2257786858782698
 30
0.0
 11
0.4375
 21
0.2499999999999982
 31
0.0
  0
LINE
  5
2A8
330
2
100
AcDbEntity
  8
0
100
AcDbLine
 10
0.3125
 20
0.2499999999999982
 30
0.0
 11
0.375
 21
0.2257786858782698
 31
0.0
  0
LINE
  5
2A9
330
2
100
AcDbEntity
  8
0
100
AcDbLine
 10
0.625
 20
0.2257786858782698
 30
0.0
 11
0.6875
 21
0.2499999999999982
 31
0.0
  0
LINE
  5
2AA
330
2
100
AcDbEntity
  8
0
100
AcDbLine
 10
0.5625
 20
0.2499999999999982
 30
0.0
 11
0.625
 21
0.2257786858782698
 31
0.0
  0
LINE
  5
2AB
330
2
100
AcDbEntity
  8
0
100
AcDbLine
 10
-1.375
 20
3.35077868587827
 30
0.0
 11
-1.3125
 21
3.374999999999998
 31
0.0
  0
LINE
  5
2AC
330
2
100
AcDbEntity
  8
0
100
AcDbLine
 10
-1.4375
 20
3.374999999999998
 30
0.0
 11
-1.375
 21
3.35077868587827
 31
0.0
  0
LINE
  5
2AD
330
2
100
AcDbEntity
  8
0
100
AcDbLine
 10
-1.4375
 20
1.249999999999998
 30
0.0
 11
-1.4375
 21
1.749999999999998
 31
0.0
  0
LINE
  5
2AE
330
2
100
AcDbEntity
  8
0
100
AcDbLine
 10
-1.3125
 20
1.249999999999998
 30
0.0
 11
-1.3125
 21
1.749999999999998
 31
0.0
  0
LINE
  5
2AF
330
2
100
AcDbEntity
  8
0
100
AcDbLine
 10
-1.4375
 20
0.7499999999999982
 30
0.0
 11
-1.375
 21
0.7742213141217267
 31
0.0
  0
LINE
  5
2B0
330
2
100
AcDbEntity
  8
0
100
AcDbLine
 10
-1.375
 20
0.7742213141217267
 30
0.0
 11
-1.3125
 21
0.7499999999999982
 31
0.0
  0
LINE
  5
2B1
330
2
100
AcDbEntity
  8
0
100
AcDbLine
 10
-1.4375
 20
1.249999999999998
 30
0.0
 11
-1.375
 21
1.22577868587827
 31
0.0
  0
LINE
  5
2B2
330
2
100
AcDbEntity
  8
0
100
AcDbLine
 10
-1.375
 20
1.22577868587827
 30
0.0
 11
-1.3125
 21
1.249999999999998
 31
0.0
  0
LINE
  5
2B3
330
2
100
AcDbEntity
  8
0
100
AcDbLine
 10
-1.4375
 20
1.749999999999998
 30
0.0
 11
-1.375
 21
1.774221314121727
 31
0.0
  0
LINE
  5
2B4
330
2
100
AcDbEntity
  8
0
100
AcDbLine
 10
-1.375
 20
1.774221314121727
 30
0.0
 11
-1.3125
 21
1.749999999999998
 31
0.0
  0
LINE
  5
2B5
330
2
100
AcDbEntity
  8
0
100
AcDbLine
 10
-1.4375
 20
2.124999999999998
 30
0.0
 11
-1.4375
 21
2.624999999999998
 31
0.0
  0
LINE
  5
2B6
330
2
100
AcDbEntity
  8
0
100
AcDbLine
 10
-1.3125
 20
2.124999999999998
 30
0.0
 11
-1.3125
 21
2.624999999999998
 31
0.0
  0
LINE
  5
2B7
330
2
100
AcDbEntity
  8
0
100
AcDbLine
 10
-1.4375
 20
2.124999999999998
 30
0.0
 11
-1.375
 21
2.10077868587827
 31
0.0
  0
LINE
  5
2B8
330
2
100
AcDbEntity
  8
0
100
AcDbLine
 10
-1.375
 20
2.10077868587827
 30
0.0
 11
-1.3125
 21
2.124999999999998
 31
0.0
  0
LINE
  5
2B9
330
2
100
AcDbEntity
  8
0
100
AcDbLine
 10
-1.4375
 20
2.624999999999998
 30
0.0
 11
-1.375
 21
2.649221314121727
 31
0.0
  0
LINE
  5
2BA
330
2
100
AcDbEntity
  8
0
100
AcDbLine
 10
-1.375
 20
2.649221314121727
 30
0.0
 11
-1.3125
 21
2.624999999999998
 31
0.0
  0
LINE
  5
2BB
330
2
100
AcDbEntity
  8
0
100
AcDbLine
 10
-1.4375
 20
3.011068342699989
 30
0.0
 11
-1.271791647403353
 21
3.176776695296637
 31
0.0
  0
LINE
  5
2BC
330
2
100
AcDbEntity
  8
0
100
AcDbLine
 10
-1.4375
 20
3.011068342699989
 30
0.0
 11
-1.271791647403353
 21
2.84535999010334
 31
0.0
  0
LINE
  5
2BD
330
2
100
AcDbEntity
  8
0
100
AcDbLine
 10
-1.4375
 20
4.249999999999998
 30
0.0
 11
-1.4375
 21
4.749999999999998
 31
0.0
  0
LINE
  5
2BE
330
2
100
AcDbEntity
  8
0
100
AcDbLine
 10
-1.3125
 20
4.249999999999998
 30
0.0
 11
-1.3125
 21
4.749999999999998
 31
0.0
  0
LINE
  5
2BF
330
2
100
AcDbEntity
  8
0
100
AcDbLine
 10
-1.4375
 20
3.374999999999998
 30
0.0
 11
-1.4375
 21
3.874999999999998
 31
0.0
  0
LINE
  5
2C0
330
2
100
AcDbEntity
  8
0
100
AcDbLine
 10
-1.3125
 20
3.374999999999998
 30
0.0
 11
-1.3125
 21
3.874999999999998
 31
0.0
  0
LINE
  5
2C1
330
2
100
AcDbEntity
  8
0
100
AcDbLine
 10
-1.4375
 20
3.874999999999998
 30
0.0
 11
-1.375
 21
3.899221314121727
 31
0.0
  0
LINE
  5
2C2
330
2
100
AcDbEntity
  8
0
100
AcDbLine
 10
-1.375
 20
3.899221314121727
 30
0.0
 11
-1.3125
 21
3.874999999999998
 31
0.0
  0
LINE
  5
2C3
330
2
100
AcDbEntity
  8
0
100
AcDbLine
 10
-1.4375
 20
4.249999999999998
 30
0.0
 11
-1.375
 21
4.22577868587827
 31
0.0
  0
LINE
  5
2C4
330
2
100
AcDbEntity
  8
0
100
AcDbLine
 10
-1.375
 20
4.22577868587827
 30
0.0
 11
-1.3125
 21
4.249999999999998
 31
0.0
  0
LINE
  5
2C5
330
2
100
AcDbEntity
  8
0
100
AcDbLine
 10
-1.4375
 20
5.249999999999998
 30
0.0
 11
-1.4375
 21
5.749999999999998
 31
0.0
  0
LINE
  5
2C6
330
2
100
AcDbEntity
  8
0
100
AcDbLine
 10
-1.3125
 20
5.249999999999998
 30
0.0
 11
-1.3125
 21
5.749999999999998
 31
0.0
  0
LINE
  5
2C7
330
2
100
AcDbEntity
  8
0
100
AcDbLine
 10
-1.4375
 20
4.749999999999998
 30
0.0
 11
-1.375
 21
4.774221314121727
 31
0.0
  0
LINE
  5
2C8
330
2
100
AcDbEntity
  8
0
100
AcDbLine
 10
-1.375
 20
4.774221314121727
 30
0.0
 11
-1.3125
 21
4.749999999999998
 31
0.0
  0
LINE
  5
2C9
330
2
100
AcDbEntity
  8
0
100
AcDbLine
 10
-1.4375
 20
5.249999999999998
 30
0.0
 11
-1.375
 21
5.22577868587827
 31
0.0
  0
LINE
  5
2CA
330
2
100
AcDbEntity
  8
0
100
AcDbLine
 10
-1.375
 20
5.22577868587827
 30
0.0
 11
-1.3125
 21
5.249999999999998
 31
0.0
  0
LINE
  5
2CB
330
2
100
AcDbEntity
  8
0
100
AcDbLine
 10
-1.4375
 20
5.749999999999998
 30
0.0
 11
-1.375
 21
5.774221314121727
 31
0.0
  0
LINE
  5
2CC
330
2
100
AcDbEntity
  8
0
100
AcDbLine
 10
-1.375
 20
5.774221314121727
 30
0.0
 11
-1.3125
 21
5.749999999999998
 31
0.0
  0
LINE
  5
2CD
330
2
100
AcDbEntity
  8
0
100
AcDbLine
 10
-0.375
 20
3.35077868587827
 30
0.0
 11
-0.3125
 21
3.374999999999998
 31
0.0
  0
LINE
  5
2CE
330
2
100
AcDbEntity
  8
0
100
AcDbLine
 10
-0.4375
 20
3.374999999999998
 30
0.0
 11
-0.375
 21
3.35077868587827
 31
0.0
  0
LINE
  5
2CF
330
2
100
AcDbEntity
  8
0
100
AcDbLine
 10
-1.1875
 20
3.374999999999998
 30
0.0
 11
-1.125
 21
3.35077868587827
 31
0.0
  0
LINE
  5
2D0
330
2
100
AcDbEntity
  8
0
100
AcDbLine
 10
-1.125
 20
3.35077868587827
 30
0.0
 11
-1.0625
 21
3.374999999999998
 31
0.0
  0
LINE
  5
2D1
330
2
100
AcDbEntity
  8
0
100
AcDbLine
 10
-0.9375
 20
3.374999999999998
 30
0.0
 11
-0.875
 21
3.35077868587827
 31
0.0
  0
LINE
  5
2D2
330
2
100
AcDbEntity
  8
0
100
AcDbLine
 10
-0.875
 20
3.35077868587827
 30
0.0
 11
-0.8125
 21
3.374999999999998
 31
0.0
  0
LINE
  5
2D3
330
2
100
AcDbEntity
  8
0
100
AcDbLine
 10
-0.6875
 20
3.374999999999998
 30
0.0
 11
-0.625
 21
3.35077868587827
 31
0.0
  0
LINE
  5
2D4
330
2
100
AcDbEntity
  8
0
100
AcDbLine
 10
-0.625
 20
3.35077868587827
 30
0.0
 11
-0.5625
 21
3.374999999999998
 31
0.0
  0
LINE
  5
2D5
330
2
100
AcDbEntity
  8
0
100
AcDbLine
 10
0.3125
 20
3.374999999999998
 30
0.0
 11
0.375
 21
3.35077868587827
 31
0.0
  0
LINE
  5
2D6
330
2
100
AcDbEntity
  8
0
100
AcDbLine
 10
0.375
 20
3.35077868587827
 30
0.0
 11
0.4375
 21
3.374999999999998
 31
0.0
  0
LINE
  5
2D7
330
2
100
AcDbEntity
  8
0
100
AcDbLine
 10
0.5625
 20
3.374999999999998
 30
0.0
 11
0.625
 21
3.35077868587827
 31
0.0
  0
LINE
  5
2D8
330
2
100
AcDbEntity
  8
0
100
AcDbLine
 10
0.625
 20
3.35077868587827
 30
0.0
 11
0.6875
 21
3.374999999999998
 31
0.0
  0
LINE
  5
2D9
330
2
100
AcDbEntity
  8
0
100
AcDbLine
 10
-1.0625
 20
1.249999999999998
 30
0.0
 11
-1.0625
 21
1.749999999999998
 31
0.0
  0
LINE
  5
2DA
330
2
100
AcDbEntity
  8
0
100
AcDbLine
 10
-1.1875
 20
1.249999999999998
 30
0.0
 11
-1.1875
 21
1.749999999999998
 31
0.0
  0
LINE
  5
2DB
330
2
100
AcDbEntity
  8
0
100
AcDbLine
 10
-0.8125
 20
1.249999999999998
 30
0.0
 11
-0.8125
 21
1.749999999999998
 31
0.0
  0
LINE
  5
2DC
330
2
100
AcDbEntity
  8
0
100
AcDbLine
 10
-0.9375
 20
1.249999999999998
 30
0.0
 11
-0.9375
 21
1.749999999999998
 31
0.0
  0
LINE
  5
2DD
330
2
100
AcDbEntity
  8
0
100
AcDbLine
 10
-1.1875
 20
0.7499999999999982
 30
0.0
 11
-1.125
 21
0.7742213141217267
 31
0.0
  0
LINE
  5
2DE
330
2
100
AcDbEntity
  8
0
100
AcDbLine
 10
-1.125
 20
0.7742213141217267
 30
0.0
 11
-1.0625
 21
0.7499999999999982
 31
0.0
  0
LINE
  5
2DF
330
2
100
AcDbEntity
  8
0
100
AcDbLine
 10
-1.1875
 20
1.249999999999998
 30
0.0
 11
-1.125
 21
1.22577868587827
 31
0.0
  0
LINE
  5
2E0
330
2
100
AcDbEntity
  8
0
100
AcDbLine
 10
-1.125
 20
1.22577868587827
 30
0.0
 11
-1.0625
 21
1.249999999999998
 31
0.0
  0
LINE
  5
2E1
330
2
100
AcDbEntity
  8
0
100
AcDbLine
 10
-0.9375
 20
0.7499999999999982
 30
0.0
 11
-0.875
 21
0.7742213141217267
 31
0.0
  0
LINE
  5
2E2
330
2
100
AcDbEntity
  8
0
100
AcDbLine
 10
-0.875
 20
0.7742213141217267
 30
0.0
 11
-0.8125
 21
0.7499999999999982
 31
0.0
  0
LINE
  5
2E3
330
2
100
AcDbEntity
  8
0
100
AcDbLine
 10
-0.9375
 20
1.249999999999998
 30
0.0
 11
-0.875
 21
1.22577868587827
 31
0.0
  0
LINE
  5
2E4
330
2
100
AcDbEntity
  8
0
100
AcDbLine
 10
-0.875
 20
1.22577868587827
 30
0.0
 11
-0.8125
 21
1.249999999999998
 31
0.0
  0
LINE
  5
2E5
330
2
100
AcDbEntity
  8
0
100
AcDbLine
 10
-1.1875
 20
1.749999999999998
 30
0.0
 11
-1.125
 21
1.774221314121727
 31
0.0
  0
LINE
  5
2E6
330
2
100
AcDbEntity
  8
0
100
AcDbLine
 10
-1.125
 20
1.774221314121727
 30
0.0
 11
-1.0625
 21
1.749999999999998
 31
0.0
  0
LINE
  5
2E7
330
2
100
AcDbEntity
  8
0
100
AcDbLine
 10
-0.9375
 20
1.749999999999998
 30
0.0
 11
-0.875
 21
1.774221314121727
 31
0.0
  0
LINE
  5
2E8
330
2
100
AcDbEntity
  8
0
100
AcDbLine
 10
-0.875
 20
1.774221314121727
 30
0.0
 11
-0.8125
 21
1.749999999999998
 31
0.0
  0
LINE
  5
2E9
330
2
100
AcDbEntity
  8
0
100
AcDbLine
 10
-0.5625
 20
1.249999999999998
 30
0.0
 11
-0.5625
 21
1.749999999999998
 31
0.0
  0
LINE
  5
2EA
330
2
100
AcDbEntity
  8
0
100
AcDbLine
 10
-0.6875
 20
1.249999999999998
 30
0.0
 11
-0.6875
 21
1.749999999999998
 31
0.0
  0
LINE
  5
2EB
330
2
100
AcDbEntity
  8
0
100
AcDbLine
 10
-0.3125
 20
1.249999999999998
 30
0.0
 11
-0.3125
 21
1.749999999999998
 31
0.0
  0
LINE
  5
2EC
330
2
100
AcDbEntity
  8
0
100
AcDbLine
 10
-0.4375
 20
1.249999999999998
 30
0.0
 11
-0.4375
 21
1.749999999999998
 31
0.0
  0
LINE
  5
2ED
330
2
100
AcDbEntity
  8
0
100
AcDbLine
 10
-0.625
 20
0.7742213141217267
 30
0.0
 11
-0.5625
 21
0.7499999999999982
 31
0.0
  0
LINE
  5
2EE
330
2
100
AcDbEntity
  8
0
100
AcDbLine
 10
-0.6875
 20
0.7499999999999982
 30
0.0
 11
-0.625
 21
0.7742213141217267
 31
0.0
  0
LINE
  5
2EF
330
2
100
AcDbEntity
  8
0
100
AcDbLine
 10
-0.625
 20
1.22577868587827
 30
0.0
 11
-0.5625
 21
1.249999999999998
 31
0.0
  0
LINE
  5
2F0
330
2
100
AcDbEntity
  8
0
100
AcDbLine
 10
-0.6875
 20
1.249999999999998
 30
0.0
 11
-0.625
 21
1.22577868587827
 31
0.0
  0
LINE
  5
2F1
330
2
100
AcDbEntity
  8
0
100
AcDbLine
 10
-0.375
 20
0.7742213141217267
 30
0.0
 11
-0.3125
 21
0.7499999999999982
 31
0.0
  0
LINE
  5
2F2
330
2
100
AcDbEntity
  8
0
100
AcDbLine
 10
-0.4375
 20
0.7499999999999982
 30
0.0
 11
-0.375
 21
0.7742213141217267
 31
0.0
  0
LINE
  5
2F3
330
2
100
AcDbEntity
  8
0
100
AcDbLine
 10
-0.375
 20
1.22577868587827
 30
0.0
 11
-0.3125
 21
1.249999999999998
 31
0.0
  0
LINE
  5
2F4
330
2
100
AcDbEntity
  8
0
100
AcDbLine
 10
-0.4375
 20
1.249999999999998
 30
0.0
 11
-0.375
 21
1.22577868587827
 31
0.0
  0
LINE
  5
2F5
330
2
100
AcDbEntity
  8
0
100
AcDbLine
 10
-0.625
 20
1.774221314121727
 30
0.0
 11
-0.5625
 21
1.749999999999998
 31
0.0
  0
LINE
  5
2F6
330
2
100
AcDbEntity
  8
0
100
AcDbLine
 10
-0.6875
 20
1.749999999999998
 30
0.0
 11
-0.625
 21
1.774221314121727
 31
0.0
  0
LINE
  5
2F7
330
2
100
AcDbEntity
  8
0
100
AcDbLine
 10
-0.375
 20
1.774221314121727
 30
0.0
 11
-0.3125
 21
1.749999999999998
 31
0.0
  0
LINE
  5
2F8
330
2
100
AcDbEntity
  8
0
100
AcDbLine
 10
-0.4375
 20
1.749999999999998
 30
0.0
 11
-0.375
 21
1.774221314121727
 31
0.0
  0
LINE
  5
2F9
330
2
100
AcDbEntity
  8
0
100
AcDbLine
 10
-1.0625
 20
2.124999999999998
 30
0.0
 11
-1.0625
 21
2.624999999999998
 31
0.0
  0
LINE
  5
2FA
330
2
100
AcDbEntity
  8
0
100
AcDbLine
 10
-1.1875
 20
2.124999999999998
 30
0.0
 11
-1.1875
 21
2.624999999999998
 31
0.0
  0
LINE
  5
2FB
330
2
100
AcDbEntity
  8
0
100
AcDbLine
 10
-1.1875
 20
2.124999999999998
 30
0.0
 11
-1.125
 21
2.10077868587827
 31
0.0
  0
LINE
  5
2FC
330
2
100
AcDbEntity
  8
0
100
AcDbLine
 10
-1.125
 20
2.10077868587827
 30
0.0
 11
-1.0625
 21
2.124999999999998
 31
0.0
  0
LINE
  5
2FD
330
2
100
AcDbEntity
  8
0
100
AcDbLine
 10
-1.1875
 20
2.624999999999998
 30
0.0
 11
-1.125
 21
2.649221314121727
 31
0.0
  0
LINE
  5
2FE
330
2
100
AcDbEntity
  8
0
100
AcDbLine
 10
-1.125
 20
2.649221314121727
 30
0.0
 11
-1.0625
 21
2.624999999999998
 31
0.0
  0
LINE
  5
2FF
330
2
100
AcDbEntity
  8
0
100
AcDbLine
 10
-0.8125
 20
2.124999999999998
 30
0.0
 11
-0.8125
 21
2.624999999999998
 31
0.0
  0
LINE
  5
300
330
2
100
AcDbEntity
  8
0
100
AcDbLine
 10
-0.9375
 20
2.124999999999998
 30
0.0
 11
-0.9375
 21
2.624999999999998
 31
0.0
  0
LINE
  5
301
330
2
100
AcDbEntity
  8
0
100
AcDbLine
 10
-0.9375
 20
2.124999999999998
 30
0.0
 11
-0.875
 21
2.10077868587827
 31
0.0
  0
LINE
  5
302
330
2
100
AcDbEntity
  8
0
100
AcDbLine
 10
-0.875
 20
2.10077868587827
 30
0.0
 11
-0.8125
 21
2.124999999999998
 31
0.0
  0
LINE
  5
303
330
2
100
AcDbEntity
  8
0
100
AcDbLine
 10
-0.9375
 20
2.624999999999998
 30
0.0
 11
-0.875
 21
2.649221314121727
 31
0.0
  0
LINE
  5
304
330
2
100
AcDbEntity
  8
0
100
AcDbLine
 10
-0.875
 20
2.649221314121727
 30
0.0
 11
-0.8125
 21
2.624999999999998
 31
0.0
  0
LINE
  5
305
330
2
100
AcDbEntity
  8
0
100
AcDbLine
 10
-0.5625
 20
2.124999999999998
 30
0.0
 11
-0.5625
 21
2.624999999999998
 31
0.0
  0
LINE
  5
306
330
2
100
AcDbEntity
  8
0
100
AcDbLine
 10
-0.6875
 20
2.124999999999998
 30
0.0
 11
-0.6875
 21
2.624999999999998
 31
0.0
  0
LINE
  5
307
330
2
100
AcDbEntity
  8
0
100
AcDbLine
 10
-0.625
 20
2.10077868587827
 30
0.0
 11
-0.5625
 21
2.124999999999998
 31
0.0
  0
LINE
  5
308
330
2
100
AcDbEntity
  8
0
100
AcDbLine
 10
-0.6875
 20
2.124999999999998
 30
0.0
 11
-0.625
 21
2.10077868587827
 31
0.0
  0
LINE
  5
309
330
2
100
AcDbEntity
  8
0
100
AcDbLine
 10
-0.625
 20
2.649221314121727
 30
0.0
 11
-0.5625
 21
2.624999999999998
 31
0.0
  0
LINE
  5
30A
330
2
100
AcDbEntity
  8
0
100
AcDbLine
 10
-0.6875
 20
2.624999999999998
 30
0.0
 11
-0.625
 21
2.649221314121727
 31
0.0
  0
LINE
  5
30B
330
2
100
AcDbEntity
  8
0
100
AcDbLine
 10
-0.4375
 20
2.124999999999998
 30
0.0
 11
-0.4375
 21
2.624999999999998
 31
0.0
  0
LINE
  5
30C
330
2
100
AcDbEntity
  8
0
100
AcDbLine
 10
-0.3125
 20
2.124999999999998
 30
0.0
 11
-0.3125
 21
2.624999999999998
 31
0.0
  0
LINE
  5
30D
330
2
100
AcDbEntity
  8
0
100
AcDbLine
 10
-0.375
 20
2.10077868587827
 30
0.0
 11
-0.3125
 21
2.124999999999998
 31
0.0
  0
LINE
  5
30E
330
2
100
AcDbEntity
  8
0
100
AcDbLine
 10
-0.4375
 20
2.124999999999998
 30
0.0
 11
-0.375
 21
2.10077868587827
 31
0.0
  0
LINE
  5
30F
330
2
100
AcDbEntity
  8
0
100
AcDbLine
 10
-0.375
 20
2.649221314121727
 30
0.0
 11
-0.3125
 21
2.624999999999998
 31
0.0
  0
LINE
  5
310
330
2
100
AcDbEntity
  8
0
100
AcDbLine
 10
-0.4375
 20
2.624999999999998
 30
0.0
 11
-0.375
 21
2.649221314121727
 31
0.0
  0
LINE
  5
311
330
2
100
AcDbEntity
  8
0
100
AcDbLine
 10
-0.0625
 20
1.249999999999998
 30
0.0
 11
-0.0625
 21
1.749999999999998
 31
0.0
  0
LINE
  5
312
330
2
100
AcDbEntity
  8
0
100
AcDbLine
 10
-0.1875
 20
1.249999999999998
 30
0.0
 11
-0.1875
 21
1.749999999999998
 31
0.0
  0
LINE
  5
313
330
2
100
AcDbEntity
  8
0
100
AcDbLine
 10
0.1875
 20
1.249999999999998
 30
0.0
 11
0.1875
 21
1.749999999999998
 31
0.0
  0
LINE
  5
314
330
2
100
AcDbEntity
  8
0
100
AcDbLine
 10
0.0625
 20
1.249999999999998
 30
0.0
 11
0.0625
 21
1.749999999999998
 31
0.0
  0
LINE
  5
315
330
2
100
AcDbEntity
  8
0
100
AcDbLine
 10
-0.125
 20
0.7742213141217267
 30
0.0
 11
-0.0625
 21
0.7499999999999982
 31
0.0
  0
LINE
  5
316
330
2
100
AcDbEntity
  8
0
100
AcDbLine
 10
-0.1875
 20
0.7499999999999982
 30
0.0
 11
-0.125
 21
0.7742213141217267
 31
0.0
  0
LINE
  5
317
330
2
100
AcDbEntity
  8
0
100
AcDbLine
 10
-0.125
 20
1.22577868587827
 30
0.0
 11
-0.0625
 21
1.249999999999998
 31
0.0
  0
LINE
  5
318
330
2
100
AcDbEntity
  8
0
100
AcDbLine
 10
-0.1875
 20
1.249999999999998
 30
0.0
 11
-0.125
 21
1.22577868587827
 31
0.0
  0
LINE
  5
319
330
2
100
AcDbEntity
  8
0
100
AcDbLine
 10
0.125
 20
0.7742213141217267
 30
0.0
 11
0.1875
 21
0.7499999999999982
 31
0.0
  0
LINE
  5
31A
330
2
100
AcDbEntity
  8
0
100
AcDbLine
 10
0.0625
 20
0.7499999999999982
 30
0.0
 11
0.125
 21
0.7742213141217267
 31
0.0
  0
LINE
  5
31B
330
2
100
AcDbEntity
  8
0
100
AcDbLine
 10
0.125
 20
1.22577868587827
 30
0.0
 11
0.1875
 21
1.249999999999998
 31
0.0
  0
LINE
  5
31C
330
2
100
AcDbEntity
  8
0
100
AcDbLine
 10
0.0625
 20
1.249999999999998
 30
0.0
 11
0.125
 21
1.22577868587827
 31
0.0
  0
LINE
  5
31D
330
2
100
AcDbEntity
  8
0
100
AcDbLine
 10
-0.125
 20
1.774221314121727
 30
0.0
 11
-0.0625
 21
1.749999999999998
 31
0.0
  0
LINE
  5
31E
330
2
100
AcDbEntity
  8
0
100
AcDbLine
 10
-0.1875
 20
1.749999999999998
 30
0.0
 11
-0.125
 21
1.774221314121727
 31
0.0
  0
LINE
  5
31F
330
2
100
AcDbEntity
  8
0
100
AcDbLine
 10
0.125
 20
1.774221314121727
 30
0.0
 11
0.1875
 21
1.749999999999998
 31
0.0
  0
LINE
  5
320
330
2
100
AcDbEntity
  8
0
100
AcDbLine
 10
0.0625
 20
1.749999999999998
 30
0.0
 11
0.125
 21
1.774221314121727
 31
0.0
  0
LINE
  5
321
330
2
100
AcDbEntity
  8
0
100
AcDbLine
 10
0.4375
 20
1.249999999999998
 30
0.0
 11
0.4375
 21
1.749999999999998
 31
0.0
  0
LINE
  5
322
330
2
100
AcDbEntity
  8
0
100
AcDbLine
 10
0.3125
 20
1.249999999999998
 30
0.0
 11
0.3125
 21
1.749999999999998
 31
0.0
  0
LINE
  5
323
330
2
100
AcDbEntity
  8
0
100
AcDbLine
 10
0.6875
 20
1.249999999999998
 30
0.0
 11
0.6875
 21
1.749999999999998
 31
0.0
  0
LINE
  5
324
330
2
100
AcDbEntity
  8
0
100
AcDbLine
 10
0.5625
 20
1.249999999999998
 30
0.0
 11
0.5625
 21
1.749999999999998
 31
0.0
  0
LINE
  5
325
330
2
100
AcDbEntity
  8
0
100
AcDbLine
 10
0.8125
 20
1.249999999999998
 30
0.0
 11
0.8125
 21
1.749999999999998
 31
0.0
  0
LINE
  5
326
330
2
100
AcDbEntity
  8
0
100
AcDbLine
 10
0.375
 20
0.7742213141217267
 30
0.0
 11
0.4375
 21
0.7499999999999982
 31
0.0
  0
LINE
  5
327
330
2
100
AcDbEntity
  8
0
100
AcDbLine
 10
0.3125
 20
0.7499999999999982
 30
0.0
 11
0.375
 21
0.7742213141217267
 31
0.0
  0
LINE
  5
328
330
2
100
AcDbEntity
  8
0
100
AcDbLine
 10
0.375
 20
1.22577868587827
 30
0.0
 11
0.4375
 21
1.249999999999998
 31
0.0
  0
LINE
  5
329
330
2
100
AcDbEntity
  8
0
100
AcDbLine
 10
0.3125
 20
1.249999999999998
 30
0.0
 11
0.375
 21
1.22577868587827
 31
0.0
  0
LINE
  5
32A
330
2
100
AcDbEntity
  8
0
100
AcDbLine
 10
0.625
 20
0.7742213141217267
 30
0.0
 11
0.6875
 21
0.7499999999999982
 31
0.0
  0
LINE
  5
32B
330
2
100
AcDbEntity
  8
0
100
AcDbLine
 10
0.5625
 20
0.7499999999999982
 30
0.0
 11
0.625
 21
0.7742213141217267
 31
0.0
  0
LINE
  5
32C
330
2
100
AcDbEntity
  8
0
100
AcDbLine
 10
0.625
 20
1.22577868587827
 30
0.0
 11
0.6875
 21
1.249999999999998
 31
0.0
  0
LINE
  5
32D
330
2
100
AcDbEntity
  8
0
100
AcDbLine
 10
0.5625
 20
1.249999999999998
 30
0.0
 11
0.625
 21
1.22577868587827
 31
0.0
  0
LINE
  5
32E
330
2
100
AcDbEntity
  8
0
100
AcDbLine
 10
0.375
 20
1.774221314121727
 30
0.0
 11
0.4375
 21
1.749999999999998
 31
0.0
  0
LINE
  5
32F
330
2
100
AcDbEntity
  8
0
100
AcDbLine
 10
0.3125
 20
1.749999999999998
 30
0.0
 11
0.375
 21
1.774221314121727
 31
0.0
  0
LINE
  5
330
330
2
100
AcDbEntity
  8
0
100
AcDbLine
 10
0.625
 20
1.774221314121727
 30
0.0
 11
0.6875
 21
1.749999999999998
 31
0.0
  0
LINE
  5
331
330
2
100
AcDbEntity
  8
0
100
AcDbLine
 10
0.5625
 20
1.749999999999998
 30
0.0
 11
0.625
 21
1.774221314121727
 31
0.0
  0
LINE
  5
332
330
2
100
AcDbEntity
  8
0
100
AcDbLine
 10
0.4375
 20
2.124999999999998
 30
0.0
 11
0.4375
 21
2.624999999999998
 31
0.0
  0
LINE
  5
333
330
2
100
AcDbEntity
  8
0
100
AcDbLine
 10
0.3125
 20
2.124999999999998
 30
0.0
 11
0.3125
 21
2.624999999999998
 31
0.0
  0
LINE
  5
334
330
2
100
AcDbEntity
  8
0
100
AcDbLine
 10
0.375
 20
2.10077868587827
 30
0.0
 11
0.4375
 21
2.124999999999998
 31
0.0
  0
LINE
  5
335
330
2
100
AcDbEntity
  8
0
100
AcDbLine
 10
0.3125
 20
2.124999999999998
 30
0.0
 11
0.375
 21
2.10077868587827
 31
0.0
  0
LINE
  5
336
330
2
100
AcDbEntity
  8
0
100
AcDbLine
 10
0.375
 20
2.649221314121727
 30
0.0
 11
0.4375
 21
2.624999999999998
 31
0.0
  0
LINE
  5
337
330
2
100
AcDbEntity
  8
0
100
AcDbLine
 10
0.3125
 20
2.624999999999998
 30
0.0
 11
0.375
 21
2.649221314121727
 31
0.0
  0
LINE
  5
338
330
2
100
AcDbEntity
  8
0
100
AcDbLine
 10
0.6875
 20
2.124999999999998
 30
0.0
 11
0.6875
 21
2.624999999999998
 31
0.0
  0
LINE
  5
339
330
2
100
AcDbEntity
  8
0
100
AcDbLine
 10
0.5625
 20
2.124999999999998
 30
0.0
 11
0.5625
 21
2.624999999999998
 31
0.0
  0
LINE
  5
33A
330
2
100
AcDbEntity
  8
0
100
AcDbLine
 10
0.8125
 20
2.124999999999998
 30
0.0
 11
0.8125
 21
2.624999999999998
 31
0.0
  0
LINE
  5
33B
330
2
100
AcDbEntity
  8
0
100
AcDbLine
 10
0.625
 20
2.10077868587827
 30
0.0
 11
0.6875
 21
2.124999999999998
 31
0.0
  0
LINE
  5
33C
330
2
100
AcDbEntity
  8
0
100
AcDbLine
 10
0.5625
 20
2.124999999999998
 30
0.0
 11
0.625
 21
2.10077868587827
 31
0.0
  0
LINE
  5
33D
330
2
100
AcDbEntity
  8
0
100
AcDbLine
 10
0.625
 20
2.649221314121727
 30
0.0
 11
0.6875
 21
2.624999999999998
 31
0.0
  0
LINE
  5
33E
330
2
100
AcDbEntity
  8
0
100
AcDbLine
 10
0.5625
 20
2.624999999999998
 30
0.0
 11
0.625
 21
2.649221314121727
 31
0.0
  0
LINE
  5
33F
330
2
100
AcDbEntity
  8
0
100
AcDbLine
 10
-1.0625
 20
4.249999999999998
 30
0.0
 11
-1.0625
 21
4.749999999999998
 31
0.0
  0
LINE
  5
340
330
2
100
AcDbEntity
  8
0
100
AcDbLine
 10
-1.1875
 20
4.249999999999998
 30
0.0
 11
-1.1875
 21
4.749999999999998
 31
0.0
  0
LINE
  5
341
330
2
100
AcDbEntity
  8
0
100
AcDbLine
 10
-0.8125
 20
4.249999999999998
 30
0.0
 11
-0.8125
 21
4.749999999999998
 31
0.0
  0
LINE
  5
342
330
2
100
AcDbEntity
  8
0
100
AcDbLine
 10
-0.9375
 20
4.249999999999998
 30
0.0
 11
-0.9375
 21
4.749999999999998
 31
0.0
  0
LINE
  5
343
330
2
100
AcDbEntity
  8
0
100
AcDbLine
 10
-0.5625
 20
4.249999999999998
 30
0.0
 11
-0.5625
 21
4.749999999999998
 31
0.0
  0
LINE
  5
344
330
2
100
AcDbEntity
  8
0
100
AcDbLine
 10
-0.6875
 20
4.249999999999998
 30
0.0
 11
-0.6875
 21
4.749999999999998
 31
0.0
  0
LINE
  5
345
330
2
100
AcDbEntity
  8
0
100
AcDbLine
 10
-0.3125
 20
4.249999999999998
 30
0.0
 11
-0.3125
 21
4.749999999999998
 31
0.0
  0
LINE
  5
346
330
2
100
AcDbEntity
  8
0
100
AcDbLine
 10
-0.4375
 20
4.249999999999998
 30
0.0
 11
-0.4375
 21
4.749999999999998
 31
0.0
  0
LINE
  5
347
330
2
100
AcDbEntity
  8
0
100
AcDbLine
 10
-1.0625
 20
3.374999999999998
 30
0.0
 11
-1.0625
 21
3.874999999999998
 31
0.0
  0
LINE
  5
348
330
2
100
AcDbEntity
  8
0
100
AcDbLine
 10
-1.1875
 20
3.374999999999998
 30
0.0
 11
-1.1875
 21
3.874999999999998
 31
0.0
  0
LINE
  5
349
330
2
100
AcDbEntity
  8
0
100
AcDbLine
 10
-1.1875
 20
3.874999999999998
 30
0.0
 11
-1.125
 21
3.899221314121727
 31
0.0
  0
LINE
  5
34A
330
2
100
AcDbEntity
  8
0
100
AcDbLine
 10
-1.125
 20
3.899221314121727
 30
0.0
 11
-1.0625
 21
3.874999999999998
 31
0.0
  0
LINE
  5
34B
330
2
100
AcDbEntity
  8
0
100
AcDbLine
 10
-0.8125
 20
3.374999999999998
 30
0.0
 11
-0.8125
 21
3.874999999999998
 31
0.0
  0
LINE
  5
34C
330
2
100
AcDbEntity
  8
0
100
AcDbLine
 10
-0.9375
 20
3.374999999999998
 30
0.0
 11
-0.9375
 21
3.874999999999998
 31
0.0
  0
LINE
  5
34D
330
2
100
AcDbEntity
  8
0
100
AcDbLine
 10
-0.9375
 20
3.874999999999998
 30
0.0
 11
-0.875
 21
3.899221314121727
 31
0.0
  0
LINE
  5
34E
330
2
100
AcDbEntity
  8
0
100
AcDbLine
 10
-0.875
 20
3.899221314121727
 30
0.0
 11
-0.8125
 21
3.874999999999998
 31
0.0
  0
LINE
  5
34F
330
2
100
AcDbEntity
  8
0
100
AcDbLine
 10
-1.1875
 20
4.249999999999998
 30
0.0
 11
-1.125
 21
4.22577868587827
 31
0.0
  0
LINE
  5
350
330
2
100
AcDbEntity
  8
0
100
AcDbLine
 10
-1.125
 20
4.22577868587827
 30
0.0
 11
-1.0625
 21
4.249999999999998
 31
0.0
  0
LINE
  5
351
330
2
100
AcDbEntity
  8
0
100
AcDbLine
 10
-0.9375
 20
4.249999999999998
 30
0.0
 11
-0.875
 21
4.22577868587827
 31
0.0
  0
LINE
  5
352
330
2
100
AcDbEntity
  8
0
100
AcDbLine
 10
-0.875
 20
4.22577868587827
 30
0.0
 11
-0.8125
 21
4.249999999999998
 31
0.0
  0
LINE
  5
353
330
2
100
AcDbEntity
  8
0
100
AcDbLine
 10
-0.5625
 20
3.374999999999998
 30
0.0
 11
-0.5625
 21
3.874999999999998
 31
0.0
  0
LINE
  5
354
330
2
100
AcDbEntity
  8
0
100
AcDbLine
 10
-0.6875
 20
3.374999999999998
 30
0.0
 11
-0.6875
 21
3.874999999999998
 31
0.0
  0
LINE
  5
355
330
2
100
AcDbEntity
  8
0
100
AcDbLine
 10
-0.625
 20
3.899221314121727
 30
0.0
 11
-0.5625
 21
3.874999999999998
 31
0.0
  0
LINE
  5
356
330
2
100
AcDbEntity
  8
0
100
AcDbLine
 10
-0.6875
 20
3.874999999999998
 30
0.0
 11
-0.625
 21
3.899221314121727
 31
0.0
  0
LINE
  5
357
330
2
100
AcDbEntity
  8
0
100
AcDbLine
 10
-0.4375
 20
3.374999999999998
 30
0.0
 11
-0.4375
 21
3.874999999999998
 31
0.0
  0
LINE
  5
358
330
2
100
AcDbEntity
  8
0
100
AcDbLine
 10
-0.3125
 20
3.374999999999998
 30
0.0
 11
-0.3125
 21
3.874999999999998
 31
0.0
  0
LINE
  5
359
330
2
100
AcDbEntity
  8
0
100
AcDbLine
 10
-0.375
 20
3.899221314121727
 30
0.0
 11
-0.3125
 21
3.874999999999998
 31
0.0
  0
LINE
  5
35A
330
2
100
AcDbEntity
  8
0
100
AcDbLine
 10
-0.4375
 20
3.874999999999998
 30
0.0
 11
-0.375
 21
3.899221314121727
 31
0.0
  0
LINE
  5
35B
330
2
100
AcDbEntity
  8
0
100
AcDbLine
 10
-0.625
 20
4.22577868587827
 30
0.0
 11
-0.5625
 21
4.249999999999998
 31
0.0
  0
LINE
  5
35C
330
2
100
AcDbEntity
  8
0
100
AcDbLine
 10
-0.6875
 20
4.249999999999998
 30
0.0
 11
-0.625
 21
4.22577868587827
 31
0.0
  0
LINE
  5
35D
330
2
100
AcDbEntity
  8
0
100
AcDbLine
 10
-0.375
 20
4.22577868587827
 30
0.0
 11
-0.3125
 21
4.249999999999998
 31
0.0
  0
LINE
  5
35E
330
2
100
AcDbEntity
  8
0
100
AcDbLine
 10
-0.4375
 20
4.249999999999998
 30
0.0
 11
-0.375
 21
4.22577868587827
 31
0.0
  0
LINE
  5
35F
330
2
100
AcDbEntity
  8
0
100
AcDbLine
 10
-1.0625
 20
5.249999999999998
 30
0.0
 11
-1.0625
 21
5.749999999999998
 31
0.0
  0
LINE
  5
360
330
2
100
AcDbEntity
  8
0
100
AcDbLine
 10
-1.1875
 20
5.249999999999998
 30
0.0
 11
-1.1875
 21
5.749999999999998
 31
0.0
  0
LINE
  5
361
330
2
100
AcDbEntity
  8
0
100
AcDbLine
 10
-0.8125
 20
5.249999999999998
 30
0.0
 11
-0.8125
 21
5.749999999999998
 31
0.0
  0
LINE
  5
362
330
2
100
AcDbEntity
  8
0
100
AcDbLine
 10
-0.9375
 20
5.249999999999998
 30
0.0
 11
-0.9375
 21
5.749999999999998
 31
0.0
  0
LINE
  5
363
330
2
100
AcDbEntity
  8
0
100
AcDbLine
 10
-1.1875
 20
4.749999999999998
 30
0.0
 11
-1.125
 21
4.774221314121727
 31
0.0
  0
LINE
  5
364
330
2
100
AcDbEntity
  8
0
100
AcDbLine
 10
-1.125
 20
4.774221314121727
 30
0.0
 11
-1.0625
 21
4.749999999999998
 31
0.0
  0
LINE
  5
365
330
2
100
AcDbEntity
  8
0
100
AcDbLine
 10
-1.1875
 20
5.249999999999998
 30
0.0
 11
-1.125
 21
5.22577868587827
 31
0.0
  0
LINE
  5
366
330
2
100
AcDbEntity
  8
0
100
AcDbLine
 10
-1.125
 20
5.22577868587827
 30
0.0
 11
-1.0625
 21
5.249999999999998
 31
0.0
  0
LINE
  5
367
330
2
100
AcDbEntity
  8
0
100
AcDbLine
 10
-0.9375
 20
4.749999999999998
 30
0.0
 11
-0.875
 21
4.774221314121727
 31
0.0
  0
LINE
  5
368
330
2
100
AcDbEntity
  8
0
100
AcDbLine
 10
-0.875
 20
4.774221314121727
 30
0.0
 11
-0.8125
 21
4.749999999999998
 31
0.0
  0
LINE
  5
369
330
2
100
AcDbEntity
  8
0
100
AcDbLine
 10
-0.9375
 20
5.249999999999998
 30
0.0
 11
-0.875
 21
5.22577868587827
 31
0.0
  0
LINE
  5
36A
330
2
100
AcDbEntity
  8
0
100
AcDbLine
 10
-0.875
 20
5.22577868587827
 30
0.0
 11
-0.8125
 21
5.249999999999998
 31
0.0
  0
LINE
  5
36B
330
2
100
AcDbEntity
  8
0
100
AcDbLine
 10
-1.125
 20
5.774221314121727
 30
0.0
 11
-1.0625
 21
5.749999999999998
 31
0.0
  0
LINE
  5
36C
330
2
100
AcDbEntity
  8
0
100
AcDbLine
 10
-1.1875
 20
5.749999999999998
 30
0.0
 11
-1.125
 21
5.774221314121727
 31
0.0
  0
LINE
  5
36D
330
2
100
AcDbEntity
  8
0
100
AcDbLine
 10
-0.875
 20
5.774221314121727
 30
0.0
 11
-0.8125
 21
5.749999999999998
 31
0.0
  0
LINE
  5
36E
330
2
100
AcDbEntity
  8
0
100
AcDbLine
 10
-0.9375
 20
5.749999999999998
 30
0.0
 11
-0.875
 21
5.774221314121727
 31
0.0
  0
LINE
  5
36F
330
2
100
AcDbEntity
  8
0
100
AcDbLine
 10
-0.5625
 20
5.249999999999998
 30
0.0
 11
-0.5625
 21
5.749999999999998
 31
0.0
  0
LINE
  5
370
330
2
100
AcDbEntity
  8
0
100
AcDbLine
 10
-0.6875
 20
5.249999999999998
 30
0.0
 11
-0.6875
 21
5.749999999999998
 31
0.0
  0
LINE
  5
371
330
2
100
AcDbEntity
  8
0
100
AcDbLine
 10
-0.3125
 20
5.249999999999998
 30
0.0
 11
-0.3125
 21
5.749999999999998
 31
0.0
  0
LINE
  5
372
330
2
100
AcDbEntity
  8
0
100
AcDbLine
 10
-0.4375
 20
5.249999999999998
 30
0.0
 11
-0.4375
 21
5.749999999999998
 31
0.0
  0
LINE
  5
373
330
2
100
AcDbEntity
  8
0
100
AcDbLine
 10
-0.625
 20
4.774221314121727
 30
0.0
 11
-0.5625
 21
4.749999999999998
 31
0.0
  0
LINE
  5
374
330
2
100
AcDbEntity
  8
0
100
AcDbLine
 10
-0.6875
 20
4.749999999999998
 30
0.0
 11
-0.625
 21
4.774221314121727
 31
0.0
  0
LINE
  5
375
330
2
100
AcDbEntity
  8
0
100
AcDbLine
 10
-0.625
 20
5.22577868587827
 30
0.0
 11
-0.5625
 21
5.249999999999998
 31
0.0
  0
LINE
  5
376
330
2
100
AcDbEntity
  8
0
100
AcDbLine
 10
-0.6875
 20
5.249999999999998
 30
0.0
 11
-0.625
 21
5.22577868587827
 31
0.0
  0
LINE
  5
377
330
2
100
AcDbEntity
  8
0
100
AcDbLine
 10
-0.375
 20
4.774221314121727
 30
0.0
 11
-0.3125
 21
4.749999999999998
 31
0.0
  0
LINE
  5
378
330
2
100
AcDbEntity
  8
0
100
AcDbLine
 10
-0.4375
 20
4.749999999999998
 30
0.0
 11
-0.375
 21
4.774221314121727
 31
0.0
  0
LINE
  5
379
330
2
100
AcDbEntity
  8
0
100
AcDbLine
 10
-0.375
 20
5.22577868587827
 30
0.0
 11
-0.3125
 21
5.249999999999998
 31
0.0
  0
LINE
  5
37A
330
2
100
AcDbEntity
  8
0
100
AcDbLine
 10
-0.4375
 20
5.249999999999998
 30
0.0
 11
-0.375
 21
5.22577868587827
 31
0.0
  0
LINE
  5
37B
330
2
100
AcDbEntity
  8
0
100
AcDbLine
 10
-0.625
 20
5.774221314121727
 30
0.0
 11
-0.5625
 21
5.749999999999998
 31
0.0
  0
LINE
  5
37C
330
2
100
AcDbEntity
  8
0
100
AcDbLine
 10
-0.6875
 20
5.749999999999998
 30
0.0
 11
-0.625
 21
5.774221314121727
 31
0.0
  0
LINE
  5
37D
330
2
100
AcDbEntity
  8
0
100
AcDbLine
 10
-0.375
 20
5.774221314121727
 30
0.0
 11
-0.3125
 21
5.749999999999998
 31
0.0
  0
LINE
  5
37E
330
2
100
AcDbEntity
  8
0
100
AcDbLine
 10
-0.4375
 20
5.749999999999998
 30
0.0
 11
-0.375
 21
5.774221314121727
 31
0.0
  0
LINE
  5
37F
330
2
100
AcDbEntity
  8
0
100
AcDbLine
 10
-0.0625
 20
4.249999999999998
 30
0.0
 11
-0.0625
 21
4.749999999999998
 31
0.0
  0
LINE
  5
380
330
2
100
AcDbEntity
  8
0
100
AcDbLine
 10
-0.1875
 20
4.249999999999998
 30
0.0
 11
-0.1875
 21
4.749999999999998
 31
0.0
  0
LINE
  5
381
330
2
100
AcDbEntity
  8
0
100
AcDbLine
 10
0.1875
 20
4.249999999999998
 30
0.0
 11
0.1875
 21
4.749999999999998
 31
0.0
  0
LINE
  5
382
330
2
100
AcDbEntity
  8
0
100
AcDbLine
 10
0.0625
 20
4.249999999999998
 30
0.0
 11
0.0625
 21
4.749999999999998
 31
0.0
  0
LINE
  5
383
330
2
100
AcDbEntity
  8
0
100
AcDbLine
 10
0.4375
 20
4.249999999999998
 30
0.0
 11
0.4375
 21
4.749999999999998
 31
0.0
  0
LINE
  5
384
330
2
100
AcDbEntity
  8
0
100
AcDbLine
 10
0.3125
 20
4.249999999999998
 30
0.0
 11
0.3125
 21
4.749999999999998
 31
0.0
  0
LINE
  5
385
330
2
100
AcDbEntity
  8
0
100
AcDbLine
 10
0.6875
 20
4.249999999999998
 30
0.0
 11
0.6875
 21
4.749999999999998
 31
0.0
  0
LINE
  5
386
330
2
100
AcDbEntity
  8
0
100
AcDbLine
 10
0.5625
 20
4.249999999999998
 30
0.0
 11
0.5625
 21
4.749999999999998
 31
0.0
  0
LINE
  5
387
330
2
100
AcDbEntity
  8
0
100
AcDbLine
 10
0.8125
 20
4.249999999999998
 30
0.0
 11
0.8125
 21
4.749999999999998
 31
0.0
  0
LINE
  5
388
330
2
100
AcDbEntity
  8
0
100
AcDbLine
 10
-0.125
 20
4.22577868587827
 30
0.0
 11
-0.0625
 21
4.249999999999998
 31
0.0
  0
LINE
  5
389
330
2
100
AcDbEntity
  8
0
100
AcDbLine
 10
-0.1875
 20
4.249999999999998
 30
0.0
 11
-0.125
 21
4.22577868587827
 31
0.0
  0
LINE
  5
38A
330
2
100
AcDbEntity
  8
0
100
AcDbLine
 10
0.125
 20
4.22577868587827
 30
0.0
 11
0.1875
 21
4.249999999999998
 31
0.0
  0
LINE
  5
38B
330
2
100
AcDbEntity
  8
0
100
AcDbLine
 10
0.0625
 20
4.249999999999998
 30
0.0
 11
0.125
 21
4.22577868587827
 31
0.0
  0
LINE
  5
38C
330
2
100
AcDbEntity
  8
0
100
AcDbLine
 10
0.4375
 20
3.374999999999998
 30
0.0
 11
0.4375
 21
3.874999999999998
 31
0.0
  0
LINE
  5
38D
330
2
100
AcDbEntity
  8
0
100
AcDbLine
 10
0.3125
 20
3.374999999999998
 30
0.0
 11
0.3125
 21
3.874999999999998
 31
0.0
  0
LINE
  5
38E
330
2
100
AcDbEntity
  8
0
100
AcDbLine
 10
0.375
 20
3.899221314121727
 30
0.0
 11
0.4375
 21
3.874999999999998
 31
0.0
  0
LINE
  5
38F
330
2
100
AcDbEntity
  8
0
100
AcDbLine
 10
0.3125
 20
3.874999999999998
 30
0.0
 11
0.375
 21
3.899221314121727
 31
0.0
  0
LINE
  5
390
330
2
100
AcDbEntity
  8
0
100
AcDbLine
 10
0.6875
 20
3.374999999999998
 30
0.0
 11
0.6875
 21
3.874999999999998
 31
0.0
  0
LINE
  5
391
330
2
100
AcDbEntity
  8
0
100
AcDbLine
 10
0.5625
 20
3.374999999999998
 30
0.0
 11
0.5625
 21
3.874999999999998
 31
0.0
  0
LINE
  5
392
330
2
100
AcDbEntity
  8
0
100
AcDbLine
 10
0.8125
 20
3.374999999999998
 30
0.0
 11
0.8125
 21
3.874999999999998
 31
0.0
  0
LINE
  5
393
330
2
100
AcDbEntity
  8
0
100
AcDbLine
 10
0.625
 20
3.899221314121727
 30
0.0
 11
0.6875
 21
3.874999999999998
 31
0.0
  0
LINE
  5
394
330
2
100
AcDbEntity
  8
0
100
AcDbLine
 10
0.5625
 20
3.874999999999998
 30
0.0
 11
0.625
 21
3.899221314121727
 31
0.0
  0
LINE
  5
395
330
2
100
AcDbEntity
  8
0
100
AcDbLine
 10
0.375
 20
4.22577868587827
 30
0.0
 11
0.4375
 21
4.249999999999998
 31
0.0
  0
LINE
  5
396
330
2
100
AcDbEntity
  8
0
100
AcDbLine
 10
0.3125
 20
4.249999999999998
 30
0.0
 11
0.375
 21
4.22577868587827
 31
0.0
  0
LINE
  5
397
330
2
100
AcDbEntity
  8
0
100
AcDbLine
 10
0.625
 20
4.22577868587827
 30
0.0
 11
0.6875
 21
4.249999999999998
 31
0.0
  0
LINE
  5
398
330
2
100
AcDbEntity
  8
0
100
AcDbLine
 10
0.5625
 20
4.249999999999998
 30
0.0
 11
0.625
 21
4.22577868587827
 31
0.0
  0
LINE
  5
399
330
2
100
AcDbEntity
  8
0
100
AcDbLine
 10
-0.0625
 20
5.249999999999998
 30
0.0
 11
-0.0625
 21
5.749999999999998
 31
0.0
  0
LINE
  5
39A
330
2
100
AcDbEntity
  8
0
100
AcDbLine
 10
-0.1875
 20
5.249999999999998
 30
0.0
 11
-0.1875
 21
5.749999999999998
 31
0.0
  0
LINE
  5
39B
330
2
100
AcDbEntity
  8
0
100
AcDbLine
 10
0.1875
 20
5.249999999999998
 30
0.0
 11
0.1875
 21
5.749999999999998
 31
0.0
  0
LINE
  5
39C
330
2
100
AcDbEntity
  8
0
100
AcDbLine
 10
0.0625
 20
5.249999999999998
 30
0.0
 11
0.0625
 21
5.749999999999998
 31
0.0
  0
LINE
  5
39D
330
2
100
AcDbEntity
  8
0
100
AcDbLine
 10
-0.125
 20
4.774221314121727
 30
0.0
 11
-0.0625
 21
4.749999999999998
 31
0.0
  0
LINE
  5
39E
330
2
100
AcDbEntity
  8
0
100
AcDbLine
 10
-0.1875
 20
4.749999999999998
 30
0.0
 11
-0.125
 21
4.774221314121727
 31
0.0
  0
LINE
  5
39F
330
2
100
AcDbEntity
  8
0
100
AcDbLine
 10
-0.125
 20
5.22577868587827
 30
0.0
 11
-0.0625
 21
5.249999999999998
 31
0.0
  0
LINE
  5
3A0
330
2
100
AcDbEntity
  8
0
100
AcDbLine
 10
-0.1875
 20
5.249999999999998
 30
0.0
 11
-0.125
 21
5.22577868587827
 31
0.0
  0
LINE
  5
3A1
330
2
100
AcDbEntity
  8
0
100
AcDbLine
 10
0.125
 20
4.774221314121727
 30
0.0
 11
0.1875
 21
4.749999999999998
 31
0.0
  0
LINE
  5
3A2
330
2
100
AcDbEntity
  8
0
100
AcDbLine
 10
0.0625
 20
4.749999999999998
 30
0.0
 11
0.125
 21
4.774221314121727
 31
0.0
  0
LINE
  5
3A3
330
2
100
AcDbEntity
  8
0
100
AcDbLine
 10
0.125
 20
5.22577868587827
 30
0.0
 11
0.1875
 21
5.249999999999998
 31
0.0
  0
LINE
  5
3A4
330
2
100
AcDbEntity
  8
0
100
AcDbLine
 10
0.0625
 20
5.249999999999998
 30
0.0
 11
0.125
 21
5.22577868587827
 31
0.0
  0
LINE
  5
3A5
330
2
100
AcDbEntity
  8
0
100
AcDbLine
 10
-0.125
 20
5.774221314121727
 30
0.0
 11
-0.0625
 21
5.749999999999998
 31
0.0
  0
LINE
  5
3A6
330
2
100
AcDbEntity
  8
0
100
AcDbLine
 10
-0.1875
 20
5.749999999999998
 30
0.0
 11
-0.125
 21
5.774221314121727
 31
0.0
  0
LINE
  5
3A7
330
2
100
AcDbEntity
  8
0
100
AcDbLine
 10
0.125
 20
5.774221314121727
 30
0.0
 11
0.1875
 21
5.749999999999998
 31
0.0
  0
LINE
  5
3A8
330
2
100
AcDbEntity
  8
0
100
AcDbLine
 10
0.0625
 20
5.749999999999998
 30
0.0
 11
0.125
 21
5.774221314121727
 31
0.0
  0
LINE
  5
3A9
330
2
100
AcDbEntity
  8
0
100
AcDbLine
 10
0.4375
 20
5.249999999999998
 30
0.0
 11
0.4375
 21
5.749999999999998
 31
0.0
  0
LINE
  5
3AA
330
2
100
AcDbEntity
  8
0
100
AcDbLine
 10
0.3125
 20
5.249999999999998
 30
0.0
 11
0.3125
 21
5.749999999999998
 31
0.0
  0
LINE
  5
3AB
330
2
100
AcDbEntity
  8
0
100
AcDbLine
 10
0.6875
 20
5.249999999999998
 30
0.0
 11
0.6875
 21
5.749999999999998
 31
0.0
  0
LINE
  5
3AC
330
2
100
AcDbEntity
  8
0
100
AcDbLine
 10
0.5625
 20
5.249999999999998
 30
0.0
 11
0.5625
 21
5.749999999999998
 31
0.0
  0
LINE
  5
3AD
330
2
100
AcDbEntity
  8
0
100
AcDbLine
 10
0.8125
 20
5.249999999999998
 30
0.0
 11
0.8125
 21
5.749999999999998
 31
0.0
  0
LINE
  5
3AE
330
2
100
AcDbEntity
  8
0
100
AcDbLine
 10
0.375
 20
4.774221314121727
 30
0.0
 11
0.4375
 21
4.749999999999998
 31
0.0
  0
LINE
  5
3AF
330
2
100
AcDbEntity
  8
0
100
AcDbLine
 10
0.3125
 20
4.749999999999998
 30
0.0
 11
0.375
 21
4.774221314121727
 31
0.0
  0
LINE
  5
3B0
330
2
100
AcDbEntity
  8
0
100
AcDbLine
 10
0.375
 20
5.22577868587827
 30
0.0
 11
0.4375
 21
5.249999999999998
 31
0.0
  0
LINE
  5
3B1
330
2
100
AcDbEntity
  8
0
100
AcDbLine
 10
0.3125
 20
5.249999999999998
 30
0.0
 11
0.375
 21
5.22577868587827
 31
0.0
  0
LINE
  5
3B2
330
2
100
AcDbEntity
  8
0
100
AcDbLine
 10
0.625
 20
4.774221314121727
 30
0.0
 11
0.6875
 21
4.749999999999998
 31
0.0
  0
LINE
  5
3B3
330
2
100
AcDbEntity
  8
0
100
AcDbLine
 10
0.5625
 20
4.749999999999998
 30
0.0
 11
0.625
 21
4.774221314121727
 31
0.0
  0
LINE
  5
3B4
330
2
100
AcDbEntity
  8
0
100
AcDbLine
 10
0.625
 20
5.22577868587827
 30
0.0
 11
0.6875
 21
5.249999999999998
 31
0.0
  0
LINE
  5
3B5
330
2
100
AcDbEntity
  8
0
100
AcDbLine
 10
0.5625
 20
5.249999999999998
 30
0.0
 11
0.625
 21
5.22577868587827
 31
0.0
  0
LINE
  5
3B6
330
2
100
AcDbEntity
  8
0
100
AcDbLine
 10
0.375
 20
5.774221314121727
 30
0.0
 11
0.4375
 21
5.749999999999998
 31
0.0
  0
LINE
  5
3B7
330
2
100
AcDbEntity
  8
0
100
AcDbLine
 10
0.3125
 20
5.749999999999998
 30
0.0
 11
0.375
 21
5.774221314121727
 31
0.0
  0
LINE
  5
3B8
330
2
100
AcDbEntity
  8
0
100
AcDbLine
 10
0.625
 20
5.774221314121727
 30
0.0
 11
0.6875
 21
5.749999999999998
 31
0.0
  0
LINE
  5
3B9
330
2
100
AcDbEntity
  8
0
100
AcDbLine
 10
0.5625
 20
5.749999999999998
 30
0.0
 11
0.625
 21
5.774221314121727
 31
0.0
  0
LINE
  5
3BA
330
2
100
AcDbEntity
  8
0
100
AcDbLine
 10
1.3125
 20
0.2499999999999982
 30
0.0
 11
1.3125
 21
0.7499999999999982
 31
0.0
  0
LINE
  5
3BB
330
2
100
AcDbEntity
  8
0
100
AcDbLine
 10
1.4375
 20
0.2499999999999982
 30
0.0
 11
1.4375
 21
0.7499999999999982
 31
0.0
  0
LINE
  5
3BC
330
2
100
AcDbEntity
  8
0
100
AcDbLine
 10
1.0625
 20
0.2499999999999982
 30
0.0
 11
1.0625
 21
0.7499999999999982
 31
0.0
  0
LINE
  5
3BD
330
2
100
AcDbEntity
  8
0
100
AcDbLine
 10
1.1875
 20
0.2499999999999982
 30
0.0
 11
1.1875
 21
0.7499999999999982
 31
0.0
  0
LINE
  5
3BE
330
2
100
AcDbEntity
  8
0
100
AcDbLine
 10
0.9375
 20
0.2499999999999982
 30
0.0
 11
0.9375
 21
0.7499999999999982
 31
0.0
  0
LINE
  5
3BF
330
2
100
AcDbEntity
  8
0
100
AcDbLine
 10
1.5
 20
5.999999999999998
 30
0.0
 11
1.5
 21
0.0
 31
0.0
  0
LINE
  5
3C0
330
2
100
AcDbEntity
  8
0
100
AcDbLine
 10
1.3125
 20
0.2499999999999982
 30
0.0
 11
1.375
 21
0.2257786858782698
 31
0.0
  0
LINE
  5
3C1
330
2
100
AcDbEntity
  8
0
100
AcDbLine
 10
1.0625
 20
0.2499999999999982
 30
0.0
 11
1.125
 21
0.2257786858782698
 31
0.0
  0
LINE
  5
3C2
330
2
100
AcDbEntity
  8
0
100
AcDbLine
 10
0.875
 20
0.2257786858782698
 30
0.0
 11
0.9375
 21
0.2499999999999982
 31
0.0
  0
LINE
  5
3C3
330
2
100
AcDbEntity
  8
0
100
AcDbLine
 10
1.125
 20
0.2257786858782698
 30
0.0
 11
1.1875
 21
0.2499999999999982
 31
0.0
  0
LINE
  5
3C4
330
2
100
AcDbEntity
  8
0
100
AcDbLine
 10
1.375
 20
0.2257786858782698
 30
0.0
 11
1.4375
 21
0.2499999999999982
 31
0.0
  0
LINE
  5
3C5
330
2
100
AcDbEntity
  8
0
100
AcDbLine
 10
0.875
 20
3.35077868587827
 30
0.0
 11
0.9375
 21
3.374999999999998
 31
0.0
  0
LINE
  5
3C6
330
2
100
AcDbEntity
  8
0
100
AcDbLine
 10
1.0625
 20
3.374999999999998
 30
0.0
 11
1.125
 21
3.35077868587827
 31
0.0
  0
LINE
  5
3C7
330
2
100
AcDbEntity
  8
0
100
AcDbLine
 10
1.125
 20
3.35077868587827
 30
0.0
 11
1.1875
 21
3.374999999999998
 31
0.0
  0
LINE
  5
3C8
330
2
100
AcDbEntity
  8
0
100
AcDbLine
 10
1.3125
 20
3.374999999999998
 30
0.0
 11
1.375
 21
3.35077868587827
 31
0.0
  0
LINE
  5
3C9
330
2
100
AcDbEntity
  8
0
100
AcDbLine
 10
1.375
 20
3.35077868587827
 30
0.0
 11
1.4375
 21
3.374999999999998
 31
0.0
  0
LINE
  5
3CA
330
2
100
AcDbEntity
  8
0
100
AcDbLine
 10
1.3125
 20
1.249999999999998
 30
0.0
 11
1.375
 21
1.22577868587827
 31
0.0
  0
LINE
  5
3CB
330
2
100
AcDbEntity
  8
0
100
AcDbLine
 10
1.3125
 20
1.749999999999998
 30
0.0
 11
1.375
 21
1.774221314121727
 31
0.0
  0
LINE
  5
3CC
330
2
100
AcDbEntity
  8
0
100
AcDbLine
 10
1.3125
 20
0.7499999999999982
 30
0.0
 11
1.375
 21
0.7742213141217267
 31
0.0
  0
LINE
  5
3CD
330
2
100
AcDbEntity
  8
0
100
AcDbLine
 10
0.9375
 20
1.249999999999998
 30
0.0
 11
0.9375
 21
1.749999999999998
 31
0.0
  0
LINE
  5
3CE
330
2
100
AcDbEntity
  8
0
100
AcDbLine
 10
1.1875
 20
1.249999999999998
 30
0.0
 11
1.1875
 21
1.749999999999998
 31
0.0
  0
LINE
  5
3CF
330
2
100
AcDbEntity
  8
0
100
AcDbLine
 10
1.0625
 20
1.249999999999998
 30
0.0
 11
1.0625
 21
1.749999999999998
 31
0.0
  0
LINE
  5
3D0
330
2
100
AcDbEntity
  8
0
100
AcDbLine
 10
1.3125
 20
1.249999999999998
 30
0.0
 11
1.3125
 21
1.749999999999998
 31
0.0
  0
LINE
  5
3D1
330
2
100
AcDbEntity
  8
0
100
AcDbLine
 10
1.0625
 20
1.249999999999998
 30
0.0
 11
1.125
 21
1.22577868587827
 31
0.0
  0
LINE
  5
3D2
330
2
100
AcDbEntity
  8
0
100
AcDbLine
 10
1.0625
 20
0.7499999999999982
 30
0.0
 11
1.125
 21
0.7742213141217267
 31
0.0
  0
LINE
  5
3D3
330
2
100
AcDbEntity
  8
0
100
AcDbLine
 10
0.875
 20
0.7742213141217267
 30
0.0
 11
0.9375
 21
0.7499999999999982
 31
0.0
  0
LINE
  5
3D4
330
2
100
AcDbEntity
  8
0
100
AcDbLine
 10
0.875
 20
1.22577868587827
 30
0.0
 11
0.9375
 21
1.249999999999998
 31
0.0
  0
LINE
  5
3D5
330
2
100
AcDbEntity
  8
0
100
AcDbLine
 10
1.125
 20
0.7742213141217267
 30
0.0
 11
1.1875
 21
0.7499999999999982
 31
0.0
  0
LINE
  5
3D6
330
2
100
AcDbEntity
  8
0
100
AcDbLine
 10
1.125
 20
1.22577868587827
 30
0.0
 11
1.1875
 21
1.249999999999998
 31
0.0
  0
LINE
  5
3D7
330
2
100
AcDbEntity
  8
0
100
AcDbLine
 10
1.0625
 20
1.749999999999998
 30
0.0
 11
1.125
 21
1.774221314121727
 31
0.0
  0
LINE
  5
3D8
330
2
100
AcDbEntity
  8
0
100
AcDbLine
 10
0.875
 20
1.774221314121727
 30
0.0
 11
0.9375
 21
1.749999999999998
 31
0.0
  0
LINE
  5
3D9
330
2
100
AcDbEntity
  8
0
100
AcDbLine
 10
1.125
 20
1.774221314121727
 30
0.0
 11
1.1875
 21
1.749999999999998
 31
0.0
  0
LINE
  5
3DA
330
2
100
AcDbEntity
  8
0
100
AcDbLine
 10
1.4375
 20
1.249999999999998
 30
0.0
 11
1.4375
 21
1.749999999999998
 31
0.0
  0
LINE
  5
3DB
330
2
100
AcDbEntity
  8
0
100
AcDbLine
 10
1.375
 20
0.7742213141217267
 30
0.0
 11
1.4375
 21
0.7499999999999982
 31
0.0
  0
LINE
  5
3DC
330
2
100
AcDbEntity
  8
0
100
AcDbLine
 10
1.375
 20
1.22577868587827
 30
0.0
 11
1.4375
 21
1.249999999999998
 31
0.0
  0
LINE
  5
3DD
330
2
100
AcDbEntity
  8
0
100
AcDbLine
 10
1.375
 20
1.774221314121727
 30
0.0
 11
1.4375
 21
1.749999999999998
 31
0.0
  0
LINE
  5
3DE
330
2
100
AcDbEntity
  8
0
100
AcDbLine
 10
1.4375
 20
3.011068342699989
 30
0.0
 11
1.271791647403351
 21
2.84535999010334
 31
0.0
  0
LINE
  5
3DF
330
2
100
AcDbEntity
  8
0
100
AcDbLine
 10
1.4375
 20
3.011068342699989
 30
0.0
 11
1.271791647403351
 21
3.176776695296637
 31
0.0
  0
LINE
  5
3E0
330
2
100
AcDbEntity
  8
0
100
AcDbLine
 10
1.3125
 20
2.124999999999998
 30
0.0
 11
1.375
 21
2.10077868587827
 31
0.0
  0
LINE
  5
3E1
330
2
100
AcDbEntity
  8
0
100
AcDbLine
 10
1.3125
 20
2.624999999999998
 30
0.0
 11
1.375
 21
2.649221314121727
 31
0.0
  0
LINE
  5
3E2
330
2
100
AcDbEntity
  8
0
100
AcDbLine
 10
1.0625
 20
2.124999999999998
 30
0.0
 11
1.125
 21
2.10077868587827
 31
0.0
  0
LINE
  5
3E3
330
2
100
AcDbEntity
  8
0
100
AcDbLine
 10
1.0625
 20
2.624999999999998
 30
0.0
 11
1.125
 21
2.649221314121727
 31
0.0
  0
LINE
  5
3E4
330
2
100
AcDbEntity
  8
0
100
AcDbLine
 10
0.9375
 20
2.124999999999998
 30
0.0
 11
0.9375
 21
2.624999999999998
 31
0.0
  0
LINE
  5
3E5
330
2
100
AcDbEntity
  8
0
100
AcDbLine
 10
1.0625
 20
2.124999999999998
 30
0.0
 11
1.0625
 21
2.624999999999998
 31
0.0
  0
LINE
  5
3E6
330
2
100
AcDbEntity
  8
0
100
AcDbLine
 10
0.875
 20
2.10077868587827
 30
0.0
 11
0.9375
 21
2.124999999999998
 31
0.0
  0
LINE
  5
3E7
330
2
100
AcDbEntity
  8
0
100
AcDbLine
 10
0.875
 20
2.649221314121727
 30
0.0
 11
0.9375
 21
2.624999999999998
 31
0.0
  0
LINE
  5
3E8
330
2
100
AcDbEntity
  8
0
100
AcDbLine
 10
1.1875
 20
2.124999999999998
 30
0.0
 11
1.1875
 21
2.624999999999998
 31
0.0
  0
LINE
  5
3E9
330
2
100
AcDbEntity
  8
0
100
AcDbLine
 10
1.3125
 20
2.124999999999998
 30
0.0
 11
1.3125
 21
2.624999999999998
 31
0.0
  0
LINE
  5
3EA
330
2
100
AcDbEntity
  8
0
100
AcDbLine
 10
1.125
 20
2.10077868587827
 30
0.0
 11
1.1875
 21
2.124999999999998
 31
0.0
  0
LINE
  5
3EB
330
2
100
AcDbEntity
  8
0
100
AcDbLine
 10
1.125
 20
2.649221314121727
 30
0.0
 11
1.1875
 21
2.624999999999998
 31
0.0
  0
LINE
  5
3EC
330
2
100
AcDbEntity
  8
0
100
AcDbLine
 10
1.4375
 20
2.124999999999998
 30
0.0
 11
1.4375
 21
2.624999999999998
 31
0.0
  0
LINE
  5
3ED
330
2
100
AcDbEntity
  8
0
100
AcDbLine
 10
1.375
 20
2.10077868587827
 30
0.0
 11
1.4375
 21
2.124999999999998
 31
0.0
  0
LINE
  5
3EE
330
2
100
AcDbEntity
  8
0
100
AcDbLine
 10
1.375
 20
2.649221314121727
 30
0.0
 11
1.4375
 21
2.624999999999998
 31
0.0
  0
LINE
  5
3EF
330
2
100
AcDbEntity
  8
0
100
AcDbLine
 10
0.9375
 20
4.249999999999998
 30
0.0
 11
0.9375
 21
4.749999999999998
 31
0.0
  0
LINE
  5
3F0
330
2
100
AcDbEntity
  8
0
100
AcDbLine
 10
1.1875
 20
4.249999999999998
 30
0.0
 11
1.1875
 21
4.749999999999998
 31
0.0
  0
LINE
  5
3F1
330
2
100
AcDbEntity
  8
0
100
AcDbLine
 10
1.0625
 20
4.249999999999998
 30
0.0
 11
1.0625
 21
4.749999999999998
 31
0.0
  0
LINE
  5
3F2
330
2
100
AcDbEntity
  8
0
100
AcDbLine
 10
1.4375
 20
4.249999999999998
 30
0.0
 11
1.4375
 21
4.749999999999998
 31
0.0
  0
LINE
  5
3F3
330
2
100
AcDbEntity
  8
0
100
AcDbLine
 10
1.3125
 20
4.249999999999998
 30
0.0
 11
1.3125
 21
4.749999999999998
 31
0.0
  0
LINE
  5
3F4
330
2
100
AcDbEntity
  8
0
100
AcDbLine
 10
1.3125
 20
4.249999999999998
 30
0.0
 11
1.375
 21
4.22577868587827
 31
0.0
  0
LINE
  5
3F5
330
2
100
AcDbEntity
  8
0
100
AcDbLine
 10
1.3125
 20
3.874999999999998
 30
0.0
 11
1.375
 21
3.899221314121727
 31
0.0
  0
LINE
  5
3F6
330
2
100
AcDbEntity
  8
0
100
AcDbLine
 10
1.0625
 20
3.874999999999998
 30
0.0
 11
1.125
 21
3.899221314121727
 31
0.0
  0
LINE
  5
3F7
330
2
100
AcDbEntity
  8
0
100
AcDbLine
 10
0.9375
 20
3.374999999999998
 30
0.0
 11
0.9375
 21
3.874999999999998
 31
0.0
  0
LINE
  5
3F8
330
2
100
AcDbEntity
  8
0
100
AcDbLine
 10
1.0625
 20
3.374999999999998
 30
0.0
 11
1.0625
 21
3.874999999999998
 31
0.0
  0
LINE
  5
3F9
330
2
100
AcDbEntity
  8
0
100
AcDbLine
 10
0.875
 20
3.899221314121727
 30
0.0
 11
0.9375
 21
3.874999999999998
 31
0.0
  0
LINE
  5
3FA
330
2
100
AcDbEntity
  8
0
100
AcDbLine
 10
1.1875
 20
3.374999999999998
 30
0.0
 11
1.1875
 21
3.874999999999998
 31
0.0
  0
LINE
  5
3FB
330
2
100
AcDbEntity
  8
0
100
AcDbLine
 10
1.3125
 20
3.374999999999998
 30
0.0
 11
1.3125
 21
3.874999999999998
 31
0.0
  0
LINE
  5
3FC
330
2
100
AcDbEntity
  8
0
100
AcDbLine
 10
1.125
 20
3.899221314121727
 30
0.0
 11
1.1875
 21
3.874999999999998
 31
0.0
  0
LINE
  5
3FD
330
2
100
AcDbEntity
  8
0
100
AcDbLine
 10
1.0625
 20
4.249999999999998
 30
0.0
 11
1.125
 21
4.22577868587827
 31
0.0
  0
LINE
  5
3FE
330
2
100
AcDbEntity
  8
0
100
AcDbLine
 10
0.875
 20
4.22577868587827
 30
0.0
 11
0.9375
 21
4.249999999999998
 31
0.0
  0
LINE
  5
3FF
330
2
100
AcDbEntity
  8
0
100
AcDbLine
 10
1.125
 20
4.22577868587827
 30
0.0
 11
1.1875
 21
4.249999999999998
 31
0.0
  0
LINE
  5
400
330
2
100
AcDbEntity
  8
0
100
AcDbLine
 10
1.4375
 20
3.374999999999998
 30
0.0
 11
1.4375
 21
3.874999999999998
 31
0.0
  0
LINE
  5
401
330
2
100
AcDbEntity
  8
0
100
AcDbLine
 10
1.375
 20
3.899221314121727
 30
0.0
 11
1.4375
 21
3.874999999999998
 31
0.0
  0
LINE
  5
402
330
2
100
AcDbEntity
  8
0
100
AcDbLine
 10
1.375
 20
4.22577868587827
 30
0.0
 11
1.4375
 21
4.249999999999998
 31
0.0
  0
LINE
  5
403
330
2
100
AcDbEntity
  8
0
100
AcDbLine
 10
1.3125
 20
5.249999999999998
 30
0.0
 11
1.375
 21
5.22577868587827
 31
0.0
  0
LINE
  5
404
330
2
100
AcDbEntity
  8
0
100
AcDbLine
 10
1.3125
 20
5.749999999999998
 30
0.0
 11
1.375
 21
5.774221314121727
 31
0.0
  0
LINE
  5
405
330
2
100
AcDbEntity
  8
0
100
AcDbLine
 10
1.3125
 20
4.749999999999998
 30
0.0
 11
1.375
 21
4.774221314121727
 31
0.0
  0
LINE
  5
406
330
2
100
AcDbEntity
  8
0
100
AcDbLine
 10
0.9375
 20
5.249999999999998
 30
0.0
 11
0.9375
 21
5.749999999999998
 31
0.0
  0
LINE
  5
407
330
2
100
AcDbEntity
  8
0
100
AcDbLine
 10
1.1875
 20
5.249999999999998
 30
0.0
 11
1.1875
 21
5.749999999999998
 31
0.0
  0
LINE
  5
408
330
2
100
AcDbEntity
  8
0
100
AcDbLine
 10
1.0625
 20
5.249999999999998
 30
0.0
 11
1.0625
 21
5.749999999999998
 31
0.0
  0
LINE
  5
409
330
2
100
AcDbEntity
  8
0
100
AcDbLine
 10
1.3125
 20
5.249999999999998
 30
0.0
 11
1.3125
 21
5.749999999999998
 31
0.0
  0
LINE
  5
40A
330
2
100
AcDbEntity
  8
0
100
AcDbLine
 10
1.0625
 20
5.249999999999998
 30
0.0
 11
1.125
 21
5.22577868587827
 31
0.0
  0
LINE
  5
40B
330
2
100
AcDbEntity
  8
0
100
AcDbLine
 10
1.0625
 20
4.749999999999998
 30
0.0
 11
1.125
 21
4.774221314121727
 31
0.0
  0
LINE
  5
40C
330
2
100
AcDbEntity
  8
0
100
AcDbLine
 10
0.875
 20
4.774221314121727
 30
0.0
 11
0.9375
 21
4.749999999999998
 31
0.0
  0
LINE
  5
40D
330
2
100
AcDbEntity
  8
0
100
AcDbLine
 10
0.875
 20
5.22577868587827
 30
0.0
 11
0.9375
 21
5.249999999999998
 31
0.0
  0
LINE
  5
40E
330
2
100
AcDbEntity
  8
0
100
AcDbLine
 10
1.125
 20
4.774221314121727
 30
0.0
 11
1.1875
 21
4.749999999999998
 31
0.0
  0
LINE
  5
40F
330
2
100
AcDbEntity
  8
0
100
AcDbLine
 10
1.125
 20
5.22577868587827
 30
0.0
 11
1.1875
 21
5.249999999999998
 31
0.0
  0
LINE
  5
410
330
2
100
AcDbEntity
  8
0
100
AcDbLine
 10
1.0625
 20
5.749999999999998
 30
0.0
 11
1.125
 21
5.774221314121727
 31
0.0
  0
LINE
  5
411
330
2
100
AcDbEntity
  8
0
100
AcDbLine
 10
0.875
 20
5.774221314121727
 30
0.0
 11
0.9375
 21
5.749999999999998
 31
0.0
  0
LINE
  5
412
330
2
100
AcDbEntity
  8
0
100
AcDbLine
 10
1.125
 20
5.774221314121727
 30
0.0
 11
1.1875
 21
5.749999999999998
 31
0.0
  0
LINE
  5
413
330
2
100
AcDbEntity
  8
0
100
AcDbLine
 10
1.4375
 20
5.249999999999998
 30
0.0
 11
1.4375
 21
5.749999999999998
 31
0.0
  0
LINE
  5
414
330
2
100
AcDbEntity
  8
0
100
AcDbLine
 10
1.375
 20
4.774221314121727
 30
0.0
 11
1.4375
 21
4.749999999999998
 31
0.0
  0
LINE
  5
415
330
2
100
AcDbEntity
  8
0
100
AcDbLine
 10
1.375
 20
5.22577868587827
 30
0.0
 11
1.4375
 21
5.249999999999998
 31
0.0
  0
LINE
  5
416
330
2
100
AcDbEntity
  8
0
100
AcDbLine
 10
1.375
 20
5.774221314121727
 30
0.0
 11
1.4375
 21
5.749999999999998
 31
0.0
  0
LINE
  5
417
330
2
100
AcDbEntity
  8
0
100
AcDbLine
 10
5.425233655930024
 20
5.999999999999998
 30
0.0
 11
5.425233655930024
 21
0.0
 31
0.0
  0
LINE
  5
418
330
2
100
AcDbEntity
  8
0
100
AcDbLine
 10
5.390233655930024
 20
5.999999999999998
 30
0.0
 11
5.390233655930024
 21
0.0
 31
0.0
  0
LINE
  5
419
330
2
100
AcDbEntity
  8
0
100
AcDbLine
 10
5.425233655930024
 20
0.2444133529548243
 30
0.0
 11
5.5709085811304
 21
0.2485299818776152
 31
0.0
  0
LINE
  5
41A
330
2
100
AcDbEntity
  8
0
100
AcDbLine
 10
5.425233655930024
 20
0.1680389703020264
 30
0.0
 11
5.54894443579566
 21
0.1428378207943286
 31
0.0
  0
LINE
  5
41B
330
2
100
AcDbEntity
  8
0
100
AcDbLine
 10
5.425233655930024
 20
0.1881069965724258
 30
0.0
 11
5.558507298427028
 21
0.1611847203446519
 31
0.0
  0
LINE
  5
41C
330
2
100
AcDbEntity
  8
0
100
AcDbLine
 10
5.450353587577293
 20
0.2243875097760562
 30
0.0
 11
5.766048529179109
 21
0.2074749306608208
 31
0.0
  0
LINE
  5
41D
330
2
100
AcDbEntity
  8
0
100
AcDbLine
 10
5.390233655930024
 20
0.0
 30
0.0
 11
5.425233655930024
 21
0.0
 31
0.0
  0
LINE
  5
41E
330
2
100
AcDbEntity
  8
0
100
AcDbLine
 10
5.673869453436813
 20
0.2325367698081795
 30
0.0
 11
5.76833087639162
 21
0.2180466284954363
 31
0.0
  0
LINE
  5
41F
330
2
100
AcDbEntity
  8
0
100
AcDbLine
 10
5.750356543623331
 20
0.1708138095061482
 30
0.0
 11
5.813535478091755
 21
0.2048896627253303
 31
0.0
  0
LINE
  5
420
330
2
100
AcDbEntity
  8
0
100
AcDbLine
 10
5.512667812425633
 20
0.2024066043526851
 30
0.0
 11
5.695753767717743
 21
0.1925982251368037
 31
0.0
  0
LINE
  5
421
330
2
100
AcDbEntity
  8
0
100
AcDbLine
 10
5.5709085811304
 20
0.2485299818776152
 30
0.0
 11
5.673869453436813
 21
0.2325367698081795
 31
0.0
  0
LINE
  5
422
330
2
100
AcDbEntity
  8
0
100
AcDbLine
 10
5.54894443579566
 20
0.1428378207943286
 30
0.0
 11
5.65347244346172
 21
0.15609719654576
 31
0.0
  0
LINE
  5
423
330
2
100
AcDbEntity
  8
0
100
AcDbLine
 10
5.558507298427028
 20
0.1611847203446519
 30
0.0
 11
5.645772566837284
 21
0.1565096984754
 31
0.0
  0
LINE
  5
424
330
2
100
AcDbEntity
  8
0
100
AcDbLine
 10
5.645772566837284
 20
0.1565096984754
 30
0.0
 11
5.750356543623331
 21
0.1708138095061482
 31
0.0
  0
LINE
  5
425
330
2
100
AcDbEntity
  8
0
100
AcDbLine
 10
5.76833087639162
 20
0.2180466284954363
 30
0.0
 11
5.813535478091755
 21
0.2048896627253303
 31
0.0
  0
LINE
  5
426
330
2
100
AcDbEntity
  8
0
100
AcDbLine
 10
5.450353587577293
 20
3.367721486817787
 30
0.0
 11
5.766048529179109
 21
3.350808907702552
 31
0.0
  0
LINE
  5
427
330
2
100
AcDbEntity
  8
0
100
AcDbLine
 10
5.76833087639162
 20
3.361380605537169
 30
0.0
 11
5.813535478091755
 21
3.348223639767062
 31
0.0
  0
LINE
  5
428
330
2
100
AcDbEntity
  8
0
100
AcDbLine
 10
5.450353587577293
 20
1.224387509776056
 30
0.0
 11
5.766048529179109
 21
1.207474930660821
 31
0.0
  0
LINE
  5
429
330
2
100
AcDbEntity
  8
0
100
AcDbLine
 10
5.425233655930024
 20
1.188106996572426
 30
0.0
 11
5.558507298427028
 21
1.161184720344652
 31
0.0
  0
LINE
  5
42A
330
2
100
AcDbEntity
  8
0
100
AcDbLine
 10
5.425233655930024
 20
1.168038970302026
 30
0.0
 11
5.54894443579566
 21
1.142837820794329
 31
0.0
  0
LINE
  5
42B
330
2
100
AcDbEntity
  8
0
100
AcDbLine
 10
5.425233655930024
 20
1.244413352954824
 30
0.0
 11
5.5709085811304
 21
1.248529981877615
 31
0.0
  0
LINE
  5
42C
330
2
100
AcDbEntity
  8
0
100
AcDbLine
 10
5.425233655930024
 20
1.755586647045174
 30
0.0
 11
5.5709085811304
 21
1.751470018122381
 31
0.0
  0
LINE
  5
42D
330
2
100
AcDbEntity
  8
0
100
AcDbLine
 10
5.425233655930024
 20
1.831961029697972
 30
0.0
 11
5.54894443579566
 21
1.857162179205668
 31
0.0
  0
LINE
  5
42E
330
2
100
AcDbEntity
  8
0
100
AcDbLine
 10
5.425233655930024
 20
1.811893003427572
 30
0.0
 11
5.558507298427028
 21
1.838815279655345
 31
0.0
  0
LINE
  5
42F
330
2
100
AcDbEntity
  8
0
100
AcDbLine
 10
5.450353587577293
 20
1.77561249022394
 30
0.0
 11
5.766048529179109
 21
1.792525069339176
 31
0.0
  0
LINE
  5
430
330
2
100
AcDbEntity
  8
0
100
AcDbLine
 10
5.450353587577293
 20
0.7756124902239403
 30
0.0
 11
5.766048529179109
 21
0.7925250693391757
 31
0.0
  0
LINE
  5
431
330
2
100
AcDbEntity
  8
0
100
AcDbLine
 10
5.425233655930024
 20
0.8118930034275724
 30
0.0
 11
5.558507298427028
 21
0.8388152796553445
 31
0.0
  0
LINE
  5
432
330
2
100
AcDbEntity
  8
0
100
AcDbLine
 10
5.425233655930024
 20
0.8319610296979718
 30
0.0
 11
5.54894443579566
 21
0.8571621792056678
 31
0.0
  0
LINE
  5
433
330
2
100
AcDbEntity
  8
0
100
AcDbLine
 10
5.425233655930024
 20
0.755586647045174
 30
0.0
 11
5.5709085811304
 21
0.7514700181223812
 31
0.0
  0
LINE
  5
434
330
2
100
AcDbEntity
  8
0
100
AcDbLine
 10
5.750356543623331
 20
1.170813809506148
 30
0.0
 11
5.813535478091755
 21
1.20488966272533
 31
0.0
  0
LINE
  5
435
330
2
100
AcDbEntity
  8
0
100
AcDbLine
 10
5.673869453436813
 20
1.23253676980818
 30
0.0
 11
5.76833087639162
 21
1.218046628495436
 31
0.0
  0
LINE
  5
436
330
2
100
AcDbEntity
  8
0
100
AcDbLine
 10
5.750356543623331
 20
0.82918619049385
 30
0.0
 11
5.813535478091755
 21
0.7951103372746662
 31
0.0
  0
LINE
  5
437
330
2
100
AcDbEntity
  8
0
100
AcDbLine
 10
5.673869453436813
 20
0.767463230191817
 30
0.0
 11
5.76833087639162
 21
0.7819533715045619
 31
0.0
  0
LINE
  5
438
330
2
100
AcDbEntity
  8
0
100
AcDbLine
 10
5.558507298427028
 20
0.8388152796553445
 30
0.0
 11
5.645772566837284
 21
0.8434903015245983
 31
0.0
  0
LINE
  5
439
330
2
100
AcDbEntity
  8
0
100
AcDbLine
 10
5.54894443579566
 20
0.8571621792056678
 30
0.0
 11
5.65347244346172
 21
0.8439028034542364
 31
0.0
  0
LINE
  5
43A
330
2
100
AcDbEntity
  8
0
100
AcDbLine
 10
5.5709085811304
 20
0.7514700181223812
 30
0.0
 11
5.673869453436813
 21
0.767463230191817
 31
0.0
  0
LINE
  5
43B
330
2
100
AcDbEntity
  8
0
100
AcDbLine
 10
5.512667812425633
 20
0.7975933956473131
 30
0.0
 11
5.695753767717743
 21
0.8074017748631945
 31
0.0
  0
LINE
  5
43C
330
2
100
AcDbEntity
  8
0
100
AcDbLine
 10
5.645772566837284
 20
0.8434903015245983
 30
0.0
 11
5.750356543623331
 21
0.82918619049385
 31
0.0
  0
LINE
  5
43D
330
2
100
AcDbEntity
  8
0
100
AcDbLine
 10
5.558507298427028
 20
1.161184720344652
 30
0.0
 11
5.645772566837284
 21
1.1565096984754
 31
0.0
  0
LINE
  5
43E
330
2
100
AcDbEntity
  8
0
100
AcDbLine
 10
5.54894443579566
 20
1.142837820794329
 30
0.0
 11
5.65347244346172
 21
1.15609719654576
 31
0.0
  0
LINE
  5
43F
330
2
100
AcDbEntity
  8
0
100
AcDbLine
 10
5.5709085811304
 20
1.248529981877615
 30
0.0
 11
5.673869453436813
 21
1.23253676980818
 31
0.0
  0
LINE
  5
440
330
2
100
AcDbEntity
  8
0
100
AcDbLine
 10
5.512667812425633
 20
1.202406604352685
 30
0.0
 11
5.695753767717743
 21
1.192598225136804
 31
0.0
  0
LINE
  5
441
330
2
100
AcDbEntity
  8
0
100
AcDbLine
 10
5.645772566837284
 20
1.1565096984754
 30
0.0
 11
5.750356543623331
 21
1.170813809506148
 31
0.0
  0
LINE
  5
442
330
2
100
AcDbEntity
  8
0
100
AcDbLine
 10
5.76833087639162
 20
0.7819533715045619
 30
0.0
 11
5.813535478091755
 21
0.7951103372746662
 31
0.0
  0
LINE
  5
443
330
2
100
AcDbEntity
  8
0
100
AcDbLine
 10
5.76833087639162
 20
1.218046628495436
 30
0.0
 11
5.813535478091755
 21
1.20488966272533
 31
0.0
  0
LINE
  5
444
330
2
100
AcDbEntity
  8
0
100
AcDbLine
 10
5.673869453436813
 20
1.767463230191817
 30
0.0
 11
5.76833087639162
 21
1.781953371504562
 31
0.0
  0
LINE
  5
445
330
2
100
AcDbEntity
  8
0
100
AcDbLine
 10
5.750356543623331
 20
1.82918619049385
 30
0.0
 11
5.813535478091755
 21
1.795110337274666
 31
0.0
  0
LINE
  5
446
330
2
100
AcDbEntity
  8
0
100
AcDbLine
 10
5.512667812425633
 20
1.797593395647313
 30
0.0
 11
5.695753767717743
 21
1.807401774863195
 31
0.0
  0
LINE
  5
447
330
2
100
AcDbEntity
  8
0
100
AcDbLine
 10
5.5709085811304
 20
1.751470018122381
 30
0.0
 11
5.673869453436813
 21
1.767463230191817
 31
0.0
  0
LINE
  5
448
330
2
100
AcDbEntity
  8
0
100
AcDbLine
 10
5.54894443579566
 20
1.857162179205668
 30
0.0
 11
5.65347244346172
 21
1.843902803454236
 31
0.0
  0
LINE
  5
449
330
2
100
AcDbEntity
  8
0
100
AcDbLine
 10
5.558507298427028
 20
1.838815279655345
 30
0.0
 11
5.645772566837284
 21
1.843490301524598
 31
0.0
  0
LINE
  5
44A
330
2
100
AcDbEntity
  8
0
100
AcDbLine
 10
5.645772566837284
 20
1.843490301524598
 30
0.0
 11
5.750356543623331
 21
1.82918619049385
 31
0.0
  0
LINE
  5
44B
330
2
100
AcDbEntity
  8
0
100
AcDbLine
 10
5.76833087639162
 20
1.781953371504562
 30
0.0
 11
5.813535478091755
 21
1.795110337274666
 31
0.0
  0
LINE
  5
44C
330
2
100
AcDbEntity
  8
0
100
AcDbLine
 10
5.425233655930024
 20
3.331440973614159
 30
0.0
 11
5.558507298427028
 21
3.304518697386385
 31
0.0
  0
LINE
  5
44D
330
2
100
AcDbEntity
  8
0
100
AcDbLine
 10
5.425233655930024
 20
3.311372947343759
 30
0.0
 11
5.54894443579566
 21
3.286171797836062
 31
0.0
  0
LINE
  5
44E
330
2
100
AcDbEntity
  8
0
100
AcDbLine
 10
5.450353587577293
 20
2.128134036142193
 30
0.0
 11
5.766048529179109
 21
2.111221457026957
 31
0.0
  0
LINE
  5
44F
330
2
100
AcDbEntity
  8
0
100
AcDbLine
 10
5.425233655930024
 20
2.091853522938562
 30
0.0
 11
5.558507298427028
 21
2.064931246710788
 31
0.0
  0
LINE
  5
450
330
2
100
AcDbEntity
  8
0
100
AcDbLine
 10
5.425233655930024
 20
2.071785496668163
 30
0.0
 11
5.54894443579566
 21
2.046584347160465
 31
0.0
  0
LINE
  5
451
330
2
100
AcDbEntity
  8
0
100
AcDbLine
 10
5.425233655930024
 20
2.148159879320961
 30
0.0
 11
5.5709085811304
 21
2.152276508243752
 31
0.0
  0
LINE
  5
452
330
2
100
AcDbEntity
  8
0
100
AcDbLine
 10
5.425233655930024
 20
2.65933317341131
 30
0.0
 11
5.5709085811304
 21
2.655216544488518
 31
0.0
  0
LINE
  5
453
330
2
100
AcDbEntity
  8
0
100
AcDbLine
 10
5.425233655930024
 20
2.735707556064108
 30
0.0
 11
5.54894443579566
 21
2.760908705571804
 31
0.0
  0
LINE
  5
454
330
2
100
AcDbEntity
  8
0
100
AcDbLine
 10
5.425233655930024
 20
2.715639529793709
 30
0.0
 11
5.558507298427028
 21
2.742561806021481
 31
0.0
  0
LINE
  5
455
330
2
100
AcDbEntity
  8
0
100
AcDbLine
 10
5.450353587577293
 20
2.679359016590077
 30
0.0
 11
5.766048529179109
 21
2.696271595705312
 31
0.0
  0
LINE
  5
456
330
2
100
AcDbEntity
  8
0
100
AcDbLine
 10
5.673869453436813
 20
2.671209756557953
 30
0.0
 11
5.76833087639162
 21
2.685699897870698
 31
0.0
  0
LINE
  5
457
330
2
100
AcDbEntity
  8
0
100
AcDbLine
 10
5.750356543623331
 20
2.074560335872285
 30
0.0
 11
5.813535478091755
 21
2.108636189091467
 31
0.0
  0
LINE
  5
458
330
2
100
AcDbEntity
  8
0
100
AcDbLine
 10
5.673869453436813
 20
2.136283296174316
 30
0.0
 11
5.76833087639162
 21
2.121793154861573
 31
0.0
  0
LINE
  5
459
330
2
100
AcDbEntity
  8
0
100
AcDbLine
 10
5.558507298427028
 20
2.064931246710788
 30
0.0
 11
5.645772566837284
 21
2.060256224841536
 31
0.0
  0
LINE
  5
45A
330
2
100
AcDbEntity
  8
0
100
AcDbLine
 10
5.54894443579566
 20
2.046584347160465
 30
0.0
 11
5.65347244346172
 21
2.059843722911896
 31
0.0
  0
LINE
  5
45B
330
2
100
AcDbEntity
  8
0
100
AcDbLine
 10
5.5709085811304
 20
2.152276508243752
 30
0.0
 11
5.673869453436813
 21
2.136283296174316
 31
0.0
  0
LINE
  5
45C
330
2
100
AcDbEntity
  8
0
100
AcDbLine
 10
5.512667812425633
 20
2.106153130718822
 30
0.0
 11
5.695753767717743
 21
2.09634475150294
 31
0.0
  0
LINE
  5
45D
330
2
100
AcDbEntity
  8
0
100
AcDbLine
 10
5.645772566837284
 20
2.060256224841536
 30
0.0
 11
5.750356543623331
 21
2.074560335872285
 31
0.0
  0
LINE
  5
45E
330
2
100
AcDbEntity
  8
0
100
AcDbLine
 10
5.5709085811304
 20
2.655216544488518
 30
0.0
 11
5.673869453436813
 21
2.671209756557953
 31
0.0
  0
LINE
  5
45F
330
2
100
AcDbEntity
  8
0
100
AcDbLine
 10
5.76833087639162
 20
2.121793154861573
 30
0.0
 11
5.813535478091755
 21
2.108636189091467
 31
0.0
  0
LINE
  5
460
330
2
100
AcDbEntity
  8
0
100
AcDbLine
 10
5.750356543623331
 20
3.314147786547881
 30
0.0
 11
5.813535478091755
 21
3.348223639767062
 31
0.0
  0
LINE
  5
461
330
2
100
AcDbEntity
  8
0
100
AcDbLine
 10
5.750356543623331
 20
2.732932716859986
 30
0.0
 11
5.813535478091755
 21
2.698856863640803
 31
0.0
  0
LINE
  5
462
330
2
100
AcDbEntity
  8
0
100
AcDbLine
 10
5.512667812425633
 20
2.70133992201345
 30
0.0
 11
5.695753767717743
 21
2.711148301229331
 31
0.0
  0
LINE
  5
463
330
2
100
AcDbEntity
  8
0
100
AcDbLine
 10
5.54894443579566
 20
2.760908705571804
 30
0.0
 11
5.65347244346172
 21
2.747649329820373
 31
0.0
  0
LINE
  5
464
330
2
100
AcDbEntity
  8
0
100
AcDbLine
 10
5.558507298427028
 20
2.742561806021481
 30
0.0
 11
5.645772566837284
 21
2.747236827890735
 31
0.0
  0
LINE
  5
465
330
2
100
AcDbEntity
  8
0
100
AcDbLine
 10
5.645772566837284
 20
2.747236827890735
 30
0.0
 11
5.750356543623331
 21
2.732932716859986
 31
0.0
  0
LINE
  5
466
330
2
100
AcDbEntity
  8
0
100
AcDbLine
 10
5.558507298427028
 20
3.304518697386385
 30
0.0
 11
5.645772566837284
 21
3.299843675517133
 31
0.0
  0
LINE
  5
467
330
2
100
AcDbEntity
  8
0
100
AcDbLine
 10
5.54894443579566
 20
3.286171797836062
 30
0.0
 11
5.65347244346172
 21
3.299431173587493
 31
0.0
  0
LINE
  5
468
330
2
100
AcDbEntity
  8
0
100
AcDbLine
 10
5.512667812425633
 20
3.345740581394418
 30
0.0
 11
5.695753767717743
 21
3.335932202178535
 31
0.0
  0
LINE
  5
469
330
2
100
AcDbEntity
  8
0
100
AcDbLine
 10
5.645772566837284
 20
3.299843675517133
 30
0.0
 11
5.750356543623331
 21
3.314147786547881
 31
0.0
  0
LINE
  5
46A
330
2
100
AcDbEntity
  8
0
100
AcDbLine
 10
5.76833087639162
 20
2.685699897870698
 30
0.0
 11
5.813535478091755
 21
2.698856863640803
 31
0.0
  0
LINE
  5
46B
330
2
100
AcDbEntity
  8
0
100
AcDbLine
 10
5.450353587577293
 20
4.224387509776056
 30
0.0
 11
5.766048529179109
 21
4.207474930660821
 31
0.0
  0
LINE
  5
46C
330
2
100
AcDbEntity
  8
0
100
AcDbLine
 10
5.425233655930024
 20
4.188106996572424
 30
0.0
 11
5.558507298427028
 21
4.161184720344652
 31
0.0
  0
LINE
  5
46D
330
2
100
AcDbEntity
  8
0
100
AcDbLine
 10
5.425233655930024
 20
4.168038970302026
 30
0.0
 11
5.54894443579566
 21
4.142837820794329
 31
0.0
  0
LINE
  5
46E
330
2
100
AcDbEntity
  8
0
100
AcDbLine
 10
5.425233655930024
 20
4.244413352954824
 30
0.0
 11
5.5709085811304
 21
4.248529981877615
 31
0.0
  0
LINE
  5
46F
330
2
100
AcDbEntity
  8
0
100
AcDbLine
 10
5.425233655930024
 20
3.387747329996556
 30
0.0
 11
5.5709085811304
 21
3.391863958919346
 31
0.0
  0
LINE
  5
470
330
2
100
AcDbEntity
  8
0
100
AcDbLine
 10
5.425233655930024
 20
3.898920624086907
 30
0.0
 11
5.5709085811304
 21
3.894803995164113
 31
0.0
  0
LINE
  5
471
330
2
100
AcDbEntity
  8
0
100
AcDbLine
 10
5.425233655930024
 20
3.975295006739705
 30
0.0
 11
5.54894443579566
 21
4.000496156247399
 31
0.0
  0
LINE
  5
472
330
2
100
AcDbEntity
  8
0
100
AcDbLine
 10
5.425233655930024
 20
3.955226980469304
 30
0.0
 11
5.558507298427028
 21
3.982149256697076
 31
0.0
  0
LINE
  5
473
330
2
100
AcDbEntity
  8
0
100
AcDbLine
 10
5.450353587577293
 20
3.918946467265672
 30
0.0
 11
5.766048529179109
 21
3.935859046380907
 31
0.0
  0
LINE
  5
474
330
2
100
AcDbEntity
  8
0
100
AcDbLine
 10
5.673869453436813
 20
3.375870746849911
 30
0.0
 11
5.76833087639162
 21
3.361380605537169
 31
0.0
  0
LINE
  5
475
330
2
100
AcDbEntity
  8
0
100
AcDbLine
 10
5.673869453436813
 20
3.910797207233548
 30
0.0
 11
5.76833087639162
 21
3.925287348546293
 31
0.0
  0
LINE
  5
476
330
2
100
AcDbEntity
  8
0
100
AcDbLine
 10
5.750356543623331
 20
3.972520167535583
 30
0.0
 11
5.813535478091755
 21
3.938444314316397
 31
0.0
  0
LINE
  5
477
330
2
100
AcDbEntity
  8
0
100
AcDbLine
 10
5.5709085811304
 20
3.391863958919346
 30
0.0
 11
5.673869453436813
 21
3.375870746849911
 31
0.0
  0
LINE
  5
478
330
2
100
AcDbEntity
  8
0
100
AcDbLine
 10
5.512667812425633
 20
3.940927372689044
 30
0.0
 11
5.695753767717743
 21
3.950735751904928
 31
0.0
  0
LINE
  5
479
330
2
100
AcDbEntity
  8
0
100
AcDbLine
 10
5.5709085811304
 20
3.894803995164113
 30
0.0
 11
5.673869453436813
 21
3.910797207233548
 31
0.0
  0
LINE
  5
47A
330
2
100
AcDbEntity
  8
0
100
AcDbLine
 10
5.54894443579566
 20
4.000496156247399
 30
0.0
 11
5.65347244346172
 21
3.987236780495968
 31
0.0
  0
LINE
  5
47B
330
2
100
AcDbEntity
  8
0
100
AcDbLine
 10
5.558507298427028
 20
3.982149256697076
 30
0.0
 11
5.645772566837284
 21
3.98682427856633
 31
0.0
  0
LINE
  5
47C
330
2
100
AcDbEntity
  8
0
100
AcDbLine
 10
5.645772566837284
 20
3.98682427856633
 30
0.0
 11
5.750356543623331
 21
3.972520167535583
 31
0.0
  0
LINE
  5
47D
330
2
100
AcDbEntity
  8
0
100
AcDbLine
 10
5.76833087639162
 20
3.925287348546293
 30
0.0
 11
5.813535478091755
 21
3.938444314316397
 31
0.0
  0
LINE
  5
47E
330
2
100
AcDbEntity
  8
0
100
AcDbLine
 10
5.750356543623331
 20
4.170813809506148
 30
0.0
 11
5.813535478091755
 21
4.20488966272533
 31
0.0
  0
LINE
  5
47F
330
2
100
AcDbEntity
  8
0
100
AcDbLine
 10
5.673869453436813
 20
4.23253676980818
 30
0.0
 11
5.76833087639162
 21
4.218046628495435
 31
0.0
  0
LINE
  5
480
330
2
100
AcDbEntity
  8
0
100
AcDbLine
 10
5.558507298427028
 20
4.161184720344652
 30
0.0
 11
5.645772566837284
 21
4.156509698475398
 31
0.0
  0
LINE
  5
481
330
2
100
AcDbEntity
  8
0
100
AcDbLine
 10
5.54894443579566
 20
4.142837820794329
 30
0.0
 11
5.65347244346172
 21
4.15609719654576
 31
0.0
  0
LINE
  5
482
330
2
100
AcDbEntity
  8
0
100
AcDbLine
 10
5.5709085811304
 20
4.248529981877615
 30
0.0
 11
5.673869453436813
 21
4.23253676980818
 31
0.0
  0
LINE
  5
483
330
2
100
AcDbEntity
  8
0
100
AcDbLine
 10
5.512667812425633
 20
4.202406604352683
 30
0.0
 11
5.695753767717743
 21
4.192598225136804
 31
0.0
  0
LINE
  5
484
330
2
100
AcDbEntity
  8
0
100
AcDbLine
 10
5.645772566837284
 20
4.156509698475398
 30
0.0
 11
5.750356543623331
 21
4.170813809506148
 31
0.0
  0
LINE
  5
485
330
2
100
AcDbEntity
  8
0
100
AcDbLine
 10
5.76833087639162
 20
4.218046628495435
 30
0.0
 11
5.813535478091755
 21
4.20488966272533
 31
0.0
  0
LINE
  5
486
330
2
100
AcDbEntity
  8
0
100
AcDbLine
 10
5.450353587577293
 20
5.224387509776056
 30
0.0
 11
5.766048529179109
 21
5.207474930660821
 31
0.0
  0
LINE
  5
487
330
2
100
AcDbEntity
  8
0
100
AcDbLine
 10
5.425233655930024
 20
5.188106996572424
 30
0.0
 11
5.558507298427028
 21
5.161184720344652
 31
0.0
  0
LINE
  5
488
330
2
100
AcDbEntity
  8
0
100
AcDbLine
 10
5.425233655930024
 20
5.168038970302026
 30
0.0
 11
5.54894443579566
 21
5.142837820794329
 31
0.0
  0
LINE
  5
489
330
2
100
AcDbEntity
  8
0
100
AcDbLine
 10
5.425233655930024
 20
5.244413352954824
 30
0.0
 11
5.5709085811304
 21
5.248529981877615
 31
0.0
  0
LINE
  5
48A
330
2
100
AcDbEntity
  8
0
100
AcDbLine
 10
5.425233655930024
 20
5.755586647045172
 30
0.0
 11
5.5709085811304
 21
5.751470018122381
 31
0.0
  0
LINE
  5
48B
330
2
100
AcDbEntity
  8
0
100
AcDbLine
 10
5.425233655930024
 20
5.83196102969797
 30
0.0
 11
5.54894443579566
 21
5.857162179205668
 31
0.0
  0
LINE
  5
48C
330
2
100
AcDbEntity
  8
0
100
AcDbLine
 10
5.425233655930024
 20
5.811893003427572
 30
0.0
 11
5.558507298427028
 21
5.838815279655345
 31
0.0
  0
LINE
  5
48D
330
2
100
AcDbEntity
  8
0
100
AcDbLine
 10
5.450353587577293
 20
5.77561249022394
 30
0.0
 11
5.766048529179109
 21
5.792525069339176
 31
0.0
  0
LINE
  5
48E
330
2
100
AcDbEntity
  8
0
100
AcDbLine
 10
5.425233655930024
 20
4.755586647045172
 30
0.0
 11
5.5709085811304
 21
4.751470018122381
 31
0.0
  0
LINE
  5
48F
330
2
100
AcDbEntity
  8
0
100
AcDbLine
 10
5.425233655930024
 20
4.83196102969797
 30
0.0
 11
5.54894443579566
 21
4.857162179205668
 31
0.0
  0
LINE
  5
490
330
2
100
AcDbEntity
  8
0
100
AcDbLine
 10
5.425233655930024
 20
4.811893003427572
 30
0.0
 11
5.558507298427028
 21
4.838815279655345
 31
0.0
  0
LINE
  5
491
330
2
100
AcDbEntity
  8
0
100
AcDbLine
 10
5.450353587577293
 20
4.77561249022394
 30
0.0
 11
5.766048529179109
 21
4.792525069339176
 31
0.0
  0
LINE
  5
492
330
2
100
AcDbEntity
  8
0
100
AcDbLine
 10
5.390233655930024
 20
5.999999999999998
 30
0.0
 11
5.425233655930024
 21
5.999999999999998
 31
0.0
  0
LINE
  5
493
330
2
100
AcDbEntity
  8
0
100
AcDbLine
 10
5.750356543623331
 20
5.170813809506148
 30
0.0
 11
5.813535478091755
 21
5.20488966272533
 31
0.0
  0
LINE
  5
494
330
2
100
AcDbEntity
  8
0
100
AcDbLine
 10
5.673869453436813
 20
5.23253676980818
 30
0.0
 11
5.76833087639162
 21
5.218046628495435
 31
0.0
  0
LINE
  5
495
330
2
100
AcDbEntity
  8
0
100
AcDbLine
 10
5.673869453436813
 20
4.767463230191817
 30
0.0
 11
5.76833087639162
 21
4.781953371504562
 31
0.0
  0
LINE
  5
496
330
2
100
AcDbEntity
  8
0
100
AcDbLine
 10
5.750356543623331
 20
4.829186190493848
 30
0.0
 11
5.813535478091755
 21
4.795110337274666
 31
0.0
  0
LINE
  5
497
330
2
100
AcDbEntity
  8
0
100
AcDbLine
 10
5.512667812425633
 20
4.797593395647313
 30
0.0
 11
5.695753767717743
 21
4.807401774863193
 31
0.0
  0
LINE
  5
498
330
2
100
AcDbEntity
  8
0
100
AcDbLine
 10
5.5709085811304
 20
4.751470018122381
 30
0.0
 11
5.673869453436813
 21
4.767463230191817
 31
0.0
  0
LINE
  5
499
330
2
100
AcDbEntity
  8
0
100
AcDbLine
 10
5.54894443579566
 20
4.857162179205668
 30
0.0
 11
5.65347244346172
 21
4.843902803454236
 31
0.0
  0
LINE
  5
49A
330
2
100
AcDbEntity
  8
0
100
AcDbLine
 10
5.558507298427028
 20
4.838815279655345
 30
0.0
 11
5.645772566837284
 21
4.843490301524598
 31
0.0
  0
LINE
  5
49B
330
2
100
AcDbEntity
  8
0
100
AcDbLine
 10
5.645772566837284
 20
4.843490301524598
 30
0.0
 11
5.750356543623331
 21
4.829186190493848
 31
0.0
  0
LINE
  5
49C
330
2
100
AcDbEntity
  8
0
100
AcDbLine
 10
5.558507298427028
 20
5.161184720344652
 30
0.0
 11
5.645772566837284
 21
5.156509698475398
 31
0.0
  0
LINE
  5
49D
330
2
100
AcDbEntity
  8
0
100
AcDbLine
 10
5.54894443579566
 20
5.142837820794329
 30
0.0
 11
5.65347244346172
 21
5.15609719654576
 31
0.0
  0
LINE
  5
49E
330
2
100
AcDbEntity
  8
0
100
AcDbLine
 10
5.5709085811304
 20
5.248529981877615
 30
0.0
 11
5.673869453436813
 21
5.23253676980818
 31
0.0
  0
LINE
  5
49F
330
2
100
AcDbEntity
  8
0
100
AcDbLine
 10
5.512667812425633
 20
5.202406604352683
 30
0.0
 11
5.695753767717743
 21
5.192598225136804
 31
0.0
  0
LINE
  5
4A0
330
2
100
AcDbEntity
  8
0
100
AcDbLine
 10
5.645772566837284
 20
5.156509698475398
 30
0.0
 11
5.750356543623331
 21
5.170813809506148
 31
0.0
  0
LINE
  5
4A1
330
2
100
AcDbEntity
  8
0
100
AcDbLine
 10
5.76833087639162
 20
4.781953371504562
 30
0.0
 11
5.813535478091755
 21
4.795110337274666
 31
0.0
  0
LINE
  5
4A2
330
2
100
AcDbEntity
  8
0
100
AcDbLine
 10
5.76833087639162
 20
5.218046628495435
 30
0.0
 11
5.813535478091755
 21
5.20488966272533
 31
0.0
  0
LINE
  5
4A3
330
2
100
AcDbEntity
  8
0
100
AcDbLine
 10
5.673869453436813
 20
5.767463230191817
 30
0.0
 11
5.76833087639162
 21
5.781953371504562
 31
0.0
  0
LINE
  5
4A4
330
2
100
AcDbEntity
  8
0
100
AcDbLine
 10
5.750356543623331
 20
5.829186190493848
 30
0.0
 11
5.813535478091755
 21
5.795110337274666
 31
0.0
  0
LINE
  5
4A5
330
2
100
AcDbEntity
  8
0
100
AcDbLine
 10
5.512667812425633
 20
5.797593395647313
 30
0.0
 11
5.695753767717743
 21
5.807401774863193
 31
0.0
  0
LINE
  5
4A6
330
2
100
AcDbEntity
  8
0
100
AcDbLine
 10
5.5709085811304
 20
5.751470018122381
 30
0.0
 11
5.673869453436813
 21
5.767463230191817
 31
0.0
  0
LINE
  5
4A7
330
2
100
AcDbEntity
  8
0
100
AcDbLine
 10
5.54894443579566
 20
5.857162179205668
 30
0.0
 11
5.65347244346172
 21
5.843902803454236
 31
0.0
  0
LINE
  5
4A8
330
2
100
AcDbEntity
  8
0
100
AcDbLine
 10
5.558507298427028
 20
5.838815279655345
 30
0.0
 11
5.645772566837284
 21
5.843490301524598
 31
0.0
  0
LINE
  5
4A9
330
2
100
AcDbEntity
  8
0
100
AcDbLine
 10
5.645772566837284
 20
5.843490301524598
 30
0.0
 11
5.750356543623331
 21
5.829186190493848
 31
0.0
  0
LINE
  5
4AA
330
2
100
AcDbEntity
  8
0
100
AcDbLine
 10
5.76833087639162
 20
5.781953371504562
 30
0.0
 11
5.813535478091755
 21
5.795110337274666
 31
0.0
  0
ENDSEC
  0
SECTION
  2
OBJECTS
  0
DICTIONARY
  5
7
330
0
100
AcDbDictionary
281
     1
  3
ACAD_COLOR
350
4AE
  3
ACAD_GROUP
350
1F
  3
ACAD_LAYOUT
350
B
  3
ACAD_MATERIAL
350
4AD
  3
ACAD_MLINESTYLE
350
20
  3
ACAD_PLOTSETTINGS
350
21
  3
ACAD_PLOTSTYLENAME
350
6
  3
ACAD_TABLESTYLE
350
4AF
  3
ACDBHEADERROUNDTRIPXREC
350
4BB
  3
AcDbVariableDictionary
350
26D
  0
DICTIONARY
  5
4AE
102
{ACAD_REACTORS
330
7
102
}
330
7
100
AcDbDictionary
281
     1
  0
DICTIONARY
  5
1F
102
{ACAD_REACTORS
330
7
102
}
330
7
100
AcDbDictionary
281
     1
  0
DICTIONARY
  5
B
102
{ACAD_REACTORS
330
7
102
}
330
7
100
AcDbDictionary
281
     1
  3
Layout1
350
F
  3
Model
350
A
  0
DICTIONARY
  5
4AD
102
{ACAD_REACTORS
330
7
102
}
330
7
100
AcDbDictionary
281
     1
  0
DICTIONARY
  5
20
102
{ACAD_REACTORS
330
7
102
}
330
7
100
AcDbDictionary
281
     1
  3
Standard
350
23
  0
DICTIONARY
  5
21
102
{ACAD_REACTORS
330
7
102
}
330
7
100
AcDbDictionary
281
     1
  0
ACDBDICTIONARYWDFLT
  5
6
102
{ACAD_REACTORS
330
7
102
}
330
7
100
AcDbDictionary
281
     1
  3
Normal
350
5
100
AcDbDictionaryWithDefault
340
5
  0
DICTIONARY
  5
4AF
102
{ACAD_REACTORS
330
7
102
}
330
7
100
AcDbDictionary
281
     1
  3
Standard
350
4B0
  0
DICTIONARY
  5
4BB
102
{ACAD_REACTORS
330
7
102
}
330
7
100
AcDbDictionary
281
     1
  3
COLORDICT
350
4BC
  3
MATERIALDICT
350
4BD
  0
DICTIONARY
  5
26D
102
{ACAD_REACTORS
330
7
102
}
330
7
100
AcDbDictionary
281
     1
  3
CTABLESTYLE
350
4B9
  3
DIMASSOC
350
26F
  3
HIDETEXT
350
26E
  0
LAYOUT
  5
F
102
{ACAD_REACTORS
330
B
102
}
102
{ACAD_XDICTIONARY
360
4BE
102
}
330
B
100
AcDbPlotSettings
  1

  2
X:\Program Files\AutoCAD2002\plotters\DWF ePlot (optimized for plotting).pc3
  4

  6

 40
0.0
 41
0.0
 42
0.0
 43
0.0
 44
0.0
 45
0.0
 46
0.0
 47
0.0
 48
0.0
 49
0.0
140
0.0
141
0.0
142
1.0
143
1.0
 70
   688
 72
     0
 73
     0
 74
     5
  7

 75
    16
147
1.0
148
0.0
149
0.0
100
AcDbLayout
  1
Layout1
 70
     0
 71
     1
 10
0.0
 20
0.0
 11
12.0
 21
9.0
 12
0.0
 22
0.0
 32
0.0
 14
1.000000000000000E+20
 24
1.000000000000000E+20
 34
1.000000000000000E+20
 15
-1.000000000000000E+20
 25
-1.000000000000000E+20
 35
-1.000000000000000E+20
146
0.0
 13
0.0
 23
0.0
 33
0.0
 16
1.0
 26
0.0
 36
0.0
 17
0.0
 27
1.0
 37
0.0
 76
     0
330
C
  0
LAYOUT
  5
A
102
{ACAD_REACTORS
330
B
102
}
102
{ACAD_XDICTIONARY
360
4C0
102
}
330
B
100
AcDbPlotSettings
  1

  2
X:\Program Files\AutoCAD2002\plotters\DWF ePlot (optimized for plotting).pc3
  4

  6

 40
0.0
 41
0.0
 42
0.0
 43
0.0
 44
0.0
 45
0.0
 46
0.0
 47
0.0
 48
0.0
 49
0.0
140
0.0
141
0.0
142
1.0
143
1.0
 70
  1712
 72
     0
 73
     0
 74
     0
  7

 75
     0
147
1.0
148
0.0
149
0.0
100
AcDbLayout
  1
Model
 70
     1
 71
     0
 10
0.0
 20
0.0
 11
12.0
 21
9.0
 12
0.0
 22
0.0
 32
0.0
 14
0.0
 24
0.0
 34
0.0
 15
0.0
 25
0.0
 35
0.0
146
0.0
 13
0.0
 23
0.0
 33
0.0
 16
1.0
 26
0.0
 36
0.0
 17
0.0
 27
1.0
 37
0.0
 76
     0
330
2
  0
MLINESTYLE
  5
23
102
{ACAD_REACTORS
330
20
102
}
330
20
100
AcDbMlineStyle
  2
STANDARD
 70
     0
  3

 62
   256
 51
90.0
 52
90.0
 71
     2
 49
0.5
 62
   256
  6
BYLAYER
 49
-0.5
 62
   256
  6
BYLAYER
  0
ACDBPLACEHOLDER
  5
5
102
{ACAD_REACTORS
330
6
102
}
330
6
  0
ACAD_PROXY_OBJECT
  5
4B0
102
{ACAD_REACTORS
330
4AF
102
}
330
4AF
100
AcDbProxyObject
 90
      499
 91
      504
 95
   983063
 70
     0
 93
     1841
310
4214DD185B99185C9928B81E85EB51B8AE3F2E07A17AD46E2B8FC02B5E8DC0F42B1CFD028000000C1008070000C3001FDFF8000000C1003FBFF000000182007F7FE00000030400FEFFC00000060801FDFF8000000C1003FBFF00000018200000000000000681FA0B0000001820100E000186003FBFF000000182007F7FE000
310
00030400FEFFC00000060801FDFF8000000C1003FBFF000000182007F7FE000000304000AD7A3703D0AC73F4160000003040201C00030C007F7FE00000030400FEFFC00000060801FDFF8000000C1003FBFF000000182007F7FE00000030400FEFFC000000608000
340
12
340
12
340
12
 94
        0
  0
XRECORD
  5
4BC
102
{ACAD_REACTORS
330
4BB
102
}
330
4BB
100
AcDbXrecord
340
4AE
  0
XRECORD
  5
4BD
102
{ACAD_REACTORS
330
4BB
102
}
330
4BB
100
AcDbXrecord
340
4AD
  0
DICTIONARYVAR
  5
4B9
102
{ACAD_REACTORS
330
26D
102
}
330
26D
100
DictionaryVariables
280
     0
  1
STANDARD
  0
DICTIONARYVAR
  5
26F
102
{ACAD_REACTORS
330
26D
102
}
330
26D
100
DictionaryVariables
280
     0
  1
2
  0
DICTIONARYVAR
  5
26E
102
{ACAD_REACTORS
330
26D
102
}
330
26D
100
DictionaryVariables
280
     0
  1
1
  0
DICTIONARY
  5
4BE
330
F
100
AcDbDictionary
280
     1
281
     1
  3
ACAD_XREC_ROUNDTRIP
360
4BF
  0
DICTIONARY
  5
4C0
330
A
100
AcDbDictionary
280
     1
281
     1
  3
ACAD_XREC_ROUNDTRIP
360
4C1
  0
XRECORD
  5
4BF
102
{ACAD_REACTORS
330
4BE
102
}
330
4BE
100
AcDbXrecord
102
SHADEPLOT
 70
     0
102
SHADEPLOTRESLEVEL
 70
     2
102
SHADEPLOTCUSTOMDPI
 70
   300
  0
XRECORD
  5
4C1
102
{ACAD_REACTORS
330
4C0
102
}
330
4C0
100
AcDbXrecord
102
SHADEPLOT
 70
     0
102
SHADEPLOTRESLEVEL
 70
     2
102
SHADEPLOTCUSTOMDPI
 70
   300
  0
ENDSEC
  0
EOF
