  0
SECTION
  2
HEADER
  9
$ACADVER
  1
AC1015
  9
$ACADMAINTVER
 70
     6
  9
$DWGCODEPAGE
  3
ANSI_1252
  9
$INSBASE
 10
0.0
 20
0.0
 30
0.0
  9
$EXTMIN
 10
-11.65588014135401
 20
-0.000236918552968
 30
0.0
  9
$EXTMAX
 10
11.61694587628866
 20
2.0625
 30
0.0
  9
$LIMMIN
 10
0.0
 20
0.0
  9
$LIMMAX
 10
31.50000000000053
 20
23.25000000000039
  9
$ORTHOMODE
 70
     0
  9
$REGENMODE
 70
     1
  9
$FILLMODE
 70
     1
  9
$QTEXTMODE
 70
     0
  9
$MIRRTEXT
 70
     0
  9
$LTSCALE
 40
1.0
  9
$ATTMODE
 70
     1
  9
$TEXTSIZE
 40
0.27
  9
$TRACEWID
 40
0.05
  9
$TEXTSTYLE
  7
STANDARD
  9
$CLAYER
  8
0
  9
$CELTYPE
  6
ByLayer
  9
$CECOLOR
 62
   256
  9
$CELTSCALE
 40
1.0
  9
$DISPSILH
 70
     0
  9
$DIMSCALE
 40
1.0
  9
$DIMASZ
 40
0.375000000000005
  9
$DIMEXO
 40
0.062
  9
$DIMDLI
 40
0.375
  9
$DIMRND
 40
0.0
  9
$DIMDLE
 40
0.0
  9
$DIMEXE
 40
0.240000000000004
  9
$DIMTP
 40
0.0
  9
$DIMTM
 40
0.0
  9
$DIMTXT
 40
0.270000000000005
  9
$DIMCEN
 40
-0.06
  9
$DIMTSZ
 40
0.0
  9
$DIMTOL
 70
     0
  9
$DIMLIM
 70
     0
  9
$DIMTIH
 70
     1
  9
$DIMTOH
 70
     1
  9
$DIMSE1
 70
     0
  9
$DIMSE2
 70
     0
  9
$DIMTAD
 70
     0
  9
$DIMZIN
 70
     0
  9
$DIMBLK
  1

  9
$DIMASO
 70
     0
  9
$DIMSHO
 70
     0
  9
$DIMPOST
  1

  9
$DIMAPOST
  1

  9
$DIMALT
 70
     0
  9
$DIMALTD
 70
     2
  9
$DIMALTF
 40
25.4
  9
$DIMLFAC
 40
1.0
  9
$DIMTOFL
 70
     0
  9
$DIMTVP
 40
0.0
  9
$DIMTIX
 70
     0
  9
$DIMSOXD
 70
     0
  9
$DIMSAH
 70
     0
  9
$DIMBLK1
  1

  9
$DIMBLK2
  1

  9
$DIMSTYLE
  2
Standard
  9
$DIMCLRD
 70
     0
  9
$DIMCLRE
 70
     0
  9
$DIMCLRT
 70
     0
  9
$DIMTFAC
 40
1.0
  9
$DIMGAP
 40
0.09
  9
$DIMJUST
 70
     0
  9
$DIMSD1
 70
     0
  9
$DIMSD2
 70
     0
  9
$DIMTOLJ
 70
     1
  9
$DIMTZIN
 70
     0
  9
$DIMALTZ
 70
     0
  9
$DIMALTTZ
 70
     0
  9
$DIMUPT
 70
     0
  9
$DIMDEC
 70
     3
  9
$DIMTDEC
 70
     3
  9
$DIMALTU
 70
     2
  9
$DIMALTTD
 70
     2
  9
$DIMTXSTY
  7
STANDARD
  9
$DIMAUNIT
 70
     0
  9
$DIMADEC
 70
     0
  9
$DIMALTRND
 40
0.0
  9
$DIMAZIN
 70
     0
  9
$DIMDSEP
 70
    46
  9
$DIMATFIT
 70
     3
  9
$DIMFRAC
 70
     0
  9
$DIMLDRBLK
  1

  9
$DIMLUNIT
 70
     2
  9
$DIMLWD
 70
    -2
  9
$DIMLWE
 70
    -2
  9
$DIMTMOVE
 70
     2
  9
$LUNITS
 70
     2
  9
$LUPREC
 70
     3
  9
$SKETCHINC
 40
0.1
  9
$FILLETRAD
 40
0.0
  9
$AUNITS
 70
     0
  9
$AUPREC
 70
     0
  9
$MENU
  1
ACAD
  9
$ELEVATION
 40
0.0
  9
$PELEVATION
 40
0.0
  9
$THICKNESS
 40
0.0
  9
$LIMCHECK
 70
     0
  9
$CHAMFERA
 40
0.0
  9
$CHAMFERB
 40
0.0
  9
$CHAMFERC
 40
0.0
  9
$CHAMFERD
 40
0.0
  9
$SKPOLY
 70
     0
  9
$TDCREATE
 40
2449020.688234838
  9
$TDUCREATE
 40
2449021.021568171
  9
$TDUPDATE
 40
2454181.799960116
  9
$TDUUPDATE
 40
2454182.133293449
  9
$TDINDWG
 40
0.0621543287
  9
$TDUSRTIMER
 40
0.0621543287
  9
$USRTIMER
 70
     1
  9
$ANGBASE
 50
0.0
  9
$ANGDIR
 70
     0
  9
$PDMODE
 70
     0
  9
$PDSIZE
 40
0.0
  9
$PLINEWID
 40
0.0
  9
$SPLFRAME
 70
     0
  9
$SPLINETYPE
 70
     6
  9
$SPLINESEGS
 70
     8
  9
$HANDSEED
  5
B5
  9
$SURFTAB1
 70
     6
  9
$SURFTAB2
 70
     6
  9
$SURFTYPE
 70
     6
  9
$SURFU
 70
     6
  9
$SURFV
 70
     6
  9
$UCSBASE
  2

  9
$UCSNAME
  2

  9
$UCSORG
 10
0.0
 20
0.0
 30
0.0
  9
$UCSXDIR
 10
1.0
 20
0.0
 30
0.0
  9
$UCSYDIR
 10
0.0
 20
1.0
 30
0.0
  9
$UCSORTHOREF
  2

  9
$UCSORTHOVIEW
 70
     0
  9
$UCSORGTOP
 10
0.0
 20
0.0
 30
0.0
  9
$UCSORGBOTTOM
 10
0.0
 20
0.0
 30
0.0
  9
$UCSORGLEFT
 10
0.0
 20
0.0
 30
0.0
  9
$UCSORGRIGHT
 10
0.0
 20
0.0
 30
0.0
  9
$UCSORGFRONT
 10
0.0
 20
0.0
 30
0.0
  9
$UCSORGBACK
 10
0.0
 20
0.0
 30
0.0
  9
$PUCSBASE
  2

  9
$PUCSNAME
  2

  9
$PUCSORG
 10
0.0
 20
0.0
 30
0.0
  9
$PUCSXDIR
 10
1.0
 20
0.0
 30
0.0
  9
$PUCSYDIR
 10
0.0
 20
1.0
 30
0.0
  9
$PUCSORTHOREF
  2

  9
$PUCSORTHOVIEW
 70
     0
  9
$PUCSORGTOP
 10
0.0
 20
0.0
 30
0.0
  9
$PUCSORGBOTTOM
 10
0.0
 20
0.0
 30
0.0
  9
$PUCSORGLEFT
 10
0.0
 20
0.0
 30
0.0
  9
$PUCSORGRIGHT
 10
0.0
 20
0.0
 30
0.0
  9
$PUCSORGFRONT
 10
0.0
 20
0.0
 30
0.0
  9
$PUCSORGBACK
 10
0.0
 20
0.0
 30
0.0
  9
$USERI1
 70
     0
  9
$USERI2
 70
     0
  9
$USERI3
 70
     0
  9
$USERI4
 70
     0
  9
$USERI5
 70
     0
  9
$USERR1
 40
0.0
  9
$USERR2
 40
0.0
  9
$USERR3
 40
0.0
  9
$USERR4
 40
0.0
  9
$USERR5
 40
0.0
  9
$WORLDVIEW
 70
     1
  9
$SHADEDGE
 70
     3
  9
$SHADEDIF
 70
    70
  9
$TILEMODE
 70
     1
  9
$MAXACTVP
 70
    16
  9
$PINSBASE
 10
0.0
 20
0.0
 30
0.0
  9
$PLIMCHECK
 70
     0
  9
$PEXTMIN
 10
1.000000000000000E+20
 20
1.000000000000000E+20
 30
1.000000000000000E+20
  9
$PEXTMAX
 10
-1.000000000000000E+20
 20
-1.000000000000000E+20
 30
-1.000000000000000E+20
  9
$PLIMMIN
 10
0.0
 20
0.0
  9
$PLIMMAX
 10
12.0
 20
9.0
  9
$UNITMODE
 70
     0
  9
$VISRETAIN
 70
     0
  9
$PLINEGEN
 70
     0
  9
$PSLTSCALE
 70
     0
  9
$TREEDEPTH
 70
  3020
  9
$CMLSTYLE
  2
Standard
  9
$CMLJUST
 70
     0
  9
$CMLSCALE
 40
1.0
  9
$PROXYGRAPHICS
 70
     1
  9
$MEASUREMENT
 70
     0
  9
$CELWEIGHT
370
    -1
  9
$ENDCAPS
280
     0
  9
$JOINSTYLE
280
     0
  9
$LWDISPLAY
290
     0
  9
$INSUNITS
 70
     0
  9
$HYPERLINKBASE
  1

  9
$STYLESHEET
  1

  9
$XEDIT
290
     1
  9
$CEPSNTYPE
380
     0
  9
$PSTYLEMODE
290
     1
  9
$FINGERPRINTGUID
  2
{DAD6EEBA-925D-4201-94F4-48D9A4E937A9}
  9
$VERSIONGUID
  2
{470DFB04-38D1-4B74-8B85-8C447D96C546}
  9
$EXTNAMES
290
     1
  9
$PSVPSCALE
 40
0.0
  9
$OLESTARTUP
290
     0
  0
ENDSEC
  0
SECTION
  2
CLASSES
  0
CLASS
  1
ACDBDICTIONARYWDFLT
  2
AcDbDictionaryWithDefault
  3
AutoCAD 2000
 90
        0
280
     0
281
     0
  0
CLASS
  1
ACDBPLACEHOLDER
  2
AcDbPlaceHolder
  3
ObjectDBX Classes
 90
        0
280
     0
281
     0
  0
CLASS
  1
LAYOUT
  2
AcDbLayout
  3
ObjectDBX Classes
 90
        0
280
     0
281
     0
  0
CLASS
  1
DICTIONARYVAR
  2
AcDbDictionaryVar
  3
AutoCAD 2000
 90
        0
280
     0
281
     0
  0
CLASS
  1
TABLESTYLE
  2
AcDbTableStyle
  3
ObjectDBX Classes
 90
     2047
280
     1
281
     0
  0
CLASS
  1
SORTENTSTABLE
  2
AcDbSortentsTable
  3
AutoCAD 2000
 90
        0
280
     0
281
     0
  0
ENDSEC
  0
SECTION
  2
TABLES
  0
TABLE
  2
VPORT
  5
19
330
0
100
AcDbSymbolTable
 70
     2
  0
VPORT
  5
A8
330
19
100
AcDbSymbolTableRecord
100
AcDbViewportTableRecord
  2
*Active
 70
     0
 10
0.0
 20
0.0
 11
1.0
 21
1.0
 12
13.62121943972345
 22
11.62464526022064
 13
0.0
 23
0.0
 14
0.0625
 24
0.0625
 15
0.25
 25
0.25
 16
0.0
 26
0.0
 36
1.0
 17
0.0
 27
0.0
 37
0.0
 40
27.97910136954857
 41
1.814583333333333
 42
50.0
 43
0.0
 44
0.0
 50
0.0
 51
0.0
 71
     0
 72
   100
 73
     1
 74
     0
 75
     0
 76
     0
 77
     0
 78
     1
281
     0
 65
     1
110
0.0
120
0.0
130
0.0
111
1.0
121
0.0
131
0.0
112
0.0
122
1.0
132
0.0
 79
     0
146
0.0
  0
ENDTAB
  0
TABLE
  2
LTYPE
  5
14
330
0
100
AcDbSymbolTable
 70
     1
  0
LTYPE
  5
15
330
14
100
AcDbSymbolTableRecord
100
AcDbLinetypeTableRecord
  2
ByBlock
 70
     0
  3

 72
    65
 73
     0
 40
0.0
  0
LTYPE
  5
16
330
14
100
AcDbSymbolTableRecord
100
AcDbLinetypeTableRecord
  2
ByLayer
 70
     0
  3

 72
    65
 73
     0
 40
0.0
  0
LTYPE
  5
8
330
14
100
AcDbSymbolTableRecord
100
AcDbLinetypeTableRecord
  2
CONTINUOUS
 70
     0
  3
Solid line
 72
    65
 73
     0
 40
0.0
  0
ENDTAB
  0
TABLE
  2
LAYER
  5
10
330
0
100
AcDbSymbolTable
 70
     2
  0
LAYER
  5
4
330
10
100
AcDbSymbolTableRecord
100
AcDbLayerTableRecord
  2
0
 70
     0
 62
     7
  6
CONTINUOUS
370
    -3
390
5
  0
ENDTAB
  0
TABLE
  2
STYLE
  5
11
330
0
100
AcDbSymbolTable
 70
     1
  0
STYLE
  5
12
330
11
100
AcDbSymbolTableRecord
100
AcDbTextStyleTableRecord
  2
STANDARD
 70
     0
 40
0.0
 41
1.0
 50
0.0
 71
     0
 42
0.27
  3
TXT
  4

  0
ENDTAB
  0
TABLE
  2
VIEW
  5
17
330
0
100
AcDbSymbolTable
 70
     0
  0
ENDTAB
  0
TABLE
  2
UCS
  5
18
330
0
100
AcDbSymbolTable
 70
     0
  0
ENDTAB
  0
TABLE
  2
APPID
  5
1B
330
0
100
AcDbSymbolTable
 70
     1
  0
APPID
  5
1C
330
1B
100
AcDbSymbolTableRecord
100
AcDbRegAppTableRecord
  2
ACAD
 70
     0
  0
ENDTAB
  0
TABLE
  2
DIMSTYLE
  5
1D
330
0
100
AcDbSymbolTable
 70
     1
100
AcDbDimStyleTable
  0
DIMSTYLE
105
24
330
1D
100
AcDbSymbolTableRecord
100
AcDbDimStyleTableRecord
  2
Standard
 70
     0
  3

  4

340
12
  0
ENDTAB
  0
TABLE
  2
BLOCK_RECORD
  5
1
330
0
100
AcDbSymbolTable
 70
     0
  0
BLOCK_RECORD
  5
2
102
{ACAD_XDICTIONARY
360
9A
102
}
330
1
100
AcDbSymbolTableRecord
100
AcDbBlockTableRecord
  2
*Model_Space
340
A
  0
BLOCK_RECORD
  5
C
330
1
100
AcDbSymbolTableRecord
100
AcDbBlockTableRecord
  2
*Paper_Space
340
F
  0
ENDTAB
  0
ENDSEC
  0
SECTION
  2
BLOCKS
  0
BLOCK
  5
3
330
2
100
AcDbEntity
  8
0
100
AcDbBlockBegin
  2
*Model_Space
 70
     0
 10
0.0
 20
0.0
 30
0.0
  3
*Model_Space
  1

  4

  0
ENDBLK
  5
9
330
2
100
AcDbEntity
  8
0
100
AcDbBlockEnd
  0
BLOCK
  5
D
330
C
100
AcDbEntity
 67
     1
  8
0
100
AcDbBlockBegin
  2
*Paper_Space
 70
     0
 10
0.0
 20
0.0
 30
0.0
  3
*Paper_Space
  1

  4

  0
ENDBLK
  5
E
330
C
100
AcDbEntity
 67
     1
  8
0
100
AcDbBlockEnd
  0
ENDSEC
  0
SECTION
  2
ENTITIES
  0
LINE
  5
67
330
2
100
AcDbEntity
  8
0
100
AcDbLine
 10
11.61694587628866
 20
0.0
 30
0.0
 11
-11.61694587628866
 21
0.0
 31
0.0
  0
LINE
  5
68
330
2
100
AcDbEntity
  8
0
100
AcDbLine
 10
-11.45565721649484
 20
2.0625
 30
0.0
 11
11.61694587628866
 21
2.0625
 31
0.0
  0
LINE
  5
69
330
2
100
AcDbEntity
  8
0
100
AcDbLine
 10
-11.40218686895524
 20
1.721253144152982
 30
0.0
 11
-11.40218686895524
 21
1.902462624437817
 31
0.0
  0
CIRCLE
  5
6A
330
2
100
AcDbEntity
  8
0
100
AcDbCircle
 10
-10.56047361568715
 20
1.779335830942006
 30
0.0
 40
0.0855
  0
LINE
  5
6B
330
2
100
AcDbEntity
  8
0
100
AcDbLine
 10
-11.24997090551598
 20
0.9662136429661601
 30
0.0
 11
-11.19923225103622
 21
1.026616803061106
 31
0.0
  0
LINE
  5
6C
330
2
100
AcDbEntity
  8
0
100
AcDbLine
 10
-11.2246015782761
 20
1.268229443440887
 30
0.0
 11
-11.27534023275585
 21
1.328632603535834
 31
0.0
  0
LINE
  5
6D
330
2
100
AcDbEntity
  8
0
100
AcDbLine
 10
-11.32607888723561
 20
0.7850041626813251
 30
0.0
 11
-11.24997090551598
 21
0.9662136429661601
 31
0.0
  0
LINE
  5
6E
330
2
100
AcDbEntity
  8
0
100
AcDbLine
 10
-11.65588014135401
 20
0.1809725617318669
 30
0.0
 11
-11.52903350515462
 21
0.4829883622065978
 31
0.0
  0
LINE
  5
6F
330
2
100
AcDbEntity
  8
0
100
AcDbLine
 10
-11.60514148687426
 20
-0.000236918552968
 30
0.0
 11
-11.65588014135401
 21
0.1205694016369243
 31
0.0
  0
LINE
  5
70
330
2
100
AcDbEntity
  8
0
100
AcDbLine
 10
-11.65588014135401
 20
0.1205694016369243
 30
0.0
 11
-11.65588014135401
 21
0.1809725617318669
 31
0.0
  0
LINE
  5
71
330
2
100
AcDbEntity
  8
0
100
AcDbLine
 10
-11.52903350515462
 20
0.4829883622065978
 30
0.0
 11
-11.42755619619512
 21
0.6037946823964866
 31
0.0
  0
LINE
  5
72
330
2
100
AcDbEntity
  8
0
100
AcDbLine
 10
-11.42755619619512
 20
0.6037946823964866
 30
0.0
 11
-11.37681754171536
 21
0.7246010025863789
 31
0.0
  0
LINE
  5
73
330
2
100
AcDbEntity
  8
0
100
AcDbLine
 10
-11.37681754171536
 20
0.7246010025863789
 30
0.0
 11
-11.32607888723561
 21
0.7850041626813251
 31
0.0
  0
LINE
  5
74
330
2
100
AcDbEntity
  8
0
100
AcDbLine
 10
-11.27534023275585
 20
1.328632603535834
 30
0.0
 11
-11.27534023275585
 21
1.449438923725726
 31
0.0
  0
LINE
  5
75
330
2
100
AcDbEntity
  8
0
100
AcDbLine
 10
-11.27534023275585
 20
1.449438923725726
 30
0.0
 11
-11.30070955999573
 21
1.509842083820672
 31
0.0
  0
LINE
  5
76
330
2
100
AcDbEntity
  8
0
100
AcDbLine
 10
-11.30070955999573
 20
1.509842083820672
 30
0.0
 11
-11.30070955999573
 21
1.570245243915615
 31
0.0
  0
LINE
  5
77
330
2
100
AcDbEntity
  8
0
100
AcDbLine
 10
-11.30070955999573
 20
1.570245243915615
 30
0.0
 11
-11.35144821447548
 21
1.691051564105507
 31
0.0
  0
LINE
  5
78
330
2
100
AcDbEntity
  8
0
100
AcDbLine
 10
-11.35144821447548
 20
1.691051564105507
 30
0.0
 11
-11.40218686895524
 21
1.721253144152982
 31
0.0
  0
CIRCLE
  5
79
330
2
100
AcDbEntity
  8
0
100
AcDbCircle
 10
-9.657091215857204
 20
0.3169062422503295
 30
0.0
 40
0.0855
  0
LINE
  5
7A
330
2
100
AcDbEntity
  8
0
100
AcDbLine
 10
-11.19923225103622
 20
1.026616803061106
 30
0.0
 11
-11.19923225103622
 21
1.147423123250999
 31
0.0
  0
LINE
  5
7B
330
2
100
AcDbEntity
  8
0
100
AcDbLine
 10
-11.19923225103622
 20
1.147423123250999
 30
0.0
 11
-11.2246015782761
 21
1.207826283345941
 31
0.0
  0
LINE
  5
7C
330
2
100
AcDbEntity
  8
0
100
AcDbLine
 10
-11.2246015782761
 20
1.207826283345941
 30
0.0
 11
-11.2246015782761
 21
1.268229443440887
 31
0.0
  0
LINE
  5
7D
330
2
100
AcDbEntity
  8
0
100
AcDbLine
 10
-11.40218686895524
 20
1.902462624437817
 30
0.0
 11
-11.45292552343499
 21
2.023268944627709
 31
0.0
  0
LINE
  5
7E
330
2
100
AcDbEntity
  8
0
100
AcDbLine
 10
-11.45292552343499
 20
2.023268944627709
 30
0.0
 11
-11.45292552343499
 21
2.053470524675181
 31
0.0
  0
CIRCLE
  5
7F
330
2
100
AcDbEntity
  8
0
100
AcDbCircle
 10
-8.815986422574149
 20
1.779335830942006
 30
0.0
 40
0.0855
  0
CIRCLE
  5
80
330
2
100
AcDbEntity
  8
0
100
AcDbCircle
 10
-6.447197497077262
 20
1.779335830942006
 30
0.0
 40
0.0855
  0
CIRCLE
  5
81
330
2
100
AcDbEntity
  8
0
100
AcDbCircle
 10
-7.912604022744198
 20
0.3169062422503295
 30
0.0
 40
0.0855
  0
CIRCLE
  5
82
330
2
100
AcDbEntity
  8
0
100
AcDbCircle
 10
-4.691785125943241
 20
1.779335830942006
 30
0.0
 40
0.0855
  0
CIRCLE
  5
83
330
2
100
AcDbEntity
  8
0
100
AcDbCircle
 10
-2.947197497077266
 20
1.779335830942006
 30
0.0
 40
0.0855
  0
CIRCLE
  5
84
330
2
100
AcDbEntity
  8
0
100
AcDbCircle
 10
-5.56918442448719
 20
0.3169062422503295
 30
0.0
 40
0.0855
  0
CIRCLE
  5
85
330
2
100
AcDbEntity
  8
0
100
AcDbCircle
 10
-3.81918442448719
 20
0.3169062422503295
 30
0.0
 40
0.0855
  0
CIRCLE
  5
86
330
2
100
AcDbEntity
  8
0
100
AcDbCircle
 10
-1.197197497077262
 20
1.779335830942006
 30
0.0
 40
0.0855
  0
CIRCLE
  5
87
330
2
100
AcDbEntity
  8
0
100
AcDbCircle
 10
0.5473901317887151
 20
1.779335830942006
 30
0.0
 40
0.0855
  0
CIRCLE
  5
88
330
2
100
AcDbEntity
  8
0
100
AcDbCircle
 10
-2.06918442448719
 20
0.3169062422503295
 30
0.0
 40
0.0855
  0
CIRCLE
  5
89
330
2
100
AcDbEntity
  8
0
100
AcDbCircle
 10
0.1978981560208322
 20
1.031116041378823
 30
0.0
 40
0.281
  0
CIRCLE
  5
8A
330
2
100
AcDbEntity
  8
0
100
AcDbCircle
 10
-0.319184424487192
 20
0.3169062422503295
 30
0.0
 40
0.0855
  0
CIRCLE
  5
8B
330
2
100
AcDbEntity
  8
0
100
AcDbCircle
 10
4.047390131788717
 20
1.779335830942006
 30
0.0
 40
0.0855
  0
CIRCLE
  5
8C
330
2
100
AcDbEntity
  8
0
100
AcDbCircle
 10
2.172390131788717
 20
1.779335830942006
 30
0.0
 40
0.0855
  0
CIRCLE
  5
8D
330
2
100
AcDbEntity
  8
0
100
AcDbCircle
 10
1.430815575512808
 20
0.3169062422503295
 30
0.0
 40
0.0855
  0
CIRCLE
  5
8E
330
2
100
AcDbEntity
  8
0
100
AcDbCircle
 10
3.18081557551281
 20
0.3169062422503295
 30
0.0
 40
0.0855
  0
CIRCLE
  5
8F
330
2
100
AcDbEntity
  8
0
100
AcDbCircle
 10
5.797390131788717
 20
1.779335830942006
 30
0.0
 40
0.0855
  0
CIRCLE
  5
90
330
2
100
AcDbEntity
  8
0
100
AcDbCircle
 10
5.484341454989902
 20
1.031116041378823
 30
0.0
 40
0.281
  0
CIRCLE
  5
91
330
2
100
AcDbEntity
  8
0
100
AcDbCircle
 10
4.93081557551281
 20
0.3169062422503295
 30
0.0
 40
0.0855
  0
CIRCLE
  5
92
330
2
100
AcDbEntity
  8
0
100
AcDbCircle
 10
6.68081557551281
 20
0.3169062422503295
 30
0.0
 40
0.0855
  0
CIRCLE
  5
93
330
2
100
AcDbEntity
  8
0
100
AcDbCircle
 10
10.74354248591774
 20
1.031116041378823
 30
0.0
 40
0.281
  0
CIRCLE
  5
94
330
2
100
AcDbEntity
  8
0
100
AcDbCircle
 10
7.547390131788717
 20
1.779335830942006
 30
0.0
 40
0.0855
  0
CIRCLE
  5
95
330
2
100
AcDbEntity
  8
0
100
AcDbCircle
 10
9.297390131788717
 20
1.779335830942006
 30
0.0
 40
0.0855
  0
CIRCLE
  5
96
330
2
100
AcDbEntity
  8
0
100
AcDbCircle
 10
8.43081557551281
 20
0.3169062422503295
 30
0.0
 40
0.0855
  0
CIRCLE
  5
97
330
2
100
AcDbEntity
  8
0
100
AcDbCircle
 10
10.18081557551281
 20
0.3169062422503295
 30
0.0
 40
0.0855
  0
LINE
  5
98
330
2
100
AcDbEntity
  8
0
100
AcDbLine
 10
11.61694587628866
 20
2.0625
 30
0.0
 11
11.61694587628866
 21
0.0
 31
0.0
  0
CIRCLE
  5
99
330
2
100
AcDbEntity
  8
0
100
AcDbCircle
 10
11.04739013178872
 20
1.779335830942006
 30
0.0
 40
0.0855
  0
ENDSEC
  0
SECTION
  2
OBJECTS
  0
DICTIONARY
  5
7
330
0
100
AcDbDictionary
281
     1
  3
ACAD_COLOR
350
62
  3
ACAD_GROUP
350
1F
  3
ACAD_LAYOUT
350
B
  3
ACAD_MATERIAL
350
61
  3
ACAD_MLINESTYLE
350
20
  3
ACAD_PLOTSETTINGS
350
21
  3
ACAD_PLOTSTYLENAME
350
6
  3
ACAD_TABLESTYLE
350
63
  3
ACDBHEADERROUNDTRIPXREC
350
AE
  3
AcDbVariableDictionary
350
5D
  0
DICTIONARY
  5
9A
330
2
100
AcDbDictionary
280
     1
281
     1
  3
ACAD_SORTENTS
360
9B
  0
DICTIONARY
  5
62
102
{ACAD_REACTORS
330
7
102
}
330
7
100
AcDbDictionary
281
     1
  0
DICTIONARY
  5
1F
102
{ACAD_REACTORS
330
7
102
}
330
7
100
AcDbDictionary
281
     1
  0
DICTIONARY
  5
B
102
{ACAD_REACTORS
330
7
102
}
330
7
100
AcDbDictionary
281
     1
  3
Layout1
350
F
  3
Model
350
A
  0
DICTIONARY
  5
61
102
{ACAD_REACTORS
330
7
102
}
330
7
100
AcDbDictionary
281
     1
  0
DICTIONARY
  5
20
102
{ACAD_REACTORS
330
7
102
}
330
7
100
AcDbDictionary
281
     1
  3
Standard
350
23
  0
DICTIONARY
  5
21
102
{ACAD_REACTORS
330
7
102
}
330
7
100
AcDbDictionary
281
     1
  0
ACDBDICTIONARYWDFLT
  5
6
102
{ACAD_REACTORS
330
7
102
}
330
7
100
AcDbDictionary
281
     1
  3
Normal
350
5
100
AcDbDictionaryWithDefault
340
5
  0
DICTIONARY
  5
63
102
{ACAD_REACTORS
330
7
102
}
330
7
100
AcDbDictionary
281
     1
  3
Standard
350
64
  0
DICTIONARY
  5
AE
102
{ACAD_REACTORS
330
7
102
}
330
7
100
AcDbDictionary
281
     1
  3
COLORDICT
350
AF
  3
MATERIALDICT
350
B0
  0
DICTIONARY
  5
5D
102
{ACAD_REACTORS
330
7
102
}
330
7
100
AcDbDictionary
281
     1
  3
CTABLESTYLE
350
A3
  3
DIMASSOC
350
5F
  3
HIDETEXT
350
5E
  0
SORTENTSTABLE
  5
9B
102
{ACAD_REACTORS
330
9A
102
}
330
9A
100
AcDbSortentsTable
330
2
331
8C
  5
8C
331
91
  5
91
331
86
  5
86
331
90
  5
90
331
83
  5
83
331
68
  5
68
331
7E
  5
7E
331
7C
  5
7C
331
95
  5
95
331
6D
  5
6D
331
74
  5
74
331
89
  5
89
331
72
  5
72
331
8E
  5
8E
331
71
  5
71
331
98
  5
98
331
7D
  5
7D
331
99
  5
99
331
96
  5
96
331
6F
  5
6F
331
82
  5
82
331
69
  5
69
331
81
  5
81
331
7F
  5
7F
331
78
  5
78
331
70
  5
70
331
8F
  5
8F
331
6C
  5
6C
331
79
  5
79
331
8D
  5
8D
331
76
  5
76
331
73
  5
73
331
6A
  5
6A
331
84
  5
84
331
6B
  5
6B
331
94
  5
94
331
7B
  5
7B
331
67
  5
67
331
8A
  5
8A
331
97
  5
97
331
87
  5
87
331
77
  5
77
331
92
  5
92
331
85
  5
85
331
8B
  5
8B
331
88
  5
88
331
93
  5
93
331
7A
  5
7A
331
6E
  5
6E
331
80
  5
80
331
75
  5
75
  0
LAYOUT
  5
F
102
{ACAD_REACTORS
330
B
102
}
102
{ACAD_XDICTIONARY
360
B1
102
}
330
B
100
AcDbPlotSettings
  1

  2
X:\Program Files\AutoCAD2002\plotters\DWF ePlot (optimized for plotting).pc3
  4

  6

 40
0.0
 41
0.0
 42
0.0
 43
0.0
 44
0.0
 45
0.0
 46
0.0
 47
0.0
 48
0.0
 49
0.0
140
0.0
141
0.0
142
1.0
143
1.0
 70
   688
 72
     0
 73
     0
 74
     5
  7

 75
    16
147
1.0
148
0.0
149
0.0
100
AcDbLayout
  1
Layout1
 70
     0
 71
     1
 10
0.0
 20
0.0
 11
12.0
 21
9.0
 12
0.0
 22
0.0
 32
0.0
 14
1.000000000000000E+20
 24
1.000000000000000E+20
 34
1.000000000000000E+20
 15
-1.000000000000000E+20
 25
-1.000000000000000E+20
 35
-1.000000000000000E+20
146
0.0
 13
0.0
 23
0.0
 33
0.0
 16
1.0
 26
0.0
 36
0.0
 17
0.0
 27
1.0
 37
0.0
 76
     0
330
C
  0
LAYOUT
  5
A
102
{ACAD_REACTORS
330
B
102
}
102
{ACAD_XDICTIONARY
360
B3
102
}
330
B
100
AcDbPlotSettings
  1

  2
X:\Program Files\AutoCAD2002\plotters\DWF ePlot (optimized for plotting).pc3
  4

  6

 40
0.0
 41
0.0
 42
0.0
 43
0.0
 44
0.0
 45
0.0
 46
0.0
 47
0.0
 48
0.0
 49
0.0
140
0.0
141
0.0
142
1.0
143
1.0
 70
  1712
 72
     0
 73
     0
 74
     0
  7

 75
     0
147
1.0
148
0.0
149
0.0
100
AcDbLayout
  1
Model
 70
     1
 71
     0
 10
0.0
 20
0.0
 11
12.0
 21
9.0
 12
0.0
 22
0.0
 32
0.0
 14
0.0
 24
0.0
 34
0.0
 15
0.0
 25
0.0
 35
0.0
146
0.0
 13
0.0
 23
0.0
 33
0.0
 16
1.0
 26
0.0
 36
0.0
 17
0.0
 27
1.0
 37
0.0
 76
     0
330
2
  0
MLINESTYLE
  5
23
102
{ACAD_REACTORS
330
20
102
}
330
20
100
AcDbMlineStyle
  2
STANDARD
 70
     0
  3

 62
   256
 51
90.0
 52
90.0
 71
     2
 49
0.5
 62
   256
  6
BYLAYER
 49
-0.5
 62
   256
  6
BYLAYER
  0
ACDBPLACEHOLDER
  5
5
102
{ACAD_REACTORS
330
6
102
}
330
6
  0
ACAD_PROXY_OBJECT
  5
64
102
{ACAD_REACTORS
330
63
102
}
330
63
100
AcDbProxyObject
 90
      499
 91
      504
 95
   983063
 70
     0
 93
     1841
310
4214DD185B99185C9928B81E85EB51B8AE3F2E07A17AD46E2B8FC02B5E8DC0F42B1CFD028000000C1008070000C3001FDFF8000000C1003FBFF000000182007F7FE00000030400FEFFC00000060801FDFF8000000C1003FBFF00000018200000000000000681FA0B0000001820100E000186003FBFF000000182007F7FE000
310
00030400FEFFC00000060801FDFF8000000C1003FBFF000000182007F7FE000000304000AD7A3703D0AC73F4160000003040201C00030C007F7FE00000030400FEFFC00000060801FDFF8000000C1003FBFF000000182007F7FE00000030400FEFFC000000608000
340
12
340
12
340
12
 94
        0
  0
XRECORD
  5
AF
102
{ACAD_REACTORS
330
AE
102
}
330
AE
100
AcDbXrecord
340
62
  0
XRECORD
  5
B0
102
{ACAD_REACTORS
330
AE
102
}
330
AE
100
AcDbXrecord
340
61
  0
DICTIONARYVAR
  5
A3
102
{ACAD_REACTORS
330
5D
102
}
330
5D
100
DictionaryVariables
280
     0
  1
STANDARD
  0
DICTIONARYVAR
  5
5F
102
{ACAD_REACTORS
330
5D
102
}
330
5D
100
DictionaryVariables
280
     0
  1
2
  0
DICTIONARYVAR
  5
5E
102
{ACAD_REACTORS
330
5D
102
}
330
5D
100
DictionaryVariables
280
     0
  1
1
  0
DICTIONARY
  5
B1
330
F
100
AcDbDictionary
280
     1
281
     1
  3
ACAD_XREC_ROUNDTRIP
360
B2
  0
DICTIONARY
  5
B3
330
A
100
AcDbDictionary
280
     1
281
     1
  3
ACAD_XREC_ROUNDTRIP
360
B4
  0
XRECORD
  5
B2
102
{ACAD_REACTORS
330
B1
102
}
330
B1
100
AcDbXrecord
102
SHADEPLOT
 70
     0
102
SHADEPLOTRESLEVEL
 70
     2
102
SHADEPLOTCUSTOMDPI
 70
   300
  0
XRECORD
  5
B4
102
{ACAD_REACTORS
330
B3
102
}
330
B3
100
AcDbXrecord
102
SHADEPLOT
 70
     0
102
SHADEPLOTRESLEVEL
 70
     2
102
SHADEPLOTCUSTOMDPI
 70
   300
  0
ENDSEC
  0
EOF
