  0
SECTION
  2
HEADER
  9
$ACADVER
  1
AC1015
  9
$ACADMAINTVER
 70
     6
  9
$DWGCODEPAGE
  3
ANSI_1252
  9
$INSBASE
 10
0.0
 20
0.0
 30
0.0
  9
$EXTMIN
 10
-14.12500000000001
 20
-0.0000000000000018
 30
0.0
  9
$EXTMAX
 10
14.12500000000001
 20
2.999999999999989
 30
0.0
  9
$LIMMIN
 10
0.0
 20
0.0
  9
$LIMMAX
 10
34.99965
 20
26.6664
  9
$ORTHOMODE
 70
     1
  9
$REGENMODE
 70
     1
  9
$FILLMODE
 70
     1
  9
$QTEXTMODE
 70
     0
  9
$MIRRTEXT
 70
     0
  9
$LTSCALE
 40
1.0
  9
$ATTMODE
 70
     1
  9
$TEXTSIZE
 40
0.299997
  9
$TRACEWID
 40
0.05
  9
$TEXTSTYLE
  7
STANDARD
  9
$CLAYER
  8
0
  9
$CELTYPE
  6
ByLayer
  9
$CECOLOR
 62
   256
  9
$CELTSCALE
 40
1.0
  9
$DISPSILH
 70
     0
  9
$DIMSCALE
 40
3.3333
  9
$DIMASZ
 40
0.125
  9
$DIMEXO
 40
0.062
  9
$DIMDLI
 40
0.375
  9
$DIMRND
 40
0.0
  9
$DIMDLE
 40
0.0
  9
$DIMEXE
 40
0.08
  9
$DIMTP
 40
0.0
  9
$DIMTM
 40
0.0
  9
$DIMTXT
 40
0.09
  9
$DIMCEN
 40
-0.03125
  9
$DIMTSZ
 40
0.0
  9
$DIMTOL
 70
     0
  9
$DIMLIM
 70
     0
  9
$DIMTIH
 70
     1
  9
$DIMTOH
 70
     1
  9
$DIMSE1
 70
     0
  9
$DIMSE2
 70
     0
  9
$DIMTAD
 70
     0
  9
$DIMZIN
 70
     0
  9
$DIMBLK
  1

  9
$DIMASO
 70
     0
  9
$DIMSHO
 70
     0
  9
$DIMPOST
  1

  9
$DIMAPOST
  1

  9
$DIMALT
 70
     0
  9
$DIMALTD
 70
     2
  9
$DIMALTF
 40
25.4
  9
$DIMLFAC
 40
1.0
  9
$DIMTOFL
 70
     0
  9
$DIMTVP
 40
0.0
  9
$DIMTIX
 70
     0
  9
$DIMSOXD
 70
     0
  9
$DIMSAH
 70
     0
  9
$DIMBLK1
  1

  9
$DIMBLK2
  1

  9
$DIMSTYLE
  2
Standard
  9
$DIMCLRD
 70
     0
  9
$DIMCLRE
 70
     0
  9
$DIMCLRT
 70
     0
  9
$DIMTFAC
 40
1.0
  9
$DIMGAP
 40
0.09
  9
$DIMJUST
 70
     0
  9
$DIMSD1
 70
     0
  9
$DIMSD2
 70
     0
  9
$DIMTOLJ
 70
     1
  9
$DIMTZIN
 70
     0
  9
$DIMALTZ
 70
     0
  9
$DIMALTTZ
 70
     0
  9
$DIMUPT
 70
     0
  9
$DIMDEC
 70
     5
  9
$DIMTDEC
 70
     5
  9
$DIMALTU
 70
     5
  9
$DIMALTTD
 70
     2
  9
$DIMTXSTY
  7
STANDARD
  9
$DIMAUNIT
 70
     0
  9
$DIMADEC
 70
     0
  9
$DIMALTRND
 40
0.0
  9
$DIMAZIN
 70
     0
  9
$DIMDSEP
 70
    46
  9
$DIMATFIT
 70
     3
  9
$DIMFRAC
 70
     0
  9
$DIMLDRBLK
  1

  9
$DIMLUNIT
 70
     5
  9
$DIMLWD
 70
    -2
  9
$DIMLWE
 70
    -2
  9
$DIMTMOVE
 70
     2
  9
$LUNITS
 70
     5
  9
$LUPREC
 70
     5
  9
$SKETCHINC
 40
0.1
  9
$FILLETRAD
 40
0.0
  9
$AUNITS
 70
     0
  9
$AUPREC
 70
     0
  9
$MENU
  1
qa
  9
$ELEVATION
 40
0.0
  9
$PELEVATION
 40
0.0
  9
$THICKNESS
 40
0.0
  9
$LIMCHECK
 70
     0
  9
$CHAMFERA
 40
0.40625
  9
$CHAMFERB
 40
0.40625
  9
$CHAMFERC
 40
0.0
  9
$CHAMFERD
 40
0.0
  9
$SKPOLY
 70
     0
  9
$TDCREATE
 40
2450044.828521759
  9
$TDUCREATE
 40
2450045.161855093
  9
$TDUPDATE
 40
2454181.80157272
  9
$TDUUPDATE
 40
2454182.134906053
  9
$TDINDWG
 40
0.9899496644
  9
$TDUSRTIMER
 40
0.9899496644
  9
$USRTIMER
 70
     1
  9
$ANGBASE
 50
0.0
  9
$ANGDIR
 70
     0
  9
$PDMODE
 70
     0
  9
$PDSIZE
 40
0.0
  9
$PLINEWID
 40
0.0
  9
$SPLFRAME
 70
     0
  9
$SPLINETYPE
 70
     6
  9
$SPLINESEGS
 70
     8
  9
$HANDSEED
  5
413
  9
$SURFTAB1
 70
     6
  9
$SURFTAB2
 70
     6
  9
$SURFTYPE
 70
     6
  9
$SURFU
 70
     6
  9
$SURFV
 70
     6
  9
$UCSBASE
  2

  9
$UCSNAME
  2

  9
$UCSORG
 10
0.0
 20
0.0
 30
0.0
  9
$UCSXDIR
 10
1.0
 20
0.0
 30
0.0
  9
$UCSYDIR
 10
0.0
 20
1.0
 30
0.0
  9
$UCSORTHOREF
  2

  9
$UCSORTHOVIEW
 70
     0
  9
$UCSORGTOP
 10
0.0
 20
0.0
 30
0.0
  9
$UCSORGBOTTOM
 10
0.0
 20
0.0
 30
0.0
  9
$UCSORGLEFT
 10
0.0
 20
0.0
 30
0.0
  9
$UCSORGRIGHT
 10
0.0
 20
0.0
 30
0.0
  9
$UCSORGFRONT
 10
0.0
 20
0.0
 30
0.0
  9
$UCSORGBACK
 10
0.0
 20
0.0
 30
0.0
  9
$PUCSBASE
  2

  9
$PUCSNAME
  2

  9
$PUCSORG
 10
0.0
 20
0.0
 30
0.0
  9
$PUCSXDIR
 10
1.0
 20
0.0
 30
0.0
  9
$PUCSYDIR
 10
0.0
 20
1.0
 30
0.0
  9
$PUCSORTHOREF
  2

  9
$PUCSORTHOVIEW
 70
     0
  9
$PUCSORGTOP
 10
0.0
 20
0.0
 30
0.0
  9
$PUCSORGBOTTOM
 10
0.0
 20
0.0
 30
0.0
  9
$PUCSORGLEFT
 10
0.0
 20
0.0
 30
0.0
  9
$PUCSORGRIGHT
 10
0.0
 20
0.0
 30
0.0
  9
$PUCSORGFRONT
 10
0.0
 20
0.0
 30
0.0
  9
$PUCSORGBACK
 10
0.0
 20
0.0
 30
0.0
  9
$USERI1
 70
     0
  9
$USERI2
 70
     0
  9
$USERI3
 70
     0
  9
$USERI4
 70
     0
  9
$USERI5
 70
     0
  9
$USERR1
 40
0.0
  9
$USERR2
 40
0.0
  9
$USERR3
 40
0.0
  9
$USERR4
 40
0.0
  9
$USERR5
 40
0.0
  9
$WORLDVIEW
 70
     1
  9
$SHADEDGE
 70
     3
  9
$SHADEDIF
 70
    70
  9
$TILEMODE
 70
     1
  9
$MAXACTVP
 70
    16
  9
$PINSBASE
 10
0.0
 20
0.0
 30
0.0
  9
$PLIMCHECK
 70
     0
  9
$PEXTMIN
 10
1.000000000000000E+20
 20
1.000000000000000E+20
 30
1.000000000000000E+20
  9
$PEXTMAX
 10
-1.000000000000000E+20
 20
-1.000000000000000E+20
 30
-1.000000000000000E+20
  9
$PLIMMIN
 10
0.0
 20
0.0
  9
$PLIMMAX
 10
12.0
 20
9.0
  9
$UNITMODE
 70
     0
  9
$VISRETAIN
 70
     0
  9
$PLINEGEN
 70
     0
  9
$PSLTSCALE
 70
     0
  9
$TREEDEPTH
 70
  3020
  9
$CMLSTYLE
  2
Standard
  9
$CMLJUST
 70
     0
  9
$CMLSCALE
 40
1.0
  9
$PROXYGRAPHICS
 70
     1
  9
$MEASUREMENT
 70
     0
  9
$CELWEIGHT
370
    -1
  9
$ENDCAPS
280
     0
  9
$JOINSTYLE
280
     0
  9
$LWDISPLAY
290
     0
  9
$INSUNITS
 70
     0
  9
$HYPERLINKBASE
  1

  9
$STYLESHEET
  1

  9
$XEDIT
290
     1
  9
$CEPSNTYPE
380
     0
  9
$PSTYLEMODE
290
     1
  9
$FINGERPRINTGUID
  2
{2CBD5A5C-AA0C-494B-BC5E-88B14A288465}
  9
$VERSIONGUID
  2
{5FA4495F-6D6B-40D4-89E2-9DA6A1ED2864}
  9
$EXTNAMES
290
     1
  9
$PSVPSCALE
 40
0.0
  9
$OLESTARTUP
290
     0
  0
ENDSEC
  0
SECTION
  2
CLASSES
  0
CLASS
  1
ACDBDICTIONARYWDFLT
  2
AcDbDictionaryWithDefault
  3
AutoCAD 2000
 90
        0
280
     0
281
     0
  0
CLASS
  1
ACDBPLACEHOLDER
  2
AcDbPlaceHolder
  3
ObjectDBX Classes
 90
        0
280
     0
281
     0
  0
CLASS
  1
LAYOUT
  2
AcDbLayout
  3
ObjectDBX Classes
 90
        0
280
     0
281
     0
  0
CLASS
  1
DICTIONARYVAR
  2
AcDbDictionaryVar
  3
AutoCAD 2000
 90
        0
280
     0
281
     0
  0
CLASS
  1
TABLESTYLE
  2
AcDbTableStyle
  3
ObjectDBX Classes
 90
     2047
280
     1
281
     0
  0
CLASS
  1
SORTENTSTABLE
  2
AcDbSortentsTable
  3
AutoCAD 2000
 90
        0
280
     0
281
     0
  0
ENDSEC
  0
SECTION
  2
TABLES
  0
TABLE
  2
VPORT
  5
19
330
0
100
AcDbSymbolTable
 70
     2
  0
VPORT
  5
406
330
19
100
AcDbSymbolTableRecord
100
AcDbViewportTableRecord
  2
*Active
 70
     0
 10
0.0
 20
0.0
 11
1.0
 21
1.0
 12
14.64779872630414
 22
13.33279313407064
 13
0.0
 23
0.0
 14
0.063
 24
0.063
 15
0.25
 25
0.25
 16
0.0
 26
0.0
 36
1.0
 17
0.0
 27
0.0
 37
0.0
 40
31.84929240139899
 41
1.814583333333333
 42
50.0
 43
0.0
 44
0.0
 50
0.0
 51
0.0
 71
     0
 72
   100
 73
     1
 74
     0
 75
     0
 76
     0
 77
     0
 78
     0
281
     0
 65
     1
110
0.0
120
0.0
130
0.0
111
1.0
121
0.0
131
0.0
112
0.0
122
1.0
132
0.0
 79
     0
146
0.0
  0
ENDTAB
  0
TABLE
  2
LTYPE
  5
14
330
0
100
AcDbSymbolTable
 70
     1
  0
LTYPE
  5
15
330
14
100
AcDbSymbolTableRecord
100
AcDbLinetypeTableRecord
  2
ByBlock
 70
     0
  3

 72
    65
 73
     0
 40
0.0
  0
LTYPE
  5
16
330
14
100
AcDbSymbolTableRecord
100
AcDbLinetypeTableRecord
  2
ByLayer
 70
     0
  3

 72
    65
 73
     0
 40
0.0
  0
LTYPE
  5
8
330
14
100
AcDbSymbolTableRecord
100
AcDbLinetypeTableRecord
  2
CONTINUOUS
 70
     0
  3
Solid line
 72
    65
 73
     0
 40
0.0
  0
ENDTAB
  0
TABLE
  2
LAYER
  5
10
330
0
100
AcDbSymbolTable
 70
     2
  0
LAYER
  5
4
330
10
100
AcDbSymbolTableRecord
100
AcDbLayerTableRecord
  2
0
 70
     0
 62
     7
  6
CONTINUOUS
370
    -3
390
5
  0
ENDTAB
  0
TABLE
  2
STYLE
  5
11
330
0
100
AcDbSymbolTable
 70
     1
  0
STYLE
  5
12
330
11
100
AcDbSymbolTableRecord
100
AcDbTextStyleTableRecord
  2
STANDARD
 70
     0
 40
0.0
 41
1.0
 50
0.0
 71
     0
 42
0.299997
  3
TXT
  4

  0
ENDTAB
  0
TABLE
  2
VIEW
  5
17
330
0
100
AcDbSymbolTable
 70
     0
  0
ENDTAB
  0
TABLE
  2
UCS
  5
18
330
0
100
AcDbSymbolTable
 70
     0
  0
ENDTAB
  0
TABLE
  2
APPID
  5
1B
330
0
100
AcDbSymbolTable
 70
     1
  0
APPID
  5
1C
330
1B
100
AcDbSymbolTableRecord
100
AcDbRegAppTableRecord
  2
ACAD
 70
     0
  0
ENDTAB
  0
TABLE
  2
DIMSTYLE
  5
1D
330
0
100
AcDbSymbolTable
 70
     1
100
AcDbDimStyleTable
  0
DIMSTYLE
105
24
330
1D
100
AcDbSymbolTableRecord
100
AcDbDimStyleTableRecord
  2
Standard
 70
     0
  3

  4

340
12
  0
ENDTAB
  0
TABLE
  2
BLOCK_RECORD
  5
1
330
0
100
AcDbSymbolTable
 70
     0
  0
BLOCK_RECORD
  5
2
102
{ACAD_XDICTIONARY
360
3F8
102
}
330
1
100
AcDbSymbolTableRecord
100
AcDbBlockTableRecord
  2
*Model_Space
340
A
  0
BLOCK_RECORD
  5
C
330
1
100
AcDbSymbolTableRecord
100
AcDbBlockTableRecord
  2
*Paper_Space
340
F
  0
ENDTAB
  0
ENDSEC
  0
SECTION
  2
BLOCKS
  0
BLOCK
  5
3
330
2
100
AcDbEntity
  8
0
100
AcDbBlockBegin
  2
*Model_Space
 70
     0
 10
0.0
 20
0.0
 30
0.0
  3
*Model_Space
  1

  4

  0
ENDBLK
  5
9
330
2
100
AcDbEntity
  8
0
100
AcDbBlockEnd
  0
BLOCK
  5
D
330
C
100
AcDbEntity
 67
     1
  8
0
100
AcDbBlockBegin
  2
*Paper_Space
 70
     0
 10
0.0
 20
0.0
 30
0.0
  3
*Paper_Space
  1

  4

  0
ENDBLK
  5
E
330
C
100
AcDbEntity
 67
     1
  8
0
100
AcDbBlockEnd
  0
ENDSEC
  0
SECTION
  2
ENTITIES
  0
LINE
  5
2B9
330
2
100
AcDbEntity
  8
0
100
AcDbLine
 10
-13.71875000000001
 20
2.999999999999982
 30
0.0
 11
13.71875000000001
 21
2.999999999999989
 31
0.0
  0
LINE
  5
2BA
330
2
100
AcDbEntity
  8
0
100
AcDbLine
 10
-13.71875000000001
 20
0.0
 30
0.0
 11
13.71875000000001
 21
-0.0000000000000018
 31
0.0
  0
LINE
  5
2BC
330
2
100
AcDbEntity
  8
0
100
AcDbLine
 10
-13.71875000000001
 20
0.0
 30
0.0
 11
-14.12500000000001
 21
0.40625
 31
0.0
  0
ARC
  5
2BF
330
2
100
AcDbEntity
  8
0
100
AcDbCircle
 10
-9.000000000000009
 20
2.477000000000007
 30
0.0
 40
0.11675
100
AcDbArc
 50
0.0
 51
180.0
  0
ARC
  5
2C0
330
2
100
AcDbEntity
  8
0
100
AcDbCircle
 10
-9.000000000000009
 20
2.477000000000007
 30
0.0
 40
0.0855
100
AcDbArc
 50
0.0
 51
180.0
  0
ARC
  5
2C1
330
2
100
AcDbEntity
  8
0
100
AcDbCircle
 10
-9.000000000000009
 20
0.8979999999999997
 30
0.0
 40
0.11675
100
AcDbArc
 50
180.0
 51
0.0
  0
ARC
  5
2C2
330
2
100
AcDbEntity
  8
0
100
AcDbCircle
 10
-9.000000000000009
 20
0.9770000000000074
 30
0.0
 40
0.11675
100
AcDbArc
 50
0.0
 51
180.0
  0
ARC
  5
2C3
330
2
100
AcDbEntity
  8
0
100
AcDbCircle
 10
-9.000000000000009
 20
0.8979999999999997
 30
0.0
 40
0.0855
100
AcDbArc
 50
180.0
 51
0.0
  0
ARC
  5
2C4
330
2
100
AcDbEntity
  8
0
100
AcDbCircle
 10
-9.000000000000009
 20
0.9770000000000074
 30
0.0
 40
0.0855
100
AcDbArc
 50
0.0
 51
180.0
  0
ARC
  5
2C5
330
2
100
AcDbEntity
  8
0
100
AcDbCircle
 10
-9.000000000000009
 20
2.398
 30
0.0
 40
0.11675
100
AcDbArc
 50
180.0
 51
0.0
  0
ARC
  5
2C6
330
2
100
AcDbEntity
  8
0
100
AcDbCircle
 10
-9.000000000000009
 20
2.398
 30
0.0
 40
0.0855
100
AcDbArc
 50
180.0
 51
0.0
  0
ARC
  5
2C7
330
2
100
AcDbEntity
  8
0
100
AcDbCircle
 10
-12.00000000000001
 20
2.398
 30
0.0
 40
0.0855
100
AcDbArc
 50
180.0
 51
0.0
  0
ARC
  5
2C8
330
2
100
AcDbEntity
  8
0
100
AcDbCircle
 10
-12.00000000000001
 20
2.398
 30
0.0
 40
0.11675
100
AcDbArc
 50
180.0
 51
0.0
  0
LINE
  5
2C9
330
2
100
AcDbEntity
  8
0
100
AcDbLine
 10
-14.12500000000001
 20
2.593749999999982
 30
0.0
 11
-14.12500000000001
 21
0.40625
 31
0.0
  0
LINE
  5
2CA
330
2
100
AcDbEntity
  8
0
100
AcDbLine
 10
-13.41450000000001
 20
0.5230000000000068
 30
0.0
 11
-13.41450000000001
 21
0.6020000000000074
 31
0.0
  0
LINE
  5
2CB
330
2
100
AcDbEntity
  8
0
100
AcDbLine
 10
-13.38325000000001
 20
0.5230000000000068
 30
0.0
 11
-13.38325000000001
 21
0.6020000000000074
 31
0.0
  0
LINE
  5
2CC
330
2
100
AcDbEntity
  8
0
100
AcDbLine
 10
-13.58550000000002
 20
0.5230000000000068
 30
0.0
 11
-13.58550000000002
 21
0.6020000000000074
 31
0.0
  0
LINE
  5
2CD
330
2
100
AcDbEntity
  8
0
100
AcDbLine
 10
-13.61675000000002
 20
0.5230000000000068
 30
0.0
 11
-13.61675000000002
 21
0.6020000000000074
 31
0.0
  0
ARC
  5
2CE
330
2
100
AcDbEntity
  8
0
100
AcDbCircle
 10
-13.50000000000001
 20
0.6020000000000074
 30
0.0
 40
0.0855
100
AcDbArc
 50
0.0
 51
180.0
  0
ARC
  5
2CF
330
2
100
AcDbEntity
  8
0
100
AcDbCircle
 10
-13.50000000000001
 20
0.5230000000000068
 30
0.0
 40
0.0855
100
AcDbArc
 50
180.0
 51
0.0
  0
ARC
  5
2D0
330
2
100
AcDbEntity
  8
0
100
AcDbCircle
 10
-13.50000000000001
 20
0.6020000000000074
 30
0.0
 40
0.11675
100
AcDbArc
 50
0.0
 51
180.0
  0
ARC
  5
2D1
330
2
100
AcDbEntity
  8
0
100
AcDbCircle
 10
-13.50000000000001
 20
0.5230000000000068
 30
0.0
 40
0.11675
100
AcDbArc
 50
180.0
 51
0.0
  0
LINE
  5
2D2
330
2
100
AcDbEntity
  8
0
100
AcDbLine
 10
-13.41450000000001
 20
2.023
 30
0.0
 11
-13.41450000000001
 21
2.102000000000007
 31
0.0
  0
LINE
  5
2D3
330
2
100
AcDbEntity
  8
0
100
AcDbLine
 10
-13.38325000000001
 20
2.023
 30
0.0
 11
-13.38325000000001
 21
2.102000000000007
 31
0.0
  0
LINE
  5
2D4
330
2
100
AcDbEntity
  8
0
100
AcDbLine
 10
-13.58550000000002
 20
2.102000000000007
 30
0.0
 11
-13.58550000000002
 21
2.023
 31
0.0
  0
LINE
  5
2D5
330
2
100
AcDbEntity
  8
0
100
AcDbLine
 10
-13.61675000000002
 20
2.102000000000007
 30
0.0
 11
-13.61675000000002
 21
2.023
 31
0.0
  0
ARC
  5
2D6
330
2
100
AcDbEntity
  8
0
100
AcDbCircle
 10
-13.50000000000001
 20
2.102000000000007
 30
0.0
 40
0.0855
100
AcDbArc
 50
0.0
 51
180.0
  0
ARC
  5
2D7
330
2
100
AcDbEntity
  8
0
100
AcDbCircle
 10
-13.50000000000001
 20
2.023
 30
0.0
 40
0.0855
100
AcDbArc
 50
180.0
 51
0.0
  0
ARC
  5
2D8
330
2
100
AcDbEntity
  8
0
100
AcDbCircle
 10
-13.50000000000001
 20
2.102000000000007
 30
0.0
 40
0.11675
100
AcDbArc
 50
0.0
 51
180.0
  0
ARC
  5
2D9
330
2
100
AcDbEntity
  8
0
100
AcDbCircle
 10
-13.50000000000001
 20
2.023
 30
0.0
 40
0.11675
100
AcDbArc
 50
180.0
 51
0.0
  0
CIRCLE
  5
2DA
330
2
100
AcDbEntity
  8
0
100
AcDbCircle
 10
-12.75000000000005
 20
1.500000000000345
 30
0.0
 40
0.28125
  0
ARC
  5
2DB
330
2
100
AcDbEntity
  8
0
100
AcDbCircle
 10
-12.00000000000001
 20
0.9770000000000074
 30
0.0
 40
0.0855
100
AcDbArc
 50
0.0
 51
180.0
  0
ARC
  5
2DC
330
2
100
AcDbEntity
  8
0
100
AcDbCircle
 10
-12.00000000000001
 20
0.8979999999999997
 30
0.0
 40
0.0855
100
AcDbArc
 50
180.0
 51
0.0
  0
ARC
  5
2DD
330
2
100
AcDbEntity
  8
0
100
AcDbCircle
 10
-12.00000000000001
 20
0.9770000000000074
 30
0.0
 40
0.11675
100
AcDbArc
 50
0.0
 51
180.0
  0
ARC
  5
2DE
330
2
100
AcDbEntity
  8
0
100
AcDbCircle
 10
-12.00000000000001
 20
0.8979999999999997
 30
0.0
 40
0.11675
100
AcDbArc
 50
180.0
 51
0.0
  0
LINE
  5
2DF
330
2
100
AcDbEntity
  8
0
100
AcDbLine
 10
-12.08550000000002
 20
0.9770000000000074
 30
0.0
 11
-12.08550000000002
 21
0.8979999999999997
 31
0.0
  0
LINE
  5
2E0
330
2
100
AcDbEntity
  8
0
100
AcDbLine
 10
-12.11675000000002
 20
0.9770000000000074
 30
0.0
 11
-12.11675000000002
 21
0.8979999999999997
 31
0.0
  0
LINE
  5
2E1
330
2
100
AcDbEntity
  8
0
100
AcDbLine
 10
-11.91450000000001
 20
0.8979999999999997
 30
0.0
 11
-11.91450000000001
 21
0.9770000000000074
 31
0.0
  0
LINE
  5
2E2
330
2
100
AcDbEntity
  8
0
100
AcDbLine
 10
-11.88325000000001
 20
0.8979999999999997
 30
0.0
 11
-11.88325000000001
 21
0.9770000000000074
 31
0.0
  0
LINE
  5
2E3
330
2
100
AcDbEntity
  8
0
100
AcDbLine
 10
-14.12500000000001
 20
2.593749999999982
 30
0.0
 11
-13.71875000000001
 21
2.999999999999982
 31
0.0
  0
ARC
  5
2E4
330
2
100
AcDbEntity
  8
0
100
AcDbCircle
 10
-12.00000000000001
 20
2.477000000000007
 30
0.0
 40
0.0855
100
AcDbArc
 50
0.0
 51
180.0
  0
ARC
  5
2E5
330
2
100
AcDbEntity
  8
0
100
AcDbCircle
 10
-12.00000000000001
 20
2.477000000000007
 30
0.0
 40
0.11675
100
AcDbArc
 50
0.0
 51
180.0
  0
LINE
  5
2E6
330
2
100
AcDbEntity
  8
0
100
AcDbLine
 10
-12.08550000000002
 20
2.398
 30
0.0
 11
-12.08550000000002
 21
2.477000000000007
 31
0.0
  0
LINE
  5
2E7
330
2
100
AcDbEntity
  8
0
100
AcDbLine
 10
-12.11675000000002
 20
2.398
 30
0.0
 11
-12.11675000000002
 21
2.477000000000007
 31
0.0
  0
LINE
  5
2E8
330
2
100
AcDbEntity
  8
0
100
AcDbLine
 10
-11.91450000000001
 20
2.477000000000007
 30
0.0
 11
-11.91450000000001
 21
2.398
 31
0.0
  0
LINE
  5
2E9
330
2
100
AcDbEntity
  8
0
100
AcDbLine
 10
-11.88325000000001
 20
2.477000000000007
 30
0.0
 11
-11.88325000000001
 21
2.398
 31
0.0
  0
ARC
  5
2EA
330
2
100
AcDbEntity
  8
0
100
AcDbCircle
 10
-10.50000000000001
 20
0.6020000000000074
 30
0.0
 40
0.0855
100
AcDbArc
 50
0.0
 51
180.0
  0
ARC
  5
2EB
330
2
100
AcDbEntity
  8
0
100
AcDbCircle
 10
-10.50000000000001
 20
0.5230000000000068
 30
0.0
 40
0.0855
100
AcDbArc
 50
180.0
 51
0.0
  0
LINE
  5
2EC
330
2
100
AcDbEntity
  8
0
100
AcDbLine
 10
-10.58550000000002
 20
0.5230000000000068
 30
0.0
 11
-10.58550000000002
 21
0.6020000000000074
 31
0.0
  0
LINE
  5
2ED
330
2
100
AcDbEntity
  8
0
100
AcDbLine
 10
-10.41450000000001
 20
0.5230000000000068
 30
0.0
 11
-10.41450000000001
 21
0.6020000000000074
 31
0.0
  0
ARC
  5
2EE
330
2
100
AcDbEntity
  8
0
100
AcDbCircle
 10
-10.50000000000001
 20
0.6020000000000074
 30
0.0
 40
0.11675
100
AcDbArc
 50
0.0
 51
180.0
  0
LINE
  5
2EF
330
2
100
AcDbEntity
  8
0
100
AcDbLine
 10
-10.61675000000002
 20
0.5230000000000068
 30
0.0
 11
-10.61675000000002
 21
0.6020000000000074
 31
0.0
  0
ARC
  5
2F0
330
2
100
AcDbEntity
  8
0
100
AcDbCircle
 10
-10.50000000000001
 20
0.5230000000000068
 30
0.0
 40
0.11675
100
AcDbArc
 50
180.0
 51
0.0
  0
LINE
  5
2F1
330
2
100
AcDbEntity
  8
0
100
AcDbLine
 10
-10.38325000000001
 20
0.5230000000000068
 30
0.0
 11
-10.38325000000001
 21
0.6020000000000074
 31
0.0
  0
ARC
  5
2F2
330
2
100
AcDbEntity
  8
0
100
AcDbCircle
 10
-10.50000000000001
 20
2.102000000000007
 30
0.0
 40
0.0855
100
AcDbArc
 50
0.0
 51
180.0
  0
ARC
  5
2F3
330
2
100
AcDbEntity
  8
0
100
AcDbCircle
 10
-10.50000000000001
 20
2.023
 30
0.0
 40
0.0855
100
AcDbArc
 50
180.0
 51
0.0
  0
LINE
  5
2F4
330
2
100
AcDbEntity
  8
0
100
AcDbLine
 10
-10.58550000000002
 20
2.102000000000007
 30
0.0
 11
-10.58550000000002
 21
2.023
 31
0.0
  0
LINE
  5
2F5
330
2
100
AcDbEntity
  8
0
100
AcDbLine
 10
-10.41450000000001
 20
2.023
 30
0.0
 11
-10.41450000000001
 21
2.102000000000007
 31
0.0
  0
ARC
  5
2F6
330
2
100
AcDbEntity
  8
0
100
AcDbCircle
 10
-10.50000000000001
 20
2.102000000000007
 30
0.0
 40
0.11675
100
AcDbArc
 50
0.0
 51
180.0
  0
LINE
  5
2F7
330
2
100
AcDbEntity
  8
0
100
AcDbLine
 10
-10.61675000000002
 20
2.102000000000007
 30
0.0
 11
-10.61675000000002
 21
2.023
 31
0.0
  0
ARC
  5
2F8
330
2
100
AcDbEntity
  8
0
100
AcDbCircle
 10
-10.50000000000001
 20
2.023
 30
0.0
 40
0.11675
100
AcDbArc
 50
180.0
 51
0.0
  0
LINE
  5
2F9
330
2
100
AcDbEntity
  8
0
100
AcDbLine
 10
-10.38325000000001
 20
2.023
 30
0.0
 11
-10.38325000000001
 21
2.102000000000007
 31
0.0
  0
LINE
  5
2FA
330
2
100
AcDbEntity
  8
0
100
AcDbLine
 10
-9.116750000000019
 20
0.9770000000000074
 30
0.0
 11
-9.116750000000019
 21
0.8979999999999997
 31
0.0
  0
LINE
  5
2FB
330
2
100
AcDbEntity
  8
0
100
AcDbLine
 10
-9.085500000000019
 20
0.9770000000000074
 30
0.0
 11
-9.085500000000019
 21
0.8979999999999997
 31
0.0
  0
LINE
  5
2FC
330
2
100
AcDbEntity
  8
0
100
AcDbLine
 10
-9.116750000000019
 20
2.398
 30
0.0
 11
-9.116750000000019
 21
2.477000000000007
 31
0.0
  0
LINE
  5
2FD
330
2
100
AcDbEntity
  8
0
100
AcDbLine
 10
-9.085500000000019
 20
2.398
 30
0.0
 11
-9.085500000000019
 21
2.477000000000007
 31
0.0
  0
ARC
  5
2FE
330
2
100
AcDbEntity
  8
0
100
AcDbCircle
 10
-7.500000000000009
 20
2.023
 30
0.0
 40
0.0855
100
AcDbArc
 50
180.0
 51
0.0
  0
ARC
  5
2FF
330
2
100
AcDbEntity
  8
0
100
AcDbCircle
 10
-7.500000000000009
 20
2.102000000000007
 30
0.0
 40
0.0855
100
AcDbArc
 50
0.0
 51
180.0
  0
ARC
  5
300
330
2
100
AcDbEntity
  8
0
100
AcDbCircle
 10
-7.500000000000009
 20
2.023
 30
0.0
 40
0.11675
100
AcDbArc
 50
180.0
 51
0.0
  0
ARC
  5
301
330
2
100
AcDbEntity
  8
0
100
AcDbCircle
 10
-7.500000000000009
 20
2.102000000000007
 30
0.0
 40
0.11675
100
AcDbArc
 50
0.0
 51
180.0
  0
ARC
  5
302
330
2
100
AcDbEntity
  8
0
100
AcDbCircle
 10
-7.500000000000009
 20
0.5230000000000068
 30
0.0
 40
0.0855
100
AcDbArc
 50
180.0
 51
0.0
  0
ARC
  5
303
330
2
100
AcDbEntity
  8
0
100
AcDbCircle
 10
-7.500000000000009
 20
0.6020000000000074
 30
0.0
 40
0.0855
100
AcDbArc
 50
0.0
 51
180.0
  0
ARC
  5
304
330
2
100
AcDbEntity
  8
0
100
AcDbCircle
 10
-7.500000000000009
 20
0.5230000000000068
 30
0.0
 40
0.11675
100
AcDbArc
 50
180.0
 51
0.0
  0
ARC
  5
305
330
2
100
AcDbEntity
  8
0
100
AcDbCircle
 10
-7.500000000000009
 20
0.6020000000000074
 30
0.0
 40
0.11675
100
AcDbArc
 50
0.0
 51
180.0
  0
LINE
  5
306
330
2
100
AcDbEntity
  8
0
100
AcDbLine
 10
-8.883250000000013
 20
0.8979999999999997
 30
0.0
 11
-8.883250000000013
 21
0.9770000000000074
 31
0.0
  0
LINE
  5
307
330
2
100
AcDbEntity
  8
0
100
AcDbLine
 10
-8.914500000000013
 20
0.8979999999999997
 30
0.0
 11
-8.914500000000013
 21
0.9770000000000074
 31
0.0
  0
LINE
  5
308
330
2
100
AcDbEntity
  8
0
100
AcDbLine
 10
-7.616750000000019
 20
0.5230000000000068
 30
0.0
 11
-7.616750000000019
 21
0.6020000000000074
 31
0.0
  0
LINE
  5
309
330
2
100
AcDbEntity
  8
0
100
AcDbLine
 10
-7.585500000000019
 20
0.5230000000000068
 30
0.0
 11
-7.585500000000019
 21
0.6020000000000074
 31
0.0
  0
LINE
  5
30A
330
2
100
AcDbEntity
  8
0
100
AcDbLine
 10
-7.616750000000019
 20
2.102000000000007
 30
0.0
 11
-7.616750000000019
 21
2.023
 31
0.0
  0
LINE
  5
30B
330
2
100
AcDbEntity
  8
0
100
AcDbLine
 10
-7.585500000000019
 20
2.102000000000007
 30
0.0
 11
-7.585500000000019
 21
2.023
 31
0.0
  0
LINE
  5
30C
330
2
100
AcDbEntity
  8
0
100
AcDbLine
 10
-7.383250000000013
 20
0.5230000000000068
 30
0.0
 11
-7.383250000000013
 21
0.6020000000000074
 31
0.0
  0
LINE
  5
30D
330
2
100
AcDbEntity
  8
0
100
AcDbLine
 10
-7.414500000000013
 20
0.5230000000000068
 30
0.0
 11
-7.414500000000013
 21
0.6020000000000074
 31
0.0
  0
LINE
  5
30E
330
2
100
AcDbEntity
  8
0
100
AcDbLine
 10
-7.383250000000013
 20
2.023
 30
0.0
 11
-7.383250000000013
 21
2.102000000000007
 31
0.0
  0
LINE
  5
30F
330
2
100
AcDbEntity
  8
0
100
AcDbLine
 10
-7.414500000000013
 20
2.023
 30
0.0
 11
-7.414500000000013
 21
2.102000000000007
 31
0.0
  0
LINE
  5
310
330
2
100
AcDbEntity
  8
0
100
AcDbLine
 10
-8.883250000000013
 20
2.477000000000007
 30
0.0
 11
-8.883250000000013
 21
2.398
 31
0.0
  0
LINE
  5
311
330
2
100
AcDbEntity
  8
0
100
AcDbLine
 10
-8.914500000000013
 20
2.477000000000007
 30
0.0
 11
-8.914500000000013
 21
2.398
 31
0.0
  0
ARC
  5
312
330
2
100
AcDbEntity
  8
0
100
AcDbCircle
 10
-6.000000000000009
 20
2.398
 30
0.0
 40
0.0855
100
AcDbArc
 50
180.0
 51
0.0
  0
ARC
  5
313
330
2
100
AcDbEntity
  8
0
100
AcDbCircle
 10
-6.000000000000009
 20
2.398
 30
0.0
 40
0.11675
100
AcDbArc
 50
180.0
 51
0.0
  0
CIRCLE
  5
314
330
2
100
AcDbEntity
  8
0
100
AcDbCircle
 10
-5.250000000000009
 20
1.499999999999943
 30
0.0
 40
0.28125
  0
LINE
  5
315
330
2
100
AcDbEntity
  8
0
100
AcDbLine
 10
-5.914500000000013
 20
0.8979999999999997
 30
0.0
 11
-5.914500000000013
 21
0.9770000000000074
 31
0.0
  0
LINE
  5
316
330
2
100
AcDbEntity
  8
0
100
AcDbLine
 10
-5.883250000000013
 20
0.8979999999999997
 30
0.0
 11
-5.883250000000013
 21
0.9770000000000074
 31
0.0
  0
LINE
  5
317
330
2
100
AcDbEntity
  8
0
100
AcDbLine
 10
-6.085500000000019
 20
0.9770000000000074
 30
0.0
 11
-6.085500000000019
 21
0.8979999999999997
 31
0.0
  0
LINE
  5
318
330
2
100
AcDbEntity
  8
0
100
AcDbLine
 10
-6.116750000000019
 20
0.9770000000000074
 30
0.0
 11
-6.116750000000019
 21
0.8979999999999997
 31
0.0
  0
ARC
  5
319
330
2
100
AcDbEntity
  8
0
100
AcDbCircle
 10
-6.000000000000009
 20
0.9770000000000074
 30
0.0
 40
0.0855
100
AcDbArc
 50
0.0
 51
180.0
  0
ARC
  5
31A
330
2
100
AcDbEntity
  8
0
100
AcDbCircle
 10
-6.000000000000009
 20
0.8979999999999997
 30
0.0
 40
0.0855
100
AcDbArc
 50
180.0
 51
0.0
  0
ARC
  5
31B
330
2
100
AcDbEntity
  8
0
100
AcDbCircle
 10
-6.000000000000009
 20
0.9770000000000074
 30
0.0
 40
0.11675
100
AcDbArc
 50
0.0
 51
180.0
  0
ARC
  5
31C
330
2
100
AcDbEntity
  8
0
100
AcDbCircle
 10
-6.000000000000009
 20
0.8979999999999997
 30
0.0
 40
0.11675
100
AcDbArc
 50
180.0
 51
0.0
  0
ARC
  5
31D
330
2
100
AcDbEntity
  8
0
100
AcDbCircle
 10
-4.500000000000009
 20
0.6020000000000074
 30
0.0
 40
0.0855
100
AcDbArc
 50
0.0
 51
180.0
  0
ARC
  5
31E
330
2
100
AcDbEntity
  8
0
100
AcDbCircle
 10
-4.500000000000009
 20
0.5230000000000068
 30
0.0
 40
0.0855
100
AcDbArc
 50
180.0
 51
0.0
  0
ARC
  5
31F
330
2
100
AcDbEntity
  8
0
100
AcDbCircle
 10
-4.500000000000009
 20
0.6020000000000074
 30
0.0
 40
0.11675
100
AcDbArc
 50
0.0
 51
180.0
  0
ARC
  5
320
330
2
100
AcDbEntity
  8
0
100
AcDbCircle
 10
-4.500000000000009
 20
0.5230000000000068
 30
0.0
 40
0.11675
100
AcDbArc
 50
180.0
 51
0.0
  0
LINE
  5
321
330
2
100
AcDbEntity
  8
0
100
AcDbLine
 10
-4.585500000000019
 20
0.5230000000000068
 30
0.0
 11
-4.585500000000019
 21
0.6020000000000074
 31
0.0
  0
LINE
  5
322
330
2
100
AcDbEntity
  8
0
100
AcDbLine
 10
-4.616750000000019
 20
0.5230000000000068
 30
0.0
 11
-4.616750000000019
 21
0.6020000000000074
 31
0.0
  0
LINE
  5
323
330
2
100
AcDbEntity
  8
0
100
AcDbLine
 10
-4.414500000000013
 20
0.5230000000000068
 30
0.0
 11
-4.414500000000013
 21
0.6020000000000074
 31
0.0
  0
LINE
  5
324
330
2
100
AcDbEntity
  8
0
100
AcDbLine
 10
-4.383250000000013
 20
0.5230000000000068
 30
0.0
 11
-4.383250000000013
 21
0.6020000000000074
 31
0.0
  0
ARC
  5
325
330
2
100
AcDbEntity
  8
0
100
AcDbCircle
 10
-4.500000000000009
 20
2.102000000000007
 30
0.0
 40
0.0855
100
AcDbArc
 50
0.0
 51
180.0
  0
ARC
  5
326
330
2
100
AcDbEntity
  8
0
100
AcDbCircle
 10
-4.500000000000009
 20
2.023
 30
0.0
 40
0.0855
100
AcDbArc
 50
180.0
 51
0.0
  0
ARC
  5
327
330
2
100
AcDbEntity
  8
0
100
AcDbCircle
 10
-4.500000000000009
 20
2.102000000000007
 30
0.0
 40
0.11675
100
AcDbArc
 50
0.0
 51
180.0
  0
ARC
  5
328
330
2
100
AcDbEntity
  8
0
100
AcDbCircle
 10
-4.500000000000009
 20
2.023
 30
0.0
 40
0.11675
100
AcDbArc
 50
180.0
 51
0.0
  0
LINE
  5
329
330
2
100
AcDbEntity
  8
0
100
AcDbLine
 10
-4.585500000000019
 20
2.102000000000007
 30
0.0
 11
-4.585500000000019
 21
2.023
 31
0.0
  0
LINE
  5
32A
330
2
100
AcDbEntity
  8
0
100
AcDbLine
 10
-4.616750000000019
 20
2.102000000000007
 30
0.0
 11
-4.616750000000019
 21
2.023
 31
0.0
  0
LINE
  5
32B
330
2
100
AcDbEntity
  8
0
100
AcDbLine
 10
-4.414500000000013
 20
2.023
 30
0.0
 11
-4.414500000000013
 21
2.102000000000007
 31
0.0
  0
LINE
  5
32C
330
2
100
AcDbEntity
  8
0
100
AcDbLine
 10
-4.383250000000013
 20
2.023
 30
0.0
 11
-4.383250000000013
 21
2.102000000000007
 31
0.0
  0
LINE
  5
32D
330
2
100
AcDbEntity
  8
0
100
AcDbLine
 10
-5.914500000000013
 20
2.477000000000007
 30
0.0
 11
-5.914500000000013
 21
2.398
 31
0.0
  0
LINE
  5
32E
330
2
100
AcDbEntity
  8
0
100
AcDbLine
 10
-5.883250000000013
 20
2.477000000000007
 30
0.0
 11
-5.883250000000013
 21
2.398
 31
0.0
  0
LINE
  5
32F
330
2
100
AcDbEntity
  8
0
100
AcDbLine
 10
-6.085500000000019
 20
2.398
 30
0.0
 11
-6.085500000000019
 21
2.477000000000007
 31
0.0
  0
LINE
  5
330
330
2
100
AcDbEntity
  8
0
100
AcDbLine
 10
-6.116750000000019
 20
2.398
 30
0.0
 11
-6.116750000000019
 21
2.477000000000007
 31
0.0
  0
ARC
  5
331
330
2
100
AcDbEntity
  8
0
100
AcDbCircle
 10
-6.000000000000009
 20
2.477000000000007
 30
0.0
 40
0.0855
100
AcDbArc
 50
0.0
 51
180.0
  0
ARC
  5
332
330
2
100
AcDbEntity
  8
0
100
AcDbCircle
 10
-6.000000000000009
 20
2.477000000000007
 30
0.0
 40
0.11675
100
AcDbArc
 50
0.0
 51
180.0
  0
ARC
  5
333
330
2
100
AcDbEntity
  8
0
100
AcDbCircle
 10
-3.000000000000009
 20
2.398
 30
0.0
 40
0.11675
100
AcDbArc
 50
180.0
 51
0.0
  0
ARC
  5
334
330
2
100
AcDbEntity
  8
0
100
AcDbCircle
 10
-3.000000000000009
 20
2.398
 30
0.0
 40
0.0855
100
AcDbArc
 50
180.0
 51
0.0
  0
LINE
  5
335
330
2
100
AcDbEntity
  8
0
100
AcDbLine
 10
-3.116750000000019
 20
0.9770000000000074
 30
0.0
 11
-3.116750000000019
 21
0.8979999999999997
 31
0.0
  0
ARC
  5
336
330
2
100
AcDbEntity
  8
0
100
AcDbCircle
 10
-3.000000000000009
 20
0.8979999999999997
 30
0.0
 40
0.11675
100
AcDbArc
 50
180.0
 51
0.0
  0
LINE
  5
337
330
2
100
AcDbEntity
  8
0
100
AcDbLine
 10
-2.883250000000013
 20
0.8979999999999997
 30
0.0
 11
-2.883250000000013
 21
0.9770000000000074
 31
0.0
  0
ARC
  5
338
330
2
100
AcDbEntity
  8
0
100
AcDbCircle
 10
-3.000000000000009
 20
0.9770000000000074
 30
0.0
 40
0.11675
100
AcDbArc
 50
0.0
 51
180.0
  0
ARC
  5
339
330
2
100
AcDbEntity
  8
0
100
AcDbCircle
 10
-3.000000000000009
 20
0.8979999999999997
 30
0.0
 40
0.0855
100
AcDbArc
 50
180.0
 51
0.0
  0
ARC
  5
33A
330
2
100
AcDbEntity
  8
0
100
AcDbCircle
 10
-3.000000000000009
 20
0.9770000000000074
 30
0.0
 40
0.0855
100
AcDbArc
 50
0.0
 51
180.0
  0
LINE
  5
33B
330
2
100
AcDbEntity
  8
0
100
AcDbLine
 10
-3.085500000000019
 20
0.9770000000000074
 30
0.0
 11
-3.085500000000019
 21
0.8979999999999997
 31
0.0
  0
LINE
  5
33C
330
2
100
AcDbEntity
  8
0
100
AcDbLine
 10
-2.914500000000013
 20
0.8979999999999997
 30
0.0
 11
-2.914500000000013
 21
0.9770000000000074
 31
0.0
  0
ARC
  5
33D
330
2
100
AcDbEntity
  8
0
100
AcDbCircle
 10
-1.500000000000009
 20
0.5230000000000068
 30
0.0
 40
0.11675
100
AcDbArc
 50
180.0
 51
0.0
  0
ARC
  5
33E
330
2
100
AcDbEntity
  8
0
100
AcDbCircle
 10
-1.500000000000009
 20
0.6020000000000074
 30
0.0
 40
0.11675
100
AcDbArc
 50
0.0
 51
180.0
  0
ARC
  5
33F
330
2
100
AcDbEntity
  8
0
100
AcDbCircle
 10
-1.500000000000009
 20
0.5230000000000068
 30
0.0
 40
0.0855
100
AcDbArc
 50
180.0
 51
0.0
  0
ARC
  5
340
330
2
100
AcDbEntity
  8
0
100
AcDbCircle
 10
-1.500000000000009
 20
0.6020000000000074
 30
0.0
 40
0.0855
100
AcDbArc
 50
0.0
 51
180.0
  0
LINE
  5
341
330
2
100
AcDbEntity
  8
0
100
AcDbLine
 10
-1.616750000000019
 20
0.5230000000000068
 30
0.0
 11
-1.616750000000019
 21
0.6020000000000074
 31
0.0
  0
LINE
  5
342
330
2
100
AcDbEntity
  8
0
100
AcDbLine
 10
-1.585500000000019
 20
0.5230000000000068
 30
0.0
 11
-1.585500000000019
 21
0.6020000000000074
 31
0.0
  0
LINE
  5
343
330
2
100
AcDbEntity
  8
0
100
AcDbLine
 10
-1.383250000000013
 20
0.5230000000000068
 30
0.0
 11
-1.383250000000013
 21
0.6020000000000074
 31
0.0
  0
LINE
  5
344
330
2
100
AcDbEntity
  8
0
100
AcDbLine
 10
-1.414500000000013
 20
0.5230000000000068
 30
0.0
 11
-1.414500000000013
 21
0.6020000000000074
 31
0.0
  0
ARC
  5
345
330
2
100
AcDbEntity
  8
0
100
AcDbCircle
 10
-1.500000000000009
 20
2.023
 30
0.0
 40
0.11675
100
AcDbArc
 50
180.0
 51
0.0
  0
ARC
  5
346
330
2
100
AcDbEntity
  8
0
100
AcDbCircle
 10
-1.500000000000009
 20
2.102000000000007
 30
0.0
 40
0.11675
100
AcDbArc
 50
0.0
 51
180.0
  0
ARC
  5
347
330
2
100
AcDbEntity
  8
0
100
AcDbCircle
 10
-1.500000000000009
 20
2.023
 30
0.0
 40
0.0855
100
AcDbArc
 50
180.0
 51
0.0
  0
ARC
  5
348
330
2
100
AcDbEntity
  8
0
100
AcDbCircle
 10
-1.500000000000009
 20
2.102000000000007
 30
0.0
 40
0.0855
100
AcDbArc
 50
0.0
 51
180.0
  0
LINE
  5
349
330
2
100
AcDbEntity
  8
0
100
AcDbLine
 10
-1.616750000000019
 20
2.102000000000007
 30
0.0
 11
-1.616750000000019
 21
2.023
 31
0.0
  0
LINE
  5
34A
330
2
100
AcDbEntity
  8
0
100
AcDbLine
 10
-1.585500000000019
 20
2.102000000000007
 30
0.0
 11
-1.585500000000019
 21
2.023
 31
0.0
  0
LINE
  5
34B
330
2
100
AcDbEntity
  8
0
100
AcDbLine
 10
-1.383250000000013
 20
2.023
 30
0.0
 11
-1.383250000000013
 21
2.102000000000007
 31
0.0
  0
LINE
  5
34C
330
2
100
AcDbEntity
  8
0
100
AcDbLine
 10
-1.414500000000013
 20
2.023
 30
0.0
 11
-1.414500000000013
 21
2.102000000000007
 31
0.0
  0
LINE
  5
34D
330
2
100
AcDbEntity
  8
0
100
AcDbLine
 10
-3.116750000000019
 20
2.398
 30
0.0
 11
-3.116750000000019
 21
2.477000000000007
 31
0.0
  0
LINE
  5
34E
330
2
100
AcDbEntity
  8
0
100
AcDbLine
 10
-2.883250000000013
 20
2.477000000000007
 30
0.0
 11
-2.883250000000013
 21
2.398
 31
0.0
  0
ARC
  5
34F
330
2
100
AcDbEntity
  8
0
100
AcDbCircle
 10
-3.000000000000009
 20
2.477000000000007
 30
0.0
 40
0.11675
100
AcDbArc
 50
0.0
 51
180.0
  0
ARC
  5
350
330
2
100
AcDbEntity
  8
0
100
AcDbCircle
 10
-3.000000000000009
 20
2.477000000000007
 30
0.0
 40
0.0855
100
AcDbArc
 50
0.0
 51
180.0
  0
LINE
  5
351
330
2
100
AcDbEntity
  8
0
100
AcDbLine
 10
-3.085500000000019
 20
2.398
 30
0.0
 11
-3.085500000000019
 21
2.477000000000007
 31
0.0
  0
LINE
  5
352
330
2
100
AcDbEntity
  8
0
100
AcDbLine
 10
-2.914500000000013
 20
2.477000000000007
 30
0.0
 11
-2.914500000000013
 21
2.398
 31
0.0
  0
ARC
  5
353
330
2
100
AcDbEntity
  8
0
100
AcDbCircle
 10
-0.0000000000000089
 20
2.398
 30
0.0
 40
0.11675
100
AcDbArc
 50
180.0
 51
0.0
  0
ARC
  5
354
330
2
100
AcDbEntity
  8
0
100
AcDbCircle
 10
-0.0000000000000089
 20
2.398
 30
0.0
 40
0.0855
100
AcDbArc
 50
180.0
 51
0.0
  0
ARC
  5
355
330
2
100
AcDbEntity
  8
0
100
AcDbCircle
 10
-0.0000000000000089
 20
0.8979999999999997
 30
0.0
 40
0.11675
100
AcDbArc
 50
180.0
 51
0.0
  0
ARC
  5
356
330
2
100
AcDbEntity
  8
0
100
AcDbCircle
 10
-0.0000000000000089
 20
0.9770000000000074
 30
0.0
 40
0.11675
100
AcDbArc
 50
0.0
 51
180.0
  0
ARC
  5
357
330
2
100
AcDbEntity
  8
0
100
AcDbCircle
 10
-0.0000000000000089
 20
0.8979999999999997
 30
0.0
 40
0.0855
100
AcDbArc
 50
180.0
 51
0.0
  0
ARC
  5
358
330
2
100
AcDbEntity
  8
0
100
AcDbCircle
 10
-0.0000000000000089
 20
0.9770000000000074
 30
0.0
 40
0.0855
100
AcDbArc
 50
0.0
 51
180.0
  0
LINE
  5
359
330
2
100
AcDbEntity
  8
0
100
AcDbLine
 10
-0.1167500000000192
 20
0.9770000000000074
 30
0.0
 11
-0.1167500000000192
 21
0.8979999999999997
 31
0.0
  0
LINE
  5
35A
330
2
100
AcDbEntity
  8
0
100
AcDbLine
 10
-0.0855000000000192
 20
0.9770000000000074
 30
0.0
 11
-0.0855000000000192
 21
0.8979999999999997
 31
0.0
  0
LINE
  5
35B
330
2
100
AcDbEntity
  8
0
100
AcDbLine
 10
0.1167499999999873
 20
0.8979999999999997
 30
0.0
 11
0.1167499999999873
 21
0.9770000000000074
 31
0.0
  0
LINE
  5
35C
330
2
100
AcDbEntity
  8
0
100
AcDbLine
 10
0.0854999999999873
 20
0.8979999999999997
 30
0.0
 11
0.0854999999999873
 21
0.9770000000000074
 31
0.0
  0
LINE
  5
35D
330
2
100
AcDbEntity
  8
0
100
AcDbLine
 10
1.616749999999987
 20
0.5230000000000068
 30
0.0
 11
1.616749999999987
 21
0.6020000000000074
 31
0.0
  0
LINE
  5
35E
330
2
100
AcDbEntity
  8
0
100
AcDbLine
 10
1.585499999999987
 20
0.5230000000000068
 30
0.0
 11
1.585499999999987
 21
0.6020000000000074
 31
0.0
  0
LINE
  5
35F
330
2
100
AcDbEntity
  8
0
100
AcDbLine
 10
1.383249999999981
 20
0.5230000000000068
 30
0.0
 11
1.383249999999981
 21
0.6020000000000074
 31
0.0
  0
LINE
  5
360
330
2
100
AcDbEntity
  8
0
100
AcDbLine
 10
1.414499999999981
 20
0.5230000000000068
 30
0.0
 11
1.414499999999981
 21
0.6020000000000074
 31
0.0
  0
ARC
  5
361
330
2
100
AcDbEntity
  8
0
100
AcDbCircle
 10
1.499999999999991
 20
0.5230000000000068
 30
0.0
 40
0.11675
100
AcDbArc
 50
180.0
 51
0.0
  0
ARC
  5
362
330
2
100
AcDbEntity
  8
0
100
AcDbCircle
 10
1.499999999999991
 20
0.6020000000000074
 30
0.0
 40
0.11675
100
AcDbArc
 50
0.0
 51
180.0
  0
ARC
  5
363
330
2
100
AcDbEntity
  8
0
100
AcDbCircle
 10
1.499999999999991
 20
0.5230000000000068
 30
0.0
 40
0.0855
100
AcDbArc
 50
180.0
 51
0.0
  0
ARC
  5
364
330
2
100
AcDbEntity
  8
0
100
AcDbCircle
 10
1.499999999999991
 20
0.6020000000000074
 30
0.0
 40
0.0855
100
AcDbArc
 50
0.0
 51
180.0
  0
LINE
  5
365
330
2
100
AcDbEntity
  8
0
100
AcDbLine
 10
1.616749999999987
 20
2.023
 30
0.0
 11
1.616749999999987
 21
2.102000000000007
 31
0.0
  0
LINE
  5
366
330
2
100
AcDbEntity
  8
0
100
AcDbLine
 10
1.585499999999987
 20
2.023
 30
0.0
 11
1.585499999999987
 21
2.102000000000007
 31
0.0
  0
LINE
  5
367
330
2
100
AcDbEntity
  8
0
100
AcDbLine
 10
1.383249999999981
 20
2.102000000000007
 30
0.0
 11
1.383249999999981
 21
2.023
 31
0.0
  0
LINE
  5
368
330
2
100
AcDbEntity
  8
0
100
AcDbLine
 10
1.414499999999981
 20
2.102000000000007
 30
0.0
 11
1.414499999999981
 21
2.023
 31
0.0
  0
ARC
  5
369
330
2
100
AcDbEntity
  8
0
100
AcDbCircle
 10
1.499999999999991
 20
2.023
 30
0.0
 40
0.11675
100
AcDbArc
 50
180.0
 51
0.0
  0
ARC
  5
36A
330
2
100
AcDbEntity
  8
0
100
AcDbCircle
 10
1.499999999999991
 20
2.102000000000007
 30
0.0
 40
0.11675
100
AcDbArc
 50
0.0
 51
180.0
  0
ARC
  5
36B
330
2
100
AcDbEntity
  8
0
100
AcDbCircle
 10
1.499999999999991
 20
2.023
 30
0.0
 40
0.0855
100
AcDbArc
 50
180.0
 51
0.0
  0
ARC
  5
36C
330
2
100
AcDbEntity
  8
0
100
AcDbCircle
 10
1.499999999999991
 20
2.102000000000007
 30
0.0
 40
0.0855
100
AcDbArc
 50
0.0
 51
180.0
  0
ARC
  5
36D
330
2
100
AcDbEntity
  8
0
100
AcDbCircle
 10
-0.0000000000000089
 20
2.477000000000007
 30
0.0
 40
0.11675
100
AcDbArc
 50
0.0
 51
180.0
  0
ARC
  5
36E
330
2
100
AcDbEntity
  8
0
100
AcDbCircle
 10
-0.0000000000000089
 20
2.477000000000007
 30
0.0
 40
0.0855
100
AcDbArc
 50
0.0
 51
180.0
  0
LINE
  5
36F
330
2
100
AcDbEntity
  8
0
100
AcDbLine
 10
-0.1167500000000192
 20
2.398
 30
0.0
 11
-0.1167500000000192
 21
2.477000000000007
 31
0.0
  0
LINE
  5
370
330
2
100
AcDbEntity
  8
0
100
AcDbLine
 10
-0.0855000000000192
 20
2.398
 30
0.0
 11
-0.0855000000000192
 21
2.477000000000007
 31
0.0
  0
LINE
  5
371
330
2
100
AcDbEntity
  8
0
100
AcDbLine
 10
0.1167499999999873
 20
2.477000000000007
 30
0.0
 11
0.1167499999999873
 21
2.398
 31
0.0
  0
LINE
  5
372
330
2
100
AcDbEntity
  8
0
100
AcDbLine
 10
0.0854999999999873
 20
2.477000000000007
 30
0.0
 11
0.0854999999999873
 21
2.398
 31
0.0
  0
LINE
  5
373
330
2
100
AcDbEntity
  8
0
100
AcDbLine
 10
13.71875000000001
 20
-0.0000000000000018
 30
0.0
 11
14.12500000000001
 21
0.4062499999999982
 31
0.0
  0
CIRCLE
  5
374
330
2
100
AcDbEntity
  8
0
100
AcDbCircle
 10
12.75000000000001
 20
1.500000000000004
 30
0.0
 40
0.28125
  0
ARC
  5
375
330
2
100
AcDbEntity
  8
0
100
AcDbCircle
 10
7.499999999999991
 20
2.023
 30
0.0
 40
0.11675
100
AcDbArc
 50
180.0
 51
0.0
  0
ARC
  5
376
330
2
100
AcDbEntity
  8
0
100
AcDbCircle
 10
7.499999999999991
 20
2.102000000000007
 30
0.0
 40
0.11675
100
AcDbArc
 50
0.0
 51
180.0
  0
ARC
  5
377
330
2
100
AcDbEntity
  8
0
100
AcDbCircle
 10
7.499999999999991
 20
2.023
 30
0.0
 40
0.0855
100
AcDbArc
 50
180.0
 51
0.0
  0
ARC
  5
378
330
2
100
AcDbEntity
  8
0
100
AcDbCircle
 10
7.499999999999991
 20
2.102000000000007
 30
0.0
 40
0.0855
100
AcDbArc
 50
0.0
 51
180.0
  0
ARC
  5
379
330
2
100
AcDbEntity
  8
0
100
AcDbCircle
 10
7.499999999999991
 20
0.5230000000000068
 30
0.0
 40
0.11675
100
AcDbArc
 50
180.0
 51
0.0
  0
ARC
  5
37A
330
2
100
AcDbEntity
  8
0
100
AcDbCircle
 10
7.499999999999991
 20
0.6020000000000074
 30
0.0
 40
0.11675
100
AcDbArc
 50
0.0
 51
180.0
  0
ARC
  5
37B
330
2
100
AcDbEntity
  8
0
100
AcDbCircle
 10
7.499999999999991
 20
0.5230000000000068
 30
0.0
 40
0.0855
100
AcDbArc
 50
180.0
 51
0.0
  0
ARC
  5
37C
330
2
100
AcDbEntity
  8
0
100
AcDbCircle
 10
7.499999999999991
 20
0.6020000000000074
 30
0.0
 40
0.0855
100
AcDbArc
 50
0.0
 51
180.0
  0
ARC
  5
37D
330
2
100
AcDbEntity
  8
0
100
AcDbCircle
 10
2.999999999999991
 20
2.398
 30
0.0
 40
0.11675
100
AcDbArc
 50
180.0
 51
0.0
  0
ARC
  5
37E
330
2
100
AcDbEntity
  8
0
100
AcDbCircle
 10
2.999999999999991
 20
2.398
 30
0.0
 40
0.0855
100
AcDbArc
 50
180.0
 51
0.0
  0
ARC
  5
37F
330
2
100
AcDbEntity
  8
0
100
AcDbCircle
 10
2.999999999999991
 20
0.8979999999999997
 30
0.0
 40
0.11675
100
AcDbArc
 50
180.0
 51
0.0
  0
ARC
  5
380
330
2
100
AcDbEntity
  8
0
100
AcDbCircle
 10
2.999999999999991
 20
0.9770000000000074
 30
0.0
 40
0.11675
100
AcDbArc
 50
0.0
 51
180.0
  0
ARC
  5
381
330
2
100
AcDbEntity
  8
0
100
AcDbCircle
 10
2.999999999999991
 20
0.8979999999999997
 30
0.0
 40
0.0855
100
AcDbArc
 50
180.0
 51
0.0
  0
ARC
  5
382
330
2
100
AcDbEntity
  8
0
100
AcDbCircle
 10
2.999999999999991
 20
0.9770000000000074
 30
0.0
 40
0.0855
100
AcDbArc
 50
0.0
 51
180.0
  0
LINE
  5
383
330
2
100
AcDbEntity
  8
0
100
AcDbLine
 10
2.883249999999981
 20
0.9770000000000074
 30
0.0
 11
2.883249999999981
 21
0.8979999999999997
 31
0.0
  0
LINE
  5
384
330
2
100
AcDbEntity
  8
0
100
AcDbLine
 10
2.914499999999981
 20
0.9770000000000074
 30
0.0
 11
2.914499999999981
 21
0.8979999999999997
 31
0.0
  0
LINE
  5
385
330
2
100
AcDbEntity
  8
0
100
AcDbLine
 10
3.116749999999987
 20
0.8979999999999997
 30
0.0
 11
3.116749999999987
 21
0.9770000000000074
 31
0.0
  0
LINE
  5
386
330
2
100
AcDbEntity
  8
0
100
AcDbLine
 10
3.085499999999987
 20
0.8979999999999997
 30
0.0
 11
3.085499999999987
 21
0.9770000000000074
 31
0.0
  0
ARC
  5
387
330
2
100
AcDbEntity
  8
0
100
AcDbCircle
 10
4.499999999999991
 20
0.5230000000000068
 30
0.0
 40
0.11675
100
AcDbArc
 50
180.0
 51
0.0
  0
ARC
  5
388
330
2
100
AcDbEntity
  8
0
100
AcDbCircle
 10
4.499999999999991
 20
0.6020000000000074
 30
0.0
 40
0.11675
100
AcDbArc
 50
0.0
 51
180.0
  0
LINE
  5
389
330
2
100
AcDbEntity
  8
0
100
AcDbLine
 10
4.383249999999981
 20
0.5230000000000068
 30
0.0
 11
4.383249999999981
 21
0.6020000000000074
 31
0.0
  0
LINE
  5
38A
330
2
100
AcDbEntity
  8
0
100
AcDbLine
 10
4.616749999999987
 20
0.5230000000000068
 30
0.0
 11
4.616749999999987
 21
0.6020000000000074
 31
0.0
  0
LINE
  5
38B
330
2
100
AcDbEntity
  8
0
100
AcDbLine
 10
4.585499999999987
 20
0.5230000000000068
 30
0.0
 11
4.585499999999987
 21
0.6020000000000074
 31
0.0
  0
LINE
  5
38C
330
2
100
AcDbEntity
  8
0
100
AcDbLine
 10
4.414499999999981
 20
0.5230000000000068
 30
0.0
 11
4.414499999999981
 21
0.6020000000000074
 31
0.0
  0
ARC
  5
38D
330
2
100
AcDbEntity
  8
0
100
AcDbCircle
 10
4.499999999999991
 20
0.5230000000000068
 30
0.0
 40
0.0855
100
AcDbArc
 50
180.0
 51
0.0
  0
ARC
  5
38E
330
2
100
AcDbEntity
  8
0
100
AcDbCircle
 10
4.499999999999991
 20
0.6020000000000074
 30
0.0
 40
0.0855
100
AcDbArc
 50
0.0
 51
180.0
  0
ARC
  5
38F
330
2
100
AcDbEntity
  8
0
100
AcDbCircle
 10
4.499999999999991
 20
2.023
 30
0.0
 40
0.11675
100
AcDbArc
 50
180.0
 51
0.0
  0
ARC
  5
390
330
2
100
AcDbEntity
  8
0
100
AcDbCircle
 10
4.499999999999991
 20
2.102000000000007
 30
0.0
 40
0.11675
100
AcDbArc
 50
0.0
 51
180.0
  0
LINE
  5
391
330
2
100
AcDbEntity
  8
0
100
AcDbLine
 10
4.383249999999981
 20
2.102000000000007
 30
0.0
 11
4.383249999999981
 21
2.023
 31
0.0
  0
LINE
  5
392
330
2
100
AcDbEntity
  8
0
100
AcDbLine
 10
4.616749999999987
 20
2.023
 30
0.0
 11
4.616749999999987
 21
2.102000000000007
 31
0.0
  0
LINE
  5
393
330
2
100
AcDbEntity
  8
0
100
AcDbLine
 10
4.585499999999987
 20
2.023
 30
0.0
 11
4.585499999999987
 21
2.102000000000007
 31
0.0
  0
LINE
  5
394
330
2
100
AcDbEntity
  8
0
100
AcDbLine
 10
4.414499999999981
 20
2.102000000000007
 30
0.0
 11
4.414499999999981
 21
2.023
 31
0.0
  0
ARC
  5
395
330
2
100
AcDbEntity
  8
0
100
AcDbCircle
 10
4.499999999999991
 20
2.023
 30
0.0
 40
0.0855
100
AcDbArc
 50
180.0
 51
0.0
  0
ARC
  5
396
330
2
100
AcDbEntity
  8
0
100
AcDbCircle
 10
4.499999999999991
 20
2.102000000000007
 30
0.0
 40
0.0855
100
AcDbArc
 50
0.0
 51
180.0
  0
ARC
  5
397
330
2
100
AcDbEntity
  8
0
100
AcDbCircle
 10
2.999999999999991
 20
2.477000000000007
 30
0.0
 40
0.11675
100
AcDbArc
 50
0.0
 51
180.0
  0
ARC
  5
398
330
2
100
AcDbEntity
  8
0
100
AcDbCircle
 10
2.999999999999991
 20
2.477000000000007
 30
0.0
 40
0.0855
100
AcDbArc
 50
0.0
 51
180.0
  0
LINE
  5
399
330
2
100
AcDbEntity
  8
0
100
AcDbLine
 10
2.883249999999981
 20
2.398
 30
0.0
 11
2.883249999999981
 21
2.477000000000007
 31
0.0
  0
LINE
  5
39A
330
2
100
AcDbEntity
  8
0
100
AcDbLine
 10
2.914499999999981
 20
2.398
 30
0.0
 11
2.914499999999981
 21
2.477000000000007
 31
0.0
  0
LINE
  5
39B
330
2
100
AcDbEntity
  8
0
100
AcDbLine
 10
3.116749999999987
 20
2.477000000000007
 30
0.0
 11
3.116749999999987
 21
2.398
 31
0.0
  0
LINE
  5
39C
330
2
100
AcDbEntity
  8
0
100
AcDbLine
 10
3.085499999999987
 20
2.477000000000007
 30
0.0
 11
3.085499999999987
 21
2.398
 31
0.0
  0
ARC
  5
39D
330
2
100
AcDbEntity
  8
0
100
AcDbCircle
 10
5.999999999999991
 20
2.398
 30
0.0
 40
0.11675
100
AcDbArc
 50
180.0
 51
0.0
  0
ARC
  5
39E
330
2
100
AcDbEntity
  8
0
100
AcDbCircle
 10
5.999999999999991
 20
2.398
 30
0.0
 40
0.0855
100
AcDbArc
 50
180.0
 51
0.0
  0
ARC
  5
39F
330
2
100
AcDbEntity
  8
0
100
AcDbCircle
 10
5.999999999999991
 20
0.8979999999999997
 30
0.0
 40
0.11675
100
AcDbArc
 50
180.0
 51
0.0
  0
ARC
  5
3A0
330
2
100
AcDbEntity
  8
0
100
AcDbCircle
 10
5.999999999999991
 20
0.9770000000000074
 30
0.0
 40
0.11675
100
AcDbArc
 50
0.0
 51
180.0
  0
CIRCLE
  5
3A1
330
2
100
AcDbEntity
  8
0
100
AcDbCircle
 10
5.250000000000005
 20
1.500000000000004
 30
0.0
 40
0.28125
  0
LINE
  5
3A2
330
2
100
AcDbEntity
  8
0
100
AcDbLine
 10
5.883249999999981
 20
0.9770000000000074
 30
0.0
 11
5.883249999999981
 21
0.8979999999999997
 31
0.0
  0
ARC
  5
3A3
330
2
100
AcDbEntity
  8
0
100
AcDbCircle
 10
5.999999999999991
 20
0.8979999999999997
 30
0.0
 40
0.0855
100
AcDbArc
 50
180.0
 51
0.0
  0
ARC
  5
3A4
330
2
100
AcDbEntity
  8
0
100
AcDbCircle
 10
5.999999999999991
 20
0.9770000000000074
 30
0.0
 40
0.0855
100
AcDbArc
 50
0.0
 51
180.0
  0
LINE
  5
3A5
330
2
100
AcDbEntity
  8
0
100
AcDbLine
 10
5.914499999999981
 20
0.9770000000000074
 30
0.0
 11
5.914499999999981
 21
0.8979999999999997
 31
0.0
  0
LINE
  5
3A6
330
2
100
AcDbEntity
  8
0
100
AcDbLine
 10
6.085499999999987
 20
0.8979999999999997
 30
0.0
 11
6.085499999999987
 21
0.9770000000000074
 31
0.0
  0
LINE
  5
3A7
330
2
100
AcDbEntity
  8
0
100
AcDbLine
 10
6.116749999999987
 20
0.8979999999999997
 30
0.0
 11
6.116749999999987
 21
0.9770000000000074
 31
0.0
  0
LINE
  5
3A8
330
2
100
AcDbEntity
  8
0
100
AcDbLine
 10
7.383249999999981
 20
0.5230000000000068
 30
0.0
 11
7.383249999999981
 21
0.6020000000000074
 31
0.0
  0
LINE
  5
3A9
330
2
100
AcDbEntity
  8
0
100
AcDbLine
 10
7.414499999999981
 20
0.5230000000000068
 30
0.0
 11
7.414499999999981
 21
0.6020000000000074
 31
0.0
  0
LINE
  5
3AA
330
2
100
AcDbEntity
  8
0
100
AcDbLine
 10
7.383249999999981
 20
2.102000000000007
 30
0.0
 11
7.383249999999981
 21
2.023
 31
0.0
  0
LINE
  5
3AB
330
2
100
AcDbEntity
  8
0
100
AcDbLine
 10
7.414499999999981
 20
2.102000000000007
 30
0.0
 11
7.414499999999981
 21
2.023
 31
0.0
  0
ARC
  5
3AC
330
2
100
AcDbEntity
  8
0
100
AcDbCircle
 10
5.999999999999991
 20
2.477000000000007
 30
0.0
 40
0.11675
100
AcDbArc
 50
0.0
 51
180.0
  0
LINE
  5
3AD
330
2
100
AcDbEntity
  8
0
100
AcDbLine
 10
5.883249999999981
 20
2.398
 30
0.0
 11
5.883249999999981
 21
2.477000000000007
 31
0.0
  0
ARC
  5
3AE
330
2
100
AcDbEntity
  8
0
100
AcDbCircle
 10
5.999999999999991
 20
2.477000000000007
 30
0.0
 40
0.0855
100
AcDbArc
 50
0.0
 51
180.0
  0
LINE
  5
3AF
330
2
100
AcDbEntity
  8
0
100
AcDbLine
 10
5.914499999999981
 20
2.398
 30
0.0
 11
5.914499999999981
 21
2.477000000000007
 31
0.0
  0
LINE
  5
3B0
330
2
100
AcDbEntity
  8
0
100
AcDbLine
 10
6.085499999999987
 20
2.477000000000007
 30
0.0
 11
6.085499999999987
 21
2.398
 31
0.0
  0
LINE
  5
3B1
330
2
100
AcDbEntity
  8
0
100
AcDbLine
 10
6.116749999999987
 20
2.477000000000007
 30
0.0
 11
6.116749999999987
 21
2.398
 31
0.0
  0
ARC
  5
3B2
330
2
100
AcDbEntity
  8
0
100
AcDbCircle
 10
8.999999999999991
 20
2.398
 30
0.0
 40
0.11675
100
AcDbArc
 50
180.0
 51
0.0
  0
ARC
  5
3B3
330
2
100
AcDbEntity
  8
0
100
AcDbCircle
 10
8.999999999999991
 20
2.398
 30
0.0
 40
0.0855
100
AcDbArc
 50
180.0
 51
0.0
  0
LINE
  5
3B4
330
2
100
AcDbEntity
  8
0
100
AcDbLine
 10
7.616749999999987
 20
0.5230000000000068
 30
0.0
 11
7.616749999999987
 21
0.6020000000000074
 31
0.0
  0
LINE
  5
3B5
330
2
100
AcDbEntity
  8
0
100
AcDbLine
 10
7.585499999999987
 20
0.5230000000000068
 30
0.0
 11
7.585499999999987
 21
0.6020000000000074
 31
0.0
  0
LINE
  5
3B6
330
2
100
AcDbEntity
  8
0
100
AcDbLine
 10
7.616749999999987
 20
2.023
 30
0.0
 11
7.616749999999987
 21
2.102000000000007
 31
0.0
  0
LINE
  5
3B7
330
2
100
AcDbEntity
  8
0
100
AcDbLine
 10
7.585499999999987
 20
2.023
 30
0.0
 11
7.585499999999987
 21
2.102000000000007
 31
0.0
  0
LINE
  5
3B8
330
2
100
AcDbEntity
  8
0
100
AcDbLine
 10
8.883249999999981
 20
0.9770000000000074
 30
0.0
 11
8.883249999999981
 21
0.8979999999999997
 31
0.0
  0
ARC
  5
3B9
330
2
100
AcDbEntity
  8
0
100
AcDbCircle
 10
8.999999999999991
 20
0.8979999999999997
 30
0.0
 40
0.11675
100
AcDbArc
 50
180.0
 51
0.0
  0
LINE
  5
3BA
330
2
100
AcDbEntity
  8
0
100
AcDbLine
 10
9.116749999999987
 20
0.8979999999999997
 30
0.0
 11
9.116749999999987
 21
0.9770000000000074
 31
0.0
  0
ARC
  5
3BB
330
2
100
AcDbEntity
  8
0
100
AcDbCircle
 10
8.999999999999991
 20
0.9770000000000074
 30
0.0
 40
0.11675
100
AcDbArc
 50
0.0
 51
180.0
  0
ARC
  5
3BC
330
2
100
AcDbEntity
  8
0
100
AcDbCircle
 10
8.999999999999991
 20
0.8979999999999997
 30
0.0
 40
0.0855
100
AcDbArc
 50
180.0
 51
0.0
  0
ARC
  5
3BD
330
2
100
AcDbEntity
  8
0
100
AcDbCircle
 10
8.999999999999991
 20
0.9770000000000074
 30
0.0
 40
0.0855
100
AcDbArc
 50
0.0
 51
180.0
  0
LINE
  5
3BE
330
2
100
AcDbEntity
  8
0
100
AcDbLine
 10
8.914499999999981
 20
0.9770000000000074
 30
0.0
 11
8.914499999999981
 21
0.8979999999999997
 31
0.0
  0
LINE
  5
3BF
330
2
100
AcDbEntity
  8
0
100
AcDbLine
 10
9.085499999999987
 20
0.8979999999999997
 30
0.0
 11
9.085499999999987
 21
0.9770000000000074
 31
0.0
  0
LINE
  5
3C0
330
2
100
AcDbEntity
  8
0
100
AcDbLine
 10
8.883249999999981
 20
2.398
 30
0.0
 11
8.883249999999981
 21
2.477000000000007
 31
0.0
  0
LINE
  5
3C1
330
2
100
AcDbEntity
  8
0
100
AcDbLine
 10
9.116749999999987
 20
2.477000000000007
 30
0.0
 11
9.116749999999987
 21
2.398
 31
0.0
  0
ARC
  5
3C2
330
2
100
AcDbEntity
  8
0
100
AcDbCircle
 10
8.999999999999991
 20
2.477000000000007
 30
0.0
 40
0.11675
100
AcDbArc
 50
0.0
 51
180.0
  0
ARC
  5
3C3
330
2
100
AcDbEntity
  8
0
100
AcDbCircle
 10
8.999999999999991
 20
2.477000000000007
 30
0.0
 40
0.0855
100
AcDbArc
 50
0.0
 51
180.0
  0
LINE
  5
3C4
330
2
100
AcDbEntity
  8
0
100
AcDbLine
 10
8.914499999999981
 20
2.398
 30
0.0
 11
8.914499999999981
 21
2.477000000000007
 31
0.0
  0
LINE
  5
3C5
330
2
100
AcDbEntity
  8
0
100
AcDbLine
 10
9.085499999999987
 20
2.477000000000007
 30
0.0
 11
9.085499999999987
 21
2.398
 31
0.0
  0
ARC
  5
3C6
330
2
100
AcDbEntity
  8
0
100
AcDbCircle
 10
11.99999999999999
 20
2.398
 30
0.0
 40
0.11675
100
AcDbArc
 50
180.0
 51
0.0
  0
ARC
  5
3C7
330
2
100
AcDbEntity
  8
0
100
AcDbCircle
 10
11.99999999999999
 20
2.398
 30
0.0
 40
0.0855
100
AcDbArc
 50
180.0
 51
0.0
  0
ARC
  5
3C8
330
2
100
AcDbEntity
  8
0
100
AcDbCircle
 10
10.49999999999999
 20
0.5230000000000068
 30
0.0
 40
0.11675
100
AcDbArc
 50
180.0
 51
0.0
  0
ARC
  5
3C9
330
2
100
AcDbEntity
  8
0
100
AcDbCircle
 10
10.49999999999999
 20
0.6020000000000074
 30
0.0
 40
0.11675
100
AcDbArc
 50
0.0
 51
180.0
  0
ARC
  5
3CA
330
2
100
AcDbEntity
  8
0
100
AcDbCircle
 10
10.49999999999999
 20
0.5230000000000068
 30
0.0
 40
0.0855
100
AcDbArc
 50
180.0
 51
0.0
  0
ARC
  5
3CB
330
2
100
AcDbEntity
  8
0
100
AcDbCircle
 10
10.49999999999999
 20
0.6020000000000074
 30
0.0
 40
0.0855
100
AcDbArc
 50
0.0
 51
180.0
  0
LINE
  5
3CC
330
2
100
AcDbEntity
  8
0
100
AcDbLine
 10
10.38324999999998
 20
0.5230000000000068
 30
0.0
 11
10.38324999999998
 21
0.6020000000000074
 31
0.0
  0
LINE
  5
3CD
330
2
100
AcDbEntity
  8
0
100
AcDbLine
 10
10.41449999999998
 20
0.5230000000000068
 30
0.0
 11
10.41449999999998
 21
0.6020000000000074
 31
0.0
  0
LINE
  5
3CE
330
2
100
AcDbEntity
  8
0
100
AcDbLine
 10
10.61674999999999
 20
0.5230000000000068
 30
0.0
 11
10.61674999999999
 21
0.6020000000000074
 31
0.0
  0
LINE
  5
3CF
330
2
100
AcDbEntity
  8
0
100
AcDbLine
 10
10.58549999999999
 20
0.5230000000000068
 30
0.0
 11
10.58549999999999
 21
0.6020000000000074
 31
0.0
  0
ARC
  5
3D0
330
2
100
AcDbEntity
  8
0
100
AcDbCircle
 10
10.49999999999999
 20
2.023
 30
0.0
 40
0.11675
100
AcDbArc
 50
180.0
 51
0.0
  0
ARC
  5
3D1
330
2
100
AcDbEntity
  8
0
100
AcDbCircle
 10
10.49999999999999
 20
2.102000000000007
 30
0.0
 40
0.11675
100
AcDbArc
 50
0.0
 51
180.0
  0
ARC
  5
3D2
330
2
100
AcDbEntity
  8
0
100
AcDbCircle
 10
10.49999999999999
 20
2.023
 30
0.0
 40
0.0855
100
AcDbArc
 50
180.0
 51
0.0
  0
ARC
  5
3D3
330
2
100
AcDbEntity
  8
0
100
AcDbCircle
 10
10.49999999999999
 20
2.102000000000007
 30
0.0
 40
0.0855
100
AcDbArc
 50
0.0
 51
180.0
  0
LINE
  5
3D4
330
2
100
AcDbEntity
  8
0
100
AcDbLine
 10
10.38324999999998
 20
2.102000000000007
 30
0.0
 11
10.38324999999998
 21
2.023
 31
0.0
  0
LINE
  5
3D5
330
2
100
AcDbEntity
  8
0
100
AcDbLine
 10
10.41449999999998
 20
2.102000000000007
 30
0.0
 11
10.41449999999998
 21
2.023
 31
0.0
  0
LINE
  5
3D6
330
2
100
AcDbEntity
  8
0
100
AcDbLine
 10
10.61674999999999
 20
2.023
 30
0.0
 11
10.61674999999999
 21
2.102000000000007
 31
0.0
  0
LINE
  5
3D7
330
2
100
AcDbEntity
  8
0
100
AcDbLine
 10
10.58549999999999
 20
2.023
 30
0.0
 11
10.58549999999999
 21
2.102000000000007
 31
0.0
  0
ARC
  5
3D8
330
2
100
AcDbEntity
  8
0
100
AcDbCircle
 10
11.99999999999999
 20
0.8979999999999997
 30
0.0
 40
0.11675
100
AcDbArc
 50
180.0
 51
0.0
  0
ARC
  5
3D9
330
2
100
AcDbEntity
  8
0
100
AcDbCircle
 10
11.99999999999999
 20
0.9770000000000074
 30
0.0
 40
0.11675
100
AcDbArc
 50
0.0
 51
180.0
  0
LINE
  5
3DA
330
2
100
AcDbEntity
  8
0
100
AcDbLine
 10
11.88324999999998
 20
0.9770000000000074
 30
0.0
 11
11.88324999999998
 21
0.8979999999999997
 31
0.0
  0
LINE
  5
3DB
330
2
100
AcDbEntity
  8
0
100
AcDbLine
 10
12.11674999999999
 20
0.8979999999999997
 30
0.0
 11
12.11674999999999
 21
0.9770000000000074
 31
0.0
  0
LINE
  5
3DC
330
2
100
AcDbEntity
  8
0
100
AcDbLine
 10
12.08549999999999
 20
0.8979999999999997
 30
0.0
 11
12.08549999999999
 21
0.9770000000000074
 31
0.0
  0
LINE
  5
3DD
330
2
100
AcDbEntity
  8
0
100
AcDbLine
 10
11.91449999999998
 20
0.9770000000000074
 30
0.0
 11
11.91449999999998
 21
0.8979999999999997
 31
0.0
  0
ARC
  5
3DE
330
2
100
AcDbEntity
  8
0
100
AcDbCircle
 10
11.99999999999999
 20
0.8979999999999997
 30
0.0
 40
0.0855
100
AcDbArc
 50
180.0
 51
0.0
  0
ARC
  5
3DF
330
2
100
AcDbEntity
  8
0
100
AcDbCircle
 10
11.99999999999999
 20
0.9770000000000074
 30
0.0
 40
0.0855
100
AcDbArc
 50
0.0
 51
180.0
  0
ARC
  5
3E0
330
2
100
AcDbEntity
  8
0
100
AcDbCircle
 10
11.99999999999999
 20
2.477000000000007
 30
0.0
 40
0.11675
100
AcDbArc
 50
0.0
 51
180.0
  0
LINE
  5
3E1
330
2
100
AcDbEntity
  8
0
100
AcDbLine
 10
11.88324999999998
 20
2.398
 30
0.0
 11
11.88324999999998
 21
2.477000000000007
 31
0.0
  0
LINE
  5
3E2
330
2
100
AcDbEntity
  8
0
100
AcDbLine
 10
12.11674999999999
 20
2.477000000000007
 30
0.0
 11
12.11674999999999
 21
2.398
 31
0.0
  0
LINE
  5
3E3
330
2
100
AcDbEntity
  8
0
100
AcDbLine
 10
12.08549999999999
 20
2.477000000000007
 30
0.0
 11
12.08549999999999
 21
2.398
 31
0.0
  0
LINE
  5
3E4
330
2
100
AcDbEntity
  8
0
100
AcDbLine
 10
11.91449999999998
 20
2.398
 30
0.0
 11
11.91449999999998
 21
2.477000000000007
 31
0.0
  0
ARC
  5
3E5
330
2
100
AcDbEntity
  8
0
100
AcDbCircle
 10
11.99999999999999
 20
2.477000000000007
 30
0.0
 40
0.0855
100
AcDbArc
 50
0.0
 51
180.0
  0
LINE
  5
3E6
330
2
100
AcDbEntity
  8
0
  6
Continuous
100
AcDbLine
 10
14.12500000000001
 20
0.4062499999999982
 30
0.0
 11
14.12500000000001
 21
2.593749999999989
 31
0.0
  0
LINE
  5
3E7
330
2
100
AcDbEntity
  8
0
100
AcDbLine
 10
13.61674999999999
 20
0.5230000000000068
 30
0.0
 11
13.61674999999999
 21
0.6020000000000074
 31
0.0
  0
ARC
  5
3E8
330
2
100
AcDbEntity
  8
0
100
AcDbCircle
 10
13.49999999999999
 20
0.5230000000000068
 30
0.0
 40
0.11675
100
AcDbArc
 50
180.0
 51
0.0
  0
LINE
  5
3E9
330
2
100
AcDbEntity
  8
0
100
AcDbLine
 10
13.38324999999998
 20
0.5230000000000068
 30
0.0
 11
13.38324999999998
 21
0.6020000000000074
 31
0.0
  0
ARC
  5
3EA
330
2
100
AcDbEntity
  8
0
100
AcDbCircle
 10
13.49999999999999
 20
0.6020000000000074
 30
0.0
 40
0.11675
100
AcDbArc
 50
0.0
 51
180.0
  0
LINE
  5
3EB
330
2
100
AcDbEntity
  8
0
100
AcDbLine
 10
13.58549999999999
 20
0.5230000000000068
 30
0.0
 11
13.58549999999999
 21
0.6020000000000074
 31
0.0
  0
LINE
  5
3EC
330
2
100
AcDbEntity
  8
0
100
AcDbLine
 10
13.41449999999998
 20
0.5230000000000068
 30
0.0
 11
13.41449999999998
 21
0.6020000000000074
 31
0.0
  0
ARC
  5
3ED
330
2
100
AcDbEntity
  8
0
100
AcDbCircle
 10
13.49999999999999
 20
0.5230000000000068
 30
0.0
 40
0.0855
100
AcDbArc
 50
180.0
 51
0.0
  0
ARC
  5
3EE
330
2
100
AcDbEntity
  8
0
100
AcDbCircle
 10
13.49999999999999
 20
0.6020000000000074
 30
0.0
 40
0.0855
100
AcDbArc
 50
0.0
 51
180.0
  0
LINE
  5
3EF
330
2
100
AcDbEntity
  8
0
100
AcDbLine
 10
13.61674999999999
 20
2.023
 30
0.0
 11
13.61674999999999
 21
2.102000000000007
 31
0.0
  0
ARC
  5
3F0
330
2
100
AcDbEntity
  8
0
100
AcDbCircle
 10
13.49999999999999
 20
2.023
 30
0.0
 40
0.11675
100
AcDbArc
 50
180.0
 51
0.0
  0
LINE
  5
3F1
330
2
100
AcDbEntity
  8
0
100
AcDbLine
 10
13.38324999999998
 20
2.102000000000007
 30
0.0
 11
13.38324999999998
 21
2.023
 31
0.0
  0
ARC
  5
3F2
330
2
100
AcDbEntity
  8
0
100
AcDbCircle
 10
13.49999999999999
 20
2.102000000000007
 30
0.0
 40
0.11675
100
AcDbArc
 50
0.0
 51
180.0
  0
LINE
  5
3F3
330
2
100
AcDbEntity
  8
0
100
AcDbLine
 10
13.58549999999999
 20
2.023
 30
0.0
 11
13.58549999999999
 21
2.102000000000007
 31
0.0
  0
LINE
  5
3F4
330
2
100
AcDbEntity
  8
0
100
AcDbLine
 10
13.41449999999998
 20
2.102000000000007
 30
0.0
 11
13.41449999999998
 21
2.023
 31
0.0
  0
ARC
  5
3F5
330
2
100
AcDbEntity
  8
0
100
AcDbCircle
 10
13.49999999999999
 20
2.023
 30
0.0
 40
0.0855
100
AcDbArc
 50
180.0
 51
0.0
  0
ARC
  5
3F6
330
2
100
AcDbEntity
  8
0
100
AcDbCircle
 10
13.49999999999999
 20
2.102000000000007
 30
0.0
 40
0.0855
100
AcDbArc
 50
0.0
 51
180.0
  0
LINE
  5
3F7
330
2
100
AcDbEntity
  8
0
100
AcDbLine
 10
13.71875000000001
 20
2.999999999999989
 30
0.0
 11
14.12500000000001
 21
2.593749999999989
 31
0.0
  0
ENDSEC
  0
SECTION
  2
OBJECTS
  0
DICTIONARY
  5
7
330
0
100
AcDbDictionary
281
     1
  3
ACAD_COLOR
350
2B4
  3
ACAD_GROUP
350
1F
  3
ACAD_LAYOUT
350
B
  3
ACAD_MATERIAL
350
2B3
  3
ACAD_MLINESTYLE
350
20
  3
ACAD_PLOTSETTINGS
350
21
  3
ACAD_PLOTSTYLENAME
350
6
  3
ACAD_TABLESTYLE
350
2B5
  3
ACDBHEADERROUNDTRIPXREC
350
40C
  3
AcDbVariableDictionary
350
168
  0
DICTIONARY
  5
3F8
330
2
100
AcDbDictionary
280
     1
281
     1
  3
ACAD_SORTENTS
360
3F9
  0
DICTIONARY
  5
2B4
102
{ACAD_REACTORS
330
7
102
}
330
7
100
AcDbDictionary
281
     1
  0
DICTIONARY
  5
1F
102
{ACAD_REACTORS
330
7
102
}
330
7
100
AcDbDictionary
281
     1
  0
DICTIONARY
  5
B
102
{ACAD_REACTORS
330
7
102
}
330
7
100
AcDbDictionary
281
     1
  3
Layout1
350
F
  3
Model
350
A
  0
DICTIONARY
  5
2B3
102
{ACAD_REACTORS
330
7
102
}
330
7
100
AcDbDictionary
281
     1
  0
DICTIONARY
  5
20
102
{ACAD_REACTORS
330
7
102
}
330
7
100
AcDbDictionary
281
     1
  3
Standard
350
23
  0
DICTIONARY
  5
21
102
{ACAD_REACTORS
330
7
102
}
330
7
100
AcDbDictionary
281
     1
  0
ACDBDICTIONARYWDFLT
  5
6
102
{ACAD_REACTORS
330
7
102
}
330
7
100
AcDbDictionary
281
     1
  3
Normal
350
5
100
AcDbDictionaryWithDefault
340
5
  0
DICTIONARY
  5
2B5
102
{ACAD_REACTORS
330
7
102
}
330
7
100
AcDbDictionary
281
     1
  3
Standard
350
2B6
  0
DICTIONARY
  5
40C
102
{ACAD_REACTORS
330
7
102
}
330
7
100
AcDbDictionary
281
     1
  3
COLORDICT
350
40D
  3
MATERIALDICT
350
40E
  0
DICTIONARY
  5
168
102
{ACAD_REACTORS
330
7
102
}
330
7
100
AcDbDictionary
281
     1
  3
CTABLESTYLE
350
401
  3
DIMASSOC
350
16A
  3
HIDETEXT
350
169
  0
SORTENTSTABLE
  5
3F9
102
{ACAD_REACTORS
330
3F8
102
}
330
3F8
100
AcDbSortentsTable
330
2
331
374
  5
374
331
349
  5
349
331
2EE
  5
2EE
331
344
  5
344
331
365
  5
365
331
3E9
  5
3E9
331
37A
  5
37A
331
324
  5
324
331
2DE
  5
2DE
331
38B
  5
38B
331
395
  5
395
331
325
  5
325
331
2E4
  5
2E4
331
3A0
  5
3A0
331
396
  5
396
331
34F
  5
34F
331
2CB
  5
2CB
331
2D3
  5
2D3
331
39D
  5
39D
331
2D5
  5
2D5
331
315
  5
315
331
305
  5
305
331
2E8
  5
2E8
331
2C4
  5
2C4
331
32F
  5
32F
331
358
  5
358
331
35D
  5
35D
331
35F
  5
35F
331
39E
  5
39E
331
2C1
  5
2C1
331
2BF
  5
2BF
331
32D
  5
32D
331
38A
  5
38A
331
384
  5
384
331
33A
  5
33A
331
306
  5
306
331
3BA
  5
3BA
331
3B9
  5
3B9
331
3B8
  5
3B8
331
32B
  5
32B
331
2DC
  5
2DC
331
352
  5
352
331
3A2
  5
3A2
331
3A1
  5
3A1
331
393
  5
393
331
319
  5
319
331
367
  5
367
331
302
  5
302
331
2C8
  5
2C8
331
329
  5
329
331
3A5
  5
3A5
331
3A4
  5
3A4
331
3A3
  5
3A3
331
386
  5
386
331
2DA
  5
2DA
331
2CE
  5
2CE
331
378
  5
378
331
341
  5
341
331
33B
  5
33B
331
39F
  5
39F
331
3D4
  5
3D4
331
38E
  5
38E
331
2EC
  5
2EC
331
3AE
  5
3AE
331
3AD
  5
3AD
331
2FA
  5
2FA
331
366
  5
366
331
2D8
  5
2D8
331
2DF
  5
2DF
331
35E
  5
35E
331
37B
  5
37B
331
2F2
  5
2F2
331
2D0
  5
2D0
331
2F7
  5
2F7
331
3F2
  5
3F2
331
3E3
  5
3E3
331
3F4
  5
3F4
331
362
  5
362
331
3CE
  5
3CE
331
3CD
  5
3CD
331
328
  5
328
331
382
  5
382
331
3EF
  5
3EF
331
3EE
  5
3EE
331
31A
  5
31A
331
3AC
  5
3AC
331
3AB
  5
3AB
331
3AA
  5
3AA
331
2F5
  5
2F5
331
2EA
  5
2EA
331
3CC
  5
3CC
331
3CB
  5
3CB
331
3CA
  5
3CA
331
3F6
  5
3F6
331
3B7
  5
3B7
331
3B6
  5
3B6
331
3B5
  5
3B5
331
308
  5
308
331
3EB
  5
3EB
331
3D3
  5
3D3
331
3D2
  5
3D2
331
353
  5
353
331
2ED
  5
2ED
331
2CD
  5
2CD
331
398
  5
398
331
2C2
  5
2C2
331
350
  5
350
331
2CC
  5
2CC
331
312
  5
312
331
2C6
  5
2C6
331
3DE
  5
3DE
331
3DD
  5
3DD
331
32A
  5
32A
331
2DB
  5
2DB
331
332
  5
332
331
3F7
  5
3F7
331
2EB
  5
2EB
331
390
  5
390
331
2C9
  5
2C9
331
311
  5
311
331
3DF
  5
3DF
331
321
  5
321
331
38C
  5
38C
331
397
  5
397
331
37E
  5
37E
331
368
  5
368
331
369
  5
369
331
36A
  5
36A
331
36B
  5
36B
331
2FB
  5
2FB
331
3A8
  5
3A8
331
2F0
  5
2F0
331
3E7
  5
3E7
331
2CF
  5
2CF
331
331
  5
331
331
304
  5
304
331
355
  5
355
331
2CA
  5
2CA
331
3C9
  5
3C9
331
3C8
  5
3C8
331
391
  5
391
331
3D7
  5
3D7
331
3D6
  5
3D6
331
3D5
  5
3D5
331
337
  5
337
331
2E1
  5
2E1
331
3EA
  5
3EA
331
3C7
  5
3C7
331
3C6
  5
3C6
331
3C5
  5
3C5
331
3C4
  5
3C4
331
2D4
  5
2D4
331
334
  5
334
331
3E8
  5
3E8
331
310
  5
310
331
2E7
  5
2E7
331
376
  5
376
331
3BB
  5
3BB
331
389
  5
389
331
346
  5
346
331
309
  5
309
331
36F
  5
36F
331
2E2
  5
2E2
331
392
  5
392
331
31F
  5
31F
331
2D6
  5
2D6
331
34D
  5
34D
331
2FD
  5
2FD
331
359
  5
359
331
388
  5
388
331
3EC
  5
3EC
331
2BC
  5
2BC
331
320
  5
320
331
31C
  5
31C
331
316
  5
316
331
3DA
  5
3DA
331
3D9
  5
3D9
331
3D8
  5
3D8
331
2D9
  5
2D9
331
370
  5
370
331
3A9
  5
3A9
331
39B
  5
39B
331
357
  5
357
331
301
  5
301
331
3E4
  5
3E4
331
36E
  5
36E
331
3F1
  5
3F1
331
3F0
  5
3F0
331
2FE
  5
2FE
331
3DC
  5
3DC
331
3DB
  5
3DB
331
345
  5
345
331
2E3
  5
2E3
331
339
  5
339
331
343
  5
343
331
38D
  5
38D
331
2E5
  5
2E5
331
318
  5
318
331
30B
  5
30B
331
3C1
  5
3C1
331
3C0
  5
3C0
331
3BF
  5
3BF
331
317
  5
317
331
2FF
  5
2FF
331
3C3
  5
3C3
331
3C2
  5
3C2
331
340
  5
340
331
32C
  5
32C
331
3B3
  5
3B3
331
3B2
  5
3B2
331
3B1
  5
3B1
331
351
  5
351
331
330
  5
330
331
2B9
  5
2B9
331
33E
  5
33E
331
2BA
  5
2BA
331
2FC
  5
2FC
331
385
  5
385
331
38F
  5
38F
331
387
  5
387
331
35C
  5
35C
331
30E
  5
30E
331
3F3
  5
3F3
331
3E2
  5
3E2
331
2C7
  5
2C7
331
381
  5
381
331
2D2
  5
2D2
331
313
  5
313
331
34B
  5
34B
331
3E1
  5
3E1
331
3E0
  5
3E0
331
2F3
  5
2F3
331
39C
  5
39C
331
2F4
  5
2F4
331
30F
  5
30F
331
33C
  5
33C
331
3F5
  5
3F5
331
3BE
  5
3BE
331
3BD
  5
3BD
331
3BC
  5
3BC
331
335
  5
335
331
2D1
  5
2D1
331
356
  5
356
331
347
  5
347
331
3E5
  5
3E5
331
2EF
  5
2EF
331
3E6
  5
3E6
331
342
  5
342
331
2E6
  5
2E6
331
31E
  5
31E
331
33D
  5
33D
331
314
  5
314
331
360
  5
360
331
3ED
  5
3ED
331
375
  5
375
331
34E
  5
34E
331
2D7
  5
2D7
331
2F1
  5
2F1
331
33F
  5
33F
331
322
  5
322
331
303
  5
303
331
2F8
  5
2F8
331
394
  5
394
331
3B0
  5
3B0
331
380
  5
380
331
371
  5
371
331
3A7
  5
3A7
331
3A6
  5
3A6
331
372
  5
372
331
3D1
  5
3D1
331
3D0
  5
3D0
331
3CF
  5
3CF
331
300
  5
300
331
399
  5
399
331
2C0
  5
2C0
331
354
  5
354
331
37F
  5
37F
331
39A
  5
39A
331
361
  5
361
331
338
  5
338
331
31D
  5
31D
331
307
  5
307
331
363
  5
363
331
30D
  5
30D
331
373
  5
373
331
2C3
  5
2C3
331
36D
  5
36D
331
2F9
  5
2F9
331
2F6
  5
2F6
331
35A
  5
35A
331
377
  5
377
331
34C
  5
34C
331
2DD
  5
2DD
331
32E
  5
32E
331
30A
  5
30A
331
3AF
  5
3AF
331
37C
  5
37C
331
364
  5
364
331
30C
  5
30C
331
3B4
  5
3B4
331
2C5
  5
2C5
331
36C
  5
36C
331
326
  5
326
331
31B
  5
31B
331
35B
  5
35B
331
336
  5
336
331
348
  5
348
331
327
  5
327
331
2E9
  5
2E9
331
383
  5
383
331
2E0
  5
2E0
331
333
  5
333
331
37D
  5
37D
331
379
  5
379
331
323
  5
323
331
34A
  5
34A
  0
LAYOUT
  5
F
102
{ACAD_REACTORS
330
B
102
}
102
{ACAD_XDICTIONARY
360
40F
102
}
330
B
100
AcDbPlotSettings
  1

  2
X:\Program Files\AutoCAD2002\plotters\DWF ePlot (optimized for plotting).pc3
  4

  6

 40
0.0
 41
0.0
 42
0.0
 43
0.0
 44
0.0
 45
0.0
 46
0.0
 47
0.0
 48
0.0
 49
0.0
140
0.0
141
0.0
142
1.0
143
1.0
 70
   688
 72
     0
 73
     0
 74
     5
  7

 75
    16
147
1.0
148
0.0
149
0.0
100
AcDbLayout
  1
Layout1
 70
     0
 71
     1
 10
0.0
 20
0.0
 11
12.0
 21
9.0
 12
0.0
 22
0.0
 32
0.0
 14
1.000000000000000E+20
 24
1.000000000000000E+20
 34
1.000000000000000E+20
 15
-1.000000000000000E+20
 25
-1.000000000000000E+20
 35
-1.000000000000000E+20
146
0.0
 13
0.0
 23
0.0
 33
0.0
 16
1.0
 26
0.0
 36
0.0
 17
0.0
 27
1.0
 37
0.0
 76
     0
330
C
  0
LAYOUT
  5
A
102
{ACAD_REACTORS
330
B
102
}
102
{ACAD_XDICTIONARY
360
411
102
}
330
B
100
AcDbPlotSettings
  1

  2
X:\Program Files\AutoCAD2002\plotters\DWF ePlot (optimized for plotting).pc3
  4

  6

 40
0.0
 41
0.0
 42
0.0
 43
0.0
 44
0.0
 45
0.0
 46
0.0
 47
0.0
 48
0.0
 49
0.0
140
0.0
141
0.0
142
1.0
143
1.0
 70
  1712
 72
     0
 73
     0
 74
     0
  7

 75
     0
147
1.0
148
0.0
149
0.0
100
AcDbLayout
  1
Model
 70
     1
 71
     0
 10
0.0
 20
0.0
 11
12.0
 21
9.0
 12
0.0
 22
0.0
 32
0.0
 14
0.0
 24
0.0
 34
0.0
 15
0.0
 25
0.0
 35
0.0
146
0.0
 13
0.0
 23
0.0
 33
0.0
 16
1.0
 26
0.0
 36
0.0
 17
0.0
 27
1.0
 37
0.0
 76
     0
330
2
  0
MLINESTYLE
  5
23
102
{ACAD_REACTORS
330
20
102
}
330
20
100
AcDbMlineStyle
  2
STANDARD
 70
     0
  3

 62
   256
 51
90.0
 52
90.0
 71
     2
 49
0.5
 62
   256
  6
BYLAYER
 49
-0.5
 62
   256
  6
BYLAYER
  0
ACDBPLACEHOLDER
  5
5
102
{ACAD_REACTORS
330
6
102
}
330
6
  0
ACAD_PROXY_OBJECT
  5
2B6
102
{ACAD_REACTORS
330
2B5
102
}
330
2B5
100
AcDbProxyObject
 90
      499
 91
      504
 95
   983063
 70
     0
 93
     1841
310
4214DD185B99185C9928B81E85EB51B8AE3F2E07A17AD46E2B8FC02B5E8DC0F42B1CFD028000000C1008070000C3001FDFF8000000C1003FBFF000000182007F7FE00000030400FEFFC00000060801FDFF8000000C1003FBFF00000018200000000000000681FA0B0000001820100E000186003FBFF000000182007F7FE000
310
00030400FEFFC00000060801FDFF8000000C1003FBFF000000182007F7FE000000304000AD7A3703D0AC73F4160000003040201C00030C007F7FE00000030400FEFFC00000060801FDFF8000000C1003FBFF000000182007F7FE00000030400FEFFC000000608000
340
12
340
12
340
12
 94
        0
  0
XRECORD
  5
40D
102
{ACAD_REACTORS
330
40C
102
}
330
40C
100
AcDbXrecord
340
2B4
  0
XRECORD
  5
40E
102
{ACAD_REACTORS
330
40C
102
}
330
40C
100
AcDbXrecord
340
2B3
  0
DICTIONARYVAR
  5
401
102
{ACAD_REACTORS
330
168
102
}
330
168
100
DictionaryVariables
280
     0
  1
STANDARD
  0
DICTIONARYVAR
  5
16A
102
{ACAD_REACTORS
330
168
102
}
330
168
100
DictionaryVariables
280
     0
  1
2
  0
DICTIONARYVAR
  5
169
102
{ACAD_REACTORS
330
168
102
}
330
168
100
DictionaryVariables
280
     0
  1
1
  0
DICTIONARY
  5
40F
330
F
100
AcDbDictionary
280
     1
281
     1
  3
ACAD_XREC_ROUNDTRIP
360
410
  0
DICTIONARY
  5
411
330
A
100
AcDbDictionary
280
     1
281
     1
  3
ACAD_XREC_ROUNDTRIP
360
412
  0
XRECORD
  5
410
102
{ACAD_REACTORS
330
40F
102
}
330
40F
100
AcDbXrecord
102
SHADEPLOT
 70
     0
102
SHADEPLOTRESLEVEL
 70
     2
102
SHADEPLOTCUSTOMDPI
 70
   300
  0
XRECORD
  5
412
102
{ACAD_REACTORS
330
411
102
}
330
411
100
AcDbXrecord
102
SHADEPLOT
 70
     0
102
SHADEPLOTRESLEVEL
 70
     2
102
SHADEPLOTCUSTOMDPI
 70
   300
  0
ENDSEC
  0
EOF
