  0
SECTION
  2
HEADER
  9
$ACADVER
  1
AC1015
  9
$ACADMAINTVER
 70
     6
  9
$DWGCODEPAGE
  3
ANSI_1252
  9
$INSBASE
 10
0.0
 20
0.0
 30
0.0
  9
$EXTMIN
 10
-26.34375000000001
 20
-0.4710307208146265
 30
0.0
  9
$EXTMAX
 10
0.4062500000000036
 20
3.488875299468692
 30
0.0
  9
$LIMMIN
 10
0.0
 20
0.0
  9
$LIMMAX
 10
34.99965
 20
26.6664
  9
$ORTHOMODE
 70
     0
  9
$REGENMODE
 70
     1
  9
$FILLMODE
 70
     1
  9
$QTEXTMODE
 70
     0
  9
$MIRRTEXT
 70
     0
  9
$LTSCALE
 40
1.0
  9
$ATTMODE
 70
     1
  9
$TEXTSIZE
 40
0.299997
  9
$TRACEWID
 40
0.05
  9
$TEXTSTYLE
  7
STANDARD
  9
$CLAYER
  8
0
  9
$CELTYPE
  6
ByLayer
  9
$CECOLOR
 62
   256
  9
$CELTSCALE
 40
1.0
  9
$DISPSILH
 70
     0
  9
$DIMSCALE
 40
3.3333
  9
$DIMASZ
 40
0.125
  9
$DIMEXO
 40
0.062
  9
$DIMDLI
 40
0.375
  9
$DIMRND
 40
0.0
  9
$DIMDLE
 40
0.0
  9
$DIMEXE
 40
0.08
  9
$DIMTP
 40
0.0
  9
$DIMTM
 40
0.0
  9
$DIMTXT
 40
0.09
  9
$DIMCEN
 40
-0.03125
  9
$DIMTSZ
 40
0.0
  9
$DIMTOL
 70
     0
  9
$DIMLIM
 70
     0
  9
$DIMTIH
 70
     1
  9
$DIMTOH
 70
     1
  9
$DIMSE1
 70
     0
  9
$DIMSE2
 70
     0
  9
$DIMTAD
 70
     0
  9
$DIMZIN
 70
     0
  9
$DIMBLK
  1

  9
$DIMASO
 70
     0
  9
$DIMSHO
 70
     0
  9
$DIMPOST
  1

  9
$DIMAPOST
  1

  9
$DIMALT
 70
     0
  9
$DIMALTD
 70
     2
  9
$DIMALTF
 40
25.4
  9
$DIMLFAC
 40
1.0
  9
$DIMTOFL
 70
     0
  9
$DIMTVP
 40
0.0
  9
$DIMTIX
 70
     0
  9
$DIMSOXD
 70
     0
  9
$DIMSAH
 70
     0
  9
$DIMBLK1
  1

  9
$DIMBLK2
  1

  9
$DIMSTYLE
  2
Standard
  9
$DIMCLRD
 70
     0
  9
$DIMCLRE
 70
     0
  9
$DIMCLRT
 70
     0
  9
$DIMTFAC
 40
1.0
  9
$DIMGAP
 40
0.09
  9
$DIMJUST
 70
     0
  9
$DIMSD1
 70
     0
  9
$DIMSD2
 70
     0
  9
$DIMTOLJ
 70
     1
  9
$DIMTZIN
 70
     0
  9
$DIMALTZ
 70
     0
  9
$DIMALTTZ
 70
     0
  9
$DIMUPT
 70
     0
  9
$DIMDEC
 70
     5
  9
$DIMTDEC
 70
     5
  9
$DIMALTU
 70
     5
  9
$DIMALTTD
 70
     2
  9
$DIMTXSTY
  7
STANDARD
  9
$DIMAUNIT
 70
     0
  9
$DIMADEC
 70
     0
  9
$DIMALTRND
 40
0.0
  9
$DIMAZIN
 70
     0
  9
$DIMDSEP
 70
    46
  9
$DIMATFIT
 70
     3
  9
$DIMFRAC
 70
     0
  9
$DIMLDRBLK
  1

  9
$DIMLUNIT
 70
     5
  9
$DIMLWD
 70
    -2
  9
$DIMLWE
 70
    -2
  9
$DIMTMOVE
 70
     2
  9
$LUNITS
 70
     5
  9
$LUPREC
 70
     5
  9
$SKETCHINC
 40
0.1
  9
$FILLETRAD
 40
0.0
  9
$AUNITS
 70
     0
  9
$AUPREC
 70
     0
  9
$MENU
  1
qa
  9
$ELEVATION
 40
0.0
  9
$PELEVATION
 40
0.0
  9
$THICKNESS
 40
0.0
  9
$LIMCHECK
 70
     0
  9
$CHAMFERA
 40
0.40625
  9
$CHAMFERB
 40
0.40625
  9
$CHAMFERC
 40
0.0
  9
$CHAMFERD
 40
0.0
  9
$SKPOLY
 70
     0
  9
$TDCREATE
 40
2450752.908443866
  9
$TDUCREATE
 40
2450753.241777199
  9
$TDUPDATE
 40
2454181.801018426
  9
$TDUUPDATE
 40
2454182.134351759
  9
$TDINDWG
 40
0.0125817824
  9
$TDUSRTIMER
 40
0.0125817824
  9
$USRTIMER
 70
     1
  9
$ANGBASE
 50
0.0
  9
$ANGDIR
 70
     0
  9
$PDMODE
 70
     0
  9
$PDSIZE
 40
0.0
  9
$PLINEWID
 40
0.0
  9
$SPLFRAME
 70
     0
  9
$SPLINETYPE
 70
     6
  9
$SPLINESEGS
 70
     8
  9
$HANDSEED
  5
2AD
  9
$SURFTAB1
 70
     6
  9
$SURFTAB2
 70
     6
  9
$SURFTYPE
 70
     6
  9
$SURFU
 70
     6
  9
$SURFV
 70
     6
  9
$UCSBASE
  2

  9
$UCSNAME
  2

  9
$UCSORG
 10
0.0
 20
0.0
 30
0.0
  9
$UCSXDIR
 10
1.0
 20
0.0
 30
0.0
  9
$UCSYDIR
 10
0.0
 20
1.0
 30
0.0
  9
$UCSORTHOREF
  2

  9
$UCSORTHOVIEW
 70
     0
  9
$UCSORGTOP
 10
0.0
 20
0.0
 30
0.0
  9
$UCSORGBOTTOM
 10
0.0
 20
0.0
 30
0.0
  9
$UCSORGLEFT
 10
0.0
 20
0.0
 30
0.0
  9
$UCSORGRIGHT
 10
0.0
 20
0.0
 30
0.0
  9
$UCSORGFRONT
 10
0.0
 20
0.0
 30
0.0
  9
$UCSORGBACK
 10
0.0
 20
0.0
 30
0.0
  9
$PUCSBASE
  2

  9
$PUCSNAME
  2

  9
$PUCSORG
 10
0.0
 20
0.0
 30
0.0
  9
$PUCSXDIR
 10
1.0
 20
0.0
 30
0.0
  9
$PUCSYDIR
 10
0.0
 20
1.0
 30
0.0
  9
$PUCSORTHOREF
  2

  9
$PUCSORTHOVIEW
 70
     0
  9
$PUCSORGTOP
 10
0.0
 20
0.0
 30
0.0
  9
$PUCSORGBOTTOM
 10
0.0
 20
0.0
 30
0.0
  9
$PUCSORGLEFT
 10
0.0
 20
0.0
 30
0.0
  9
$PUCSORGRIGHT
 10
0.0
 20
0.0
 30
0.0
  9
$PUCSORGFRONT
 10
0.0
 20
0.0
 30
0.0
  9
$PUCSORGBACK
 10
0.0
 20
0.0
 30
0.0
  9
$USERI1
 70
     0
  9
$USERI2
 70
     0
  9
$USERI3
 70
     0
  9
$USERI4
 70
     0
  9
$USERI5
 70
     0
  9
$USERR1
 40
0.0
  9
$USERR2
 40
0.0
  9
$USERR3
 40
0.0
  9
$USERR4
 40
0.0
  9
$USERR5
 40
0.0
  9
$WORLDVIEW
 70
     1
  9
$SHADEDGE
 70
     3
  9
$SHADEDIF
 70
    70
  9
$TILEMODE
 70
     1
  9
$MAXACTVP
 70
    16
  9
$PINSBASE
 10
0.0
 20
0.0
 30
0.0
  9
$PLIMCHECK
 70
     0
  9
$PEXTMIN
 10
1.000000000000000E+20
 20
1.000000000000000E+20
 30
1.000000000000000E+20
  9
$PEXTMAX
 10
-1.000000000000000E+20
 20
-1.000000000000000E+20
 30
-1.000000000000000E+20
  9
$PLIMMIN
 10
0.0
 20
0.0
  9
$PLIMMAX
 10
12.0
 20
9.0
  9
$UNITMODE
 70
     0
  9
$VISRETAIN
 70
     0
  9
$PLINEGEN
 70
     0
  9
$PSLTSCALE
 70
     0
  9
$TREEDEPTH
 70
  3020
  9
$CMLSTYLE
  2
Standard
  9
$CMLJUST
 70
     0
  9
$CMLSCALE
 40
1.0
  9
$PROXYGRAPHICS
 70
     1
  9
$MEASUREMENT
 70
     0
  9
$CELWEIGHT
370
    -1
  9
$ENDCAPS
280
     0
  9
$JOINSTYLE
280
     0
  9
$LWDISPLAY
290
     0
  9
$INSUNITS
 70
     0
  9
$HYPERLINKBASE
  1

  9
$STYLESHEET
  1

  9
$XEDIT
290
     1
  9
$CEPSNTYPE
380
     0
  9
$PSTYLEMODE
290
     1
  9
$FINGERPRINTGUID
  2
{2C958FE2-7060-4C81-952C-9470F3612580}
  9
$VERSIONGUID
  2
{2BB28749-0E29-4E30-9829-6802BDEB52AF}
  9
$EXTNAMES
290
     1
  9
$PSVPSCALE
 40
0.0
  9
$OLESTARTUP
290
     0
  0
ENDSEC
  0
SECTION
  2
CLASSES
  0
CLASS
  1
ACDBDICTIONARYWDFLT
  2
AcDbDictionaryWithDefault
  3
AutoCAD 2000
 90
        0
280
     0
281
     0
  0
CLASS
  1
ACDBPLACEHOLDER
  2
AcDbPlaceHolder
  3
ObjectDBX Classes
 90
        0
280
     0
281
     0
  0
CLASS
  1
LAYOUT
  2
AcDbLayout
  3
ObjectDBX Classes
 90
        0
280
     0
281
     0
  0
CLASS
  1
DICTIONARYVAR
  2
AcDbDictionaryVar
  3
AutoCAD 2000
 90
        0
280
     0
281
     0
  0
CLASS
  1
TABLESTYLE
  2
AcDbTableStyle
  3
ObjectDBX Classes
 90
     2047
280
     1
281
     0
  0
CLASS
  1
SORTENTSTABLE
  2
AcDbSortentsTable
  3
AutoCAD 2000
 90
        0
280
     0
281
     0
  0
ENDSEC
  0
SECTION
  2
TABLES
  0
TABLE
  2
VPORT
  5
19
330
0
100
AcDbSymbolTable
 70
     2
  0
VPORT
  5
29F
330
19
100
AcDbSymbolTableRecord
100
AcDbViewportTableRecord
  2
*Active
 70
     0
 10
0.0
 20
0.0
 11
1.0
 21
1.0
 12
9.585721517311896
 22
13.09679288965528
 13
0.0
 23
0.0
 14
0.063
 24
0.063
 15
0.25
 25
0.25
 16
0.0
 26
0.0
 36
1.0
 17
0.0
 27
0.0
 37
0.0
 40
39.77110624621754
 41
1.814583333333333
 42
50.0
 43
0.0
 44
0.0
 50
0.0
 51
0.0
 71
     0
 72
   100
 73
     1
 74
     0
 75
     0
 76
     0
 77
     0
 78
     0
281
     0
 65
     1
110
0.0
120
0.0
130
0.0
111
1.0
121
0.0
131
0.0
112
0.0
122
1.0
132
0.0
 79
     0
146
0.0
  0
ENDTAB
  0
TABLE
  2
LTYPE
  5
14
330
0
100
AcDbSymbolTable
 70
     1
  0
LTYPE
  5
15
330
14
100
AcDbSymbolTableRecord
100
AcDbLinetypeTableRecord
  2
ByBlock
 70
     0
  3

 72
    65
 73
     0
 40
0.0
  0
LTYPE
  5
16
330
14
100
AcDbSymbolTableRecord
100
AcDbLinetypeTableRecord
  2
ByLayer
 70
     0
  3

 72
    65
 73
     0
 40
0.0
  0
LTYPE
  5
8
330
14
100
AcDbSymbolTableRecord
100
AcDbLinetypeTableRecord
  2
CONTINUOUS
 70
     0
  3
Solid line
 72
    65
 73
     0
 40
0.0
  0
ENDTAB
  0
TABLE
  2
LAYER
  5
10
330
0
100
AcDbSymbolTable
 70
     2
  0
LAYER
  5
4
330
10
100
AcDbSymbolTableRecord
100
AcDbLayerTableRecord
  2
0
 70
     0
 62
     7
  6
CONTINUOUS
370
    -3
390
5
  0
ENDTAB
  0
TABLE
  2
STYLE
  5
11
330
0
100
AcDbSymbolTable
 70
     1
  0
STYLE
  5
12
330
11
100
AcDbSymbolTableRecord
100
AcDbTextStyleTableRecord
  2
STANDARD
 70
     0
 40
0.0
 41
1.0
 50
0.0
 71
     0
 42
0.299997
  3
TXT
  4

  0
ENDTAB
  0
TABLE
  2
VIEW
  5
17
330
0
100
AcDbSymbolTable
 70
     0
  0
ENDTAB
  0
TABLE
  2
UCS
  5
18
330
0
100
AcDbSymbolTable
 70
     0
  0
ENDTAB
  0
TABLE
  2
APPID
  5
1B
330
0
100
AcDbSymbolTable
 70
     1
  0
APPID
  5
1C
330
1B
100
AcDbSymbolTableRecord
100
AcDbRegAppTableRecord
  2
ACAD
 70
     0
  0
ENDTAB
  0
TABLE
  2
DIMSTYLE
  5
1D
330
0
100
AcDbSymbolTable
 70
     1
100
AcDbDimStyleTable
  0
DIMSTYLE
105
24
330
1D
100
AcDbSymbolTableRecord
100
AcDbDimStyleTableRecord
  2
Standard
 70
     0
  3

  4

340
12
  0
ENDTAB
  0
TABLE
  2
BLOCK_RECORD
  5
1
330
0
100
AcDbSymbolTable
 70
     0
  0
BLOCK_RECORD
  5
2
102
{ACAD_XDICTIONARY
360
291
102
}
330
1
100
AcDbSymbolTableRecord
100
AcDbBlockTableRecord
  2
*Model_Space
340
A
  0
BLOCK_RECORD
  5
C
330
1
100
AcDbSymbolTableRecord
100
AcDbBlockTableRecord
  2
*Paper_Space
340
F
  0
ENDTAB
  0
ENDSEC
  0
SECTION
  2
BLOCKS
  0
BLOCK
  5
3
330
2
100
AcDbEntity
  8
0
100
AcDbBlockBegin
  2
*Model_Space
 70
     0
 10
0.0
 20
0.0
 30
0.0
  3
*Model_Space
  1

  4

  0
ENDBLK
  5
9
330
2
100
AcDbEntity
  8
0
100
AcDbBlockEnd
  0
BLOCK
  5
D
330
C
100
AcDbEntity
 67
     1
  8
0
100
AcDbBlockBegin
  2
*Paper_Space
 70
     0
 10
0.0
 20
0.0
 30
0.0
  3
*Paper_Space
  1

  4

  0
ENDBLK
  5
E
330
C
100
AcDbEntity
 67
     1
  8
0
100
AcDbBlockEnd
  0
ENDSEC
  0
SECTION
  2
ENTITIES
  0
LINE
  5
162
330
2
100
AcDbEntity
  8
0
100
AcDbLine
 10
-20.51466136745419
 20
2.999999999999986
 30
0.0
 11
0.0000000000000036
 21
2.999999999999996
 31
0.0
  0
LINE
  5
163
330
2
100
AcDbEntity
  8
0
100
AcDbLine
 10
-20.40394096221579
 20
0.0000000000000036
 30
0.0
 11
0.0
 21
0.0
 31
0.0
  0
LWPOLYLINE
  5
164
330
2
100
AcDbEntity
  8
0
100
AcDbPolyline
 90
       16
 70
     0
 43
0.0
 10
-20.54446284838179
 20
3.488875299468692
 10
-20.74510297523311
 20
3.238248363182933
 10
-20.69494290159136
 20
2.837245197709665
 10
-20.51938281156092
 20
2.636743558792986
 10
-20.6447829956653
 20
2.361053917642645
 10
-20.59462292202355
 20
2.260803210544395
 10
-20.56954288520267
 20
1.834737340206544
 10
-20.77018301205399
 20
1.634235813649957
 10
-20.56954288520267
 20
1.508922289327032
 10
-20.69494290159136
 20
1.082856418989179
 10
-20.54446284838179
 20
0.9575430070263469
 10
-20.56954288520267
 20
0.5565398415530805
 10
-20.69494290159136
 20
0.3811009075009864
 10
-20.61970295884443
 20
0.0302231517568892
 10
-20.54446284838179
 20
-0.1201529650705293
 10
-20.66986303248618
 20
-0.4710307208146265
  0
LWPOLYLINE
  5
165
330
2
100
AcDbEntity
  8
0
100
AcDbPolyline
 90
       16
 70
     0
 43
0.0
 10
-20.34382288924617
 20
3.488875299468692
 10
-20.54446301609749
 20
3.238248363182933
 10
-20.49430294245573
 20
2.837245197709665
 10
-20.31874285242529
 20
2.636743558792986
 10
-20.44414303652967
 20
2.361053917642645
 10
-20.39398296288792
 20
2.260803210544395
 10
-20.36890292606704
 20
1.834737340206544
 10
-20.56954305291836
 20
1.634235813649957
 10
-20.36890292606704
 20
1.508922289327032
 10
-20.49430294245573
 20
1.082856418989179
 10
-20.34382288924617
 20
0.9575430070263469
 10
-20.36890292606704
 20
0.5565398415530805
 10
-20.49430294245573
 20
0.3811009075009864
 10
-20.4190629997088
 20
0.0302231517568892
 10
-20.34382288924617
 20
-0.1201529650705293
 10
-20.46922307335055
 20
-0.4710307208146265
  0
LINE
  5
166
330
2
100
AcDbEntity
  8
0
100
AcDbLine
 10
-25.93750000000001
 20
0.0000000000000053
 30
0.0
 11
-26.34375000000001
 21
0.4062500000000053
 31
0.0
  0
LINE
  5
167
330
2
100
AcDbEntity
  8
0
100
AcDbLine
 10
-25.93750000000001
 20
0.0000000000000053
 30
0.0
 11
-20.60458092135142
 21
0.0000000000000036
 31
0.0
  0
LINE
  5
168
330
2
100
AcDbEntity
  8
0
100
AcDbLine
 10
-25.93750000000001
 20
2.999999999999986
 30
0.0
 11
-20.71530132658982
 21
2.999999999999986
 31
0.0
  0
LINE
  5
169
330
2
100
AcDbEntity
  8
0
100
AcDbLine
 10
-26.34375000000001
 20
2.593749999999986
 30
0.0
 11
-26.34375000000001
 21
0.4062500000000053
 31
0.0
  0
ARC
  5
16A
330
2
100
AcDbEntity
  8
0
100
AcDbCircle
 10
-24.21875000000001
 20
2.398000000000003
 30
0.0
 40
0.0855
100
AcDbArc
 50
180.0
 51
0.0
  0
ARC
  5
16B
330
2
100
AcDbEntity
  8
0
100
AcDbCircle
 10
-24.21875000000001
 20
2.398000000000003
 30
0.0
 40
0.11675
100
AcDbArc
 50
180.0
 51
0.0
  0
CIRCLE
  5
16C
330
2
100
AcDbEntity
  8
0
100
AcDbCircle
 10
-24.96875000000006
 20
1.500000000000348
 30
0.0
 40
0.28125
  0
LINE
  5
16D
330
2
100
AcDbEntity
  8
0
100
AcDbLine
 10
-25.60200000000002
 20
0.5230000000000104
 30
0.0
 11
-25.60200000000002
 21
0.602000000000011
 31
0.0
  0
ARC
  5
16E
330
2
100
AcDbEntity
  8
0
100
AcDbCircle
 10
-25.71875000000001
 20
0.5230000000000104
 30
0.0
 40
0.11675
100
AcDbArc
 50
180.0
 51
0.0
  0
LINE
  5
16F
330
2
100
AcDbEntity
  8
0
100
AcDbLine
 10
-25.83550000000003
 20
0.5230000000000104
 30
0.0
 11
-25.83550000000003
 21
0.602000000000011
 31
0.0
  0
ARC
  5
170
330
2
100
AcDbEntity
  8
0
100
AcDbCircle
 10
-25.71875000000001
 20
0.602000000000011
 30
0.0
 40
0.11675
100
AcDbArc
 50
0.0
 51
180.0
  0
LINE
  5
171
330
2
100
AcDbEntity
  8
0
100
AcDbLine
 10
-25.63325000000002
 20
0.5230000000000104
 30
0.0
 11
-25.63325000000002
 21
0.602000000000011
 31
0.0
  0
LINE
  5
172
330
2
100
AcDbEntity
  8
0
100
AcDbLine
 10
-25.80425000000003
 20
0.5230000000000104
 30
0.0
 11
-25.80425000000003
 21
0.602000000000011
 31
0.0
  0
ARC
  5
173
330
2
100
AcDbEntity
  8
0
100
AcDbCircle
 10
-25.71875000000001
 20
0.5230000000000104
 30
0.0
 40
0.0855
100
AcDbArc
 50
180.0
 51
0.0
  0
ARC
  5
174
330
2
100
AcDbEntity
  8
0
100
AcDbCircle
 10
-25.71875000000001
 20
0.602000000000011
 30
0.0
 40
0.0855
100
AcDbArc
 50
0.0
 51
180.0
  0
LINE
  5
175
330
2
100
AcDbEntity
  8
0
100
AcDbLine
 10
-25.60200000000002
 20
2.023000000000003
 30
0.0
 11
-25.60200000000002
 21
2.102000000000011
 31
0.0
  0
ARC
  5
176
330
2
100
AcDbEntity
  8
0
100
AcDbCircle
 10
-25.71875000000001
 20
2.023000000000003
 30
0.0
 40
0.11675
100
AcDbArc
 50
180.0
 51
0.0
  0
LINE
  5
177
330
2
100
AcDbEntity
  8
0
100
AcDbLine
 10
-25.83550000000003
 20
2.102000000000011
 30
0.0
 11
-25.83550000000003
 21
2.023000000000003
 31
0.0
  0
ARC
  5
178
330
2
100
AcDbEntity
  8
0
100
AcDbCircle
 10
-25.71875000000001
 20
2.102000000000011
 30
0.0
 40
0.11675
100
AcDbArc
 50
0.0
 51
180.0
  0
LINE
  5
179
330
2
100
AcDbEntity
  8
0
100
AcDbLine
 10
-25.63325000000002
 20
2.023000000000003
 30
0.0
 11
-25.63325000000002
 21
2.102000000000011
 31
0.0
  0
LINE
  5
17A
330
2
100
AcDbEntity
  8
0
100
AcDbLine
 10
-25.80425000000003
 20
2.102000000000011
 30
0.0
 11
-25.80425000000003
 21
2.023000000000003
 31
0.0
  0
ARC
  5
17B
330
2
100
AcDbEntity
  8
0
100
AcDbCircle
 10
-25.71875000000001
 20
2.023000000000003
 30
0.0
 40
0.0855
100
AcDbArc
 50
180.0
 51
0.0
  0
ARC
  5
17C
330
2
100
AcDbEntity
  8
0
100
AcDbCircle
 10
-25.71875000000001
 20
2.102000000000011
 30
0.0
 40
0.0855
100
AcDbArc
 50
0.0
 51
180.0
  0
ARC
  5
17D
330
2
100
AcDbEntity
  8
0
100
AcDbCircle
 10
-24.21875000000001
 20
0.977000000000011
 30
0.0
 40
0.0855
100
AcDbArc
 50
0.0
 51
180.0
  0
ARC
  5
17E
330
2
100
AcDbEntity
  8
0
100
AcDbCircle
 10
-24.21875000000001
 20
0.8980000000000032
 30
0.0
 40
0.0855
100
AcDbArc
 50
180.0
 51
0.0
  0
ARC
  5
17F
330
2
100
AcDbEntity
  8
0
100
AcDbCircle
 10
-24.21875000000001
 20
0.977000000000011
 30
0.0
 40
0.11675
100
AcDbArc
 50
0.0
 51
180.0
  0
ARC
  5
180
330
2
100
AcDbEntity
  8
0
100
AcDbCircle
 10
-24.21875000000001
 20
0.8980000000000032
 30
0.0
 40
0.11675
100
AcDbArc
 50
180.0
 51
0.0
  0
LINE
  5
181
330
2
100
AcDbEntity
  8
0
100
AcDbLine
 10
-24.30425000000003
 20
0.977000000000011
 30
0.0
 11
-24.30425000000003
 21
0.8980000000000032
 31
0.0
  0
LINE
  5
182
330
2
100
AcDbEntity
  8
0
100
AcDbLine
 10
-24.33550000000003
 20
0.977000000000011
 30
0.0
 11
-24.33550000000003
 21
0.8980000000000032
 31
0.0
  0
LINE
  5
183
330
2
100
AcDbEntity
  8
0
100
AcDbLine
 10
-24.13325000000002
 20
0.8980000000000032
 30
0.0
 11
-24.13325000000002
 21
0.977000000000011
 31
0.0
  0
LINE
  5
184
330
2
100
AcDbEntity
  8
0
100
AcDbLine
 10
-24.10200000000002
 20
0.8980000000000032
 30
0.0
 11
-24.10200000000002
 21
0.977000000000011
 31
0.0
  0
LINE
  5
185
330
2
100
AcDbEntity
  8
0
100
AcDbLine
 10
-25.93750000000001
 20
2.999999999999986
 30
0.0
 11
-26.34375000000001
 21
2.593749999999986
 31
0.0
  0
ARC
  5
186
330
2
100
AcDbEntity
  8
0
100
AcDbCircle
 10
-24.21875000000001
 20
2.477000000000011
 30
0.0
 40
0.0855
100
AcDbArc
 50
0.0
 51
180.0
  0
ARC
  5
187
330
2
100
AcDbEntity
  8
0
100
AcDbCircle
 10
-24.21875000000001
 20
2.477000000000011
 30
0.0
 40
0.11675
100
AcDbArc
 50
0.0
 51
180.0
  0
LINE
  5
188
330
2
100
AcDbEntity
  8
0
100
AcDbLine
 10
-24.30425000000003
 20
2.398000000000003
 30
0.0
 11
-24.30425000000003
 21
2.477000000000011
 31
0.0
  0
LINE
  5
189
330
2
100
AcDbEntity
  8
0
100
AcDbLine
 10
-24.33550000000003
 20
2.398000000000003
 30
0.0
 11
-24.33550000000003
 21
2.477000000000011
 31
0.0
  0
LINE
  5
18A
330
2
100
AcDbEntity
  8
0
100
AcDbLine
 10
-24.13325000000002
 20
2.477000000000011
 30
0.0
 11
-24.13325000000002
 21
2.398000000000003
 31
0.0
  0
LINE
  5
18B
330
2
100
AcDbEntity
  8
0
100
AcDbLine
 10
-24.10200000000002
 20
2.477000000000011
 30
0.0
 11
-24.10200000000002
 21
2.398000000000003
 31
0.0
  0
ARC
  5
18C
330
2
100
AcDbEntity
  8
0
100
AcDbCircle
 10
-21.21875000000001
 20
2.398000000000003
 30
0.0
 40
0.11675
100
AcDbArc
 50
180.0
 51
0.0
  0
ARC
  5
18D
330
2
100
AcDbEntity
  8
0
100
AcDbCircle
 10
-21.21875000000001
 20
2.398000000000003
 30
0.0
 40
0.0855
100
AcDbArc
 50
180.0
 51
0.0
  0
ARC
  5
18E
330
2
100
AcDbEntity
  8
0
100
AcDbCircle
 10
-19.71875000000001
 20
2.398000000000003
 30
0.0
 40
0.11675
100
AcDbArc
 50
180.0
 51
0.0
  0
ARC
  5
18F
330
2
100
AcDbEntity
  8
0
100
AcDbCircle
 10
-19.71875000000001
 20
2.398000000000003
 30
0.0
 40
0.0855
100
AcDbArc
 50
180.0
 51
0.0
  0
ARC
  5
190
330
2
100
AcDbEntity
  8
0
100
AcDbCircle
 10
-22.71875000000001
 20
0.602000000000011
 30
0.0
 40
0.0855
100
AcDbArc
 50
0.0
 51
180.0
  0
ARC
  5
191
330
2
100
AcDbEntity
  8
0
100
AcDbCircle
 10
-22.71875000000001
 20
0.5230000000000104
 30
0.0
 40
0.0855
100
AcDbArc
 50
180.0
 51
0.0
  0
ARC
  5
192
330
2
100
AcDbEntity
  8
0
100
AcDbCircle
 10
-22.71875000000001
 20
0.602000000000011
 30
0.0
 40
0.11675
100
AcDbArc
 50
0.0
 51
180.0
  0
ARC
  5
193
330
2
100
AcDbEntity
  8
0
100
AcDbCircle
 10
-22.71875000000001
 20
0.5230000000000104
 30
0.0
 40
0.11675
100
AcDbArc
 50
180.0
 51
0.0
  0
LINE
  5
194
330
2
100
AcDbEntity
  8
0
100
AcDbLine
 10
-22.80425000000003
 20
0.5230000000000104
 30
0.0
 11
-22.80425000000003
 21
0.602000000000011
 31
0.0
  0
LINE
  5
195
330
2
100
AcDbEntity
  8
0
100
AcDbLine
 10
-22.83550000000003
 20
0.5230000000000104
 30
0.0
 11
-22.83550000000003
 21
0.602000000000011
 31
0.0
  0
LINE
  5
196
330
2
100
AcDbEntity
  8
0
100
AcDbLine
 10
-22.63325000000002
 20
0.5230000000000104
 30
0.0
 11
-22.63325000000002
 21
0.602000000000011
 31
0.0
  0
LINE
  5
197
330
2
100
AcDbEntity
  8
0
100
AcDbLine
 10
-22.60200000000002
 20
0.5230000000000104
 30
0.0
 11
-22.60200000000002
 21
0.602000000000011
 31
0.0
  0
ARC
  5
198
330
2
100
AcDbEntity
  8
0
100
AcDbCircle
 10
-22.71875000000001
 20
2.102000000000011
 30
0.0
 40
0.0855
100
AcDbArc
 50
0.0
 51
180.0
  0
ARC
  5
199
330
2
100
AcDbEntity
  8
0
100
AcDbCircle
 10
-22.71875000000001
 20
2.023000000000003
 30
0.0
 40
0.0855
100
AcDbArc
 50
180.0
 51
0.0
  0
ARC
  5
19A
330
2
100
AcDbEntity
  8
0
100
AcDbCircle
 10
-22.71875000000001
 20
2.102000000000011
 30
0.0
 40
0.11675
100
AcDbArc
 50
0.0
 51
180.0
  0
ARC
  5
19B
330
2
100
AcDbEntity
  8
0
100
AcDbCircle
 10
-22.71875000000001
 20
2.023000000000003
 30
0.0
 40
0.11675
100
AcDbArc
 50
180.0
 51
0.0
  0
LINE
  5
19C
330
2
100
AcDbEntity
  8
0
100
AcDbLine
 10
-22.80425000000003
 20
2.102000000000011
 30
0.0
 11
-22.80425000000003
 21
2.023000000000003
 31
0.0
  0
LINE
  5
19D
330
2
100
AcDbEntity
  8
0
100
AcDbLine
 10
-22.83550000000003
 20
2.102000000000011
 30
0.0
 11
-22.83550000000003
 21
2.023000000000003
 31
0.0
  0
LINE
  5
19E
330
2
100
AcDbEntity
  8
0
100
AcDbLine
 10
-22.63325000000002
 20
2.023000000000003
 30
0.0
 11
-22.63325000000002
 21
2.102000000000011
 31
0.0
  0
LINE
  5
19F
330
2
100
AcDbEntity
  8
0
100
AcDbLine
 10
-22.60200000000002
 20
2.023000000000003
 30
0.0
 11
-22.60200000000002
 21
2.102000000000011
 31
0.0
  0
LINE
  5
1A0
330
2
100
AcDbEntity
  8
0
100
AcDbLine
 10
-21.33550000000001
 20
0.977000000000011
 30
0.0
 11
-21.33550000000001
 21
0.8980000000000032
 31
0.0
  0
ARC
  5
1A1
330
2
100
AcDbEntity
  8
0
100
AcDbCircle
 10
-21.21875000000001
 20
0.8980000000000032
 30
0.0
 40
0.11675
100
AcDbArc
 50
180.0
 51
0.0
  0
LINE
  5
1A2
330
2
100
AcDbEntity
  8
0
100
AcDbLine
 10
-21.10200000000002
 20
0.8980000000000032
 30
0.0
 11
-21.10200000000002
 21
0.977000000000011
 31
0.0
  0
ARC
  5
1A3
330
2
100
AcDbEntity
  8
0
100
AcDbCircle
 10
-21.21875000000001
 20
0.977000000000011
 30
0.0
 40
0.11675
100
AcDbArc
 50
0.0
 51
180.0
  0
ARC
  5
1A4
330
2
100
AcDbEntity
  8
0
100
AcDbCircle
 10
-21.21875000000001
 20
0.8980000000000032
 30
0.0
 40
0.0855
100
AcDbArc
 50
180.0
 51
0.0
  0
ARC
  5
1A5
330
2
100
AcDbEntity
  8
0
100
AcDbCircle
 10
-21.21875000000001
 20
0.977000000000011
 30
0.0
 40
0.0855
100
AcDbArc
 50
0.0
 51
180.0
  0
LINE
  5
1A6
330
2
100
AcDbEntity
  8
0
100
AcDbLine
 10
-21.30425000000001
 20
0.977000000000011
 30
0.0
 11
-21.30425000000001
 21
0.8980000000000032
 31
0.0
  0
LINE
  5
1A7
330
2
100
AcDbEntity
  8
0
100
AcDbLine
 10
-21.13325000000002
 20
0.8980000000000032
 30
0.0
 11
-21.13325000000002
 21
0.977000000000011
 31
0.0
  0
LINE
  5
1A8
330
2
100
AcDbEntity
  8
0
100
AcDbLine
 10
-19.83550000000003
 20
0.977000000000011
 30
0.0
 11
-19.83550000000003
 21
0.8980000000000032
 31
0.0
  0
ARC
  5
1A9
330
2
100
AcDbEntity
  8
0
100
AcDbCircle
 10
-19.71875000000001
 20
0.8980000000000032
 30
0.0
 40
0.11675
100
AcDbArc
 50
180.0
 51
0.0
  0
LINE
  5
1AA
330
2
100
AcDbEntity
  8
0
100
AcDbLine
 10
-19.60200000000002
 20
0.8980000000000032
 30
0.0
 11
-19.60200000000002
 21
0.977000000000011
 31
0.0
  0
ARC
  5
1AB
330
2
100
AcDbEntity
  8
0
100
AcDbCircle
 10
-19.71875000000001
 20
0.977000000000011
 30
0.0
 40
0.11675
100
AcDbArc
 50
0.0
 51
180.0
  0
ARC
  5
1AC
330
2
100
AcDbEntity
  8
0
100
AcDbCircle
 10
-19.71875000000001
 20
0.8980000000000032
 30
0.0
 40
0.0855
100
AcDbArc
 50
180.0
 51
0.0
  0
ARC
  5
1AD
330
2
100
AcDbEntity
  8
0
100
AcDbCircle
 10
-19.71875000000001
 20
0.977000000000011
 30
0.0
 40
0.0855
100
AcDbArc
 50
0.0
 51
180.0
  0
LINE
  5
1AE
330
2
100
AcDbEntity
  8
0
100
AcDbLine
 10
-19.80425000000003
 20
0.977000000000011
 30
0.0
 11
-19.80425000000003
 21
0.8980000000000032
 31
0.0
  0
LINE
  5
1AF
330
2
100
AcDbEntity
  8
0
100
AcDbLine
 10
-19.63325000000002
 20
0.8980000000000032
 30
0.0
 11
-19.63325000000002
 21
0.977000000000011
 31
0.0
  0
LINE
  5
1B0
330
2
100
AcDbEntity
  8
0
100
AcDbLine
 10
-21.33550000000001
 20
2.398000000000003
 30
0.0
 11
-21.33550000000001
 21
2.477000000000011
 31
0.0
  0
LINE
  5
1B1
330
2
100
AcDbEntity
  8
0
100
AcDbLine
 10
-21.10200000000002
 20
2.477000000000011
 30
0.0
 11
-21.10200000000002
 21
2.398000000000003
 31
0.0
  0
ARC
  5
1B2
330
2
100
AcDbEntity
  8
0
100
AcDbCircle
 10
-21.21875000000001
 20
2.477000000000011
 30
0.0
 40
0.11675
100
AcDbArc
 50
0.0
 51
180.0
  0
ARC
  5
1B3
330
2
100
AcDbEntity
  8
0
100
AcDbCircle
 10
-21.21875000000001
 20
2.477000000000011
 30
0.0
 40
0.0855
100
AcDbArc
 50
0.0
 51
180.0
  0
LINE
  5
1B4
330
2
100
AcDbEntity
  8
0
100
AcDbLine
 10
-21.30425000000001
 20
2.398000000000003
 30
0.0
 11
-21.30425000000001
 21
2.477000000000011
 31
0.0
  0
LINE
  5
1B5
330
2
100
AcDbEntity
  8
0
100
AcDbLine
 10
-21.13325000000002
 20
2.477000000000011
 30
0.0
 11
-21.13325000000002
 21
2.398000000000003
 31
0.0
  0
LINE
  5
1B6
330
2
100
AcDbEntity
  8
0
100
AcDbLine
 10
-19.83550000000003
 20
2.398000000000003
 30
0.0
 11
-19.83550000000003
 21
2.477000000000011
 31
0.0
  0
LINE
  5
1B7
330
2
100
AcDbEntity
  8
0
100
AcDbLine
 10
-19.60200000000002
 20
2.477000000000011
 30
0.0
 11
-19.60200000000002
 21
2.398000000000003
 31
0.0
  0
ARC
  5
1B8
330
2
100
AcDbEntity
  8
0
100
AcDbCircle
 10
-19.71875000000001
 20
2.477000000000011
 30
0.0
 40
0.11675
100
AcDbArc
 50
0.0
 51
180.0
  0
ARC
  5
1B9
330
2
100
AcDbEntity
  8
0
100
AcDbCircle
 10
-19.71875000000001
 20
2.477000000000011
 30
0.0
 40
0.0855
100
AcDbArc
 50
0.0
 51
180.0
  0
LINE
  5
1BA
330
2
100
AcDbEntity
  8
0
100
AcDbLine
 10
-19.80425000000003
 20
2.398000000000003
 30
0.0
 11
-19.80425000000003
 21
2.477000000000011
 31
0.0
  0
LINE
  5
1BB
330
2
100
AcDbEntity
  8
0
100
AcDbLine
 10
-19.63325000000002
 20
2.477000000000011
 30
0.0
 11
-19.63325000000002
 21
2.398000000000003
 31
0.0
  0
ARC
  5
1BC
330
2
100
AcDbEntity
  8
0
100
AcDbCircle
 10
-16.71875000000001
 20
2.398000000000003
 30
0.0
 40
0.0855
100
AcDbArc
 50
180.0
 51
0.0
  0
ARC
  5
1BD
330
2
100
AcDbEntity
  8
0
100
AcDbCircle
 10
-16.71875000000001
 20
2.398000000000003
 30
0.0
 40
0.11675
100
AcDbArc
 50
180.0
 51
0.0
  0
LINE
  5
1BE
330
2
100
AcDbEntity
  8
0
100
AcDbLine
 10
-18.10200000000002
 20
0.5230000000000104
 30
0.0
 11
-18.10200000000002
 21
0.602000000000011
 31
0.0
  0
ARC
  5
1BF
330
2
100
AcDbEntity
  8
0
100
AcDbCircle
 10
-18.21875000000001
 20
0.5230000000000104
 30
0.0
 40
0.11675
100
AcDbArc
 50
180.0
 51
0.0
  0
LINE
  5
1C0
330
2
100
AcDbEntity
  8
0
100
AcDbLine
 10
-18.33550000000003
 20
0.5230000000000104
 30
0.0
 11
-18.33550000000003
 21
0.602000000000011
 31
0.0
  0
ARC
  5
1C1
330
2
100
AcDbEntity
  8
0
100
AcDbCircle
 10
-18.21875000000001
 20
0.602000000000011
 30
0.0
 40
0.11675
100
AcDbArc
 50
0.0
 51
180.0
  0
LINE
  5
1C2
330
2
100
AcDbEntity
  8
0
100
AcDbLine
 10
-18.13325000000002
 20
0.5230000000000104
 30
0.0
 11
-18.13325000000002
 21
0.602000000000011
 31
0.0
  0
LINE
  5
1C3
330
2
100
AcDbEntity
  8
0
100
AcDbLine
 10
-18.30425000000003
 20
0.5230000000000104
 30
0.0
 11
-18.30425000000003
 21
0.602000000000011
 31
0.0
  0
ARC
  5
1C4
330
2
100
AcDbEntity
  8
0
100
AcDbCircle
 10
-18.21875000000001
 20
0.5230000000000104
 30
0.0
 40
0.0855
100
AcDbArc
 50
180.0
 51
0.0
  0
ARC
  5
1C5
330
2
100
AcDbEntity
  8
0
100
AcDbCircle
 10
-18.21875000000001
 20
0.602000000000011
 30
0.0
 40
0.0855
100
AcDbArc
 50
0.0
 51
180.0
  0
LINE
  5
1C6
330
2
100
AcDbEntity
  8
0
100
AcDbLine
 10
-18.10200000000002
 20
2.023000000000003
 30
0.0
 11
-18.10200000000002
 21
2.102000000000011
 31
0.0
  0
ARC
  5
1C7
330
2
100
AcDbEntity
  8
0
100
AcDbCircle
 10
-18.21875000000001
 20
2.023000000000003
 30
0.0
 40
0.11675
100
AcDbArc
 50
180.0
 51
0.0
  0
LINE
  5
1C8
330
2
100
AcDbEntity
  8
0
100
AcDbLine
 10
-18.33550000000003
 20
2.102000000000011
 30
0.0
 11
-18.33550000000003
 21
2.023000000000003
 31
0.0
  0
ARC
  5
1C9
330
2
100
AcDbEntity
  8
0
100
AcDbCircle
 10
-18.21875000000001
 20
2.102000000000011
 30
0.0
 40
0.11675
100
AcDbArc
 50
0.0
 51
180.0
  0
LINE
  5
1CA
330
2
100
AcDbEntity
  8
0
100
AcDbLine
 10
-18.13325000000002
 20
2.023000000000003
 30
0.0
 11
-18.13325000000002
 21
2.102000000000011
 31
0.0
  0
LINE
  5
1CB
330
2
100
AcDbEntity
  8
0
100
AcDbLine
 10
-18.30425000000003
 20
2.102000000000011
 30
0.0
 11
-18.30425000000003
 21
2.023000000000003
 31
0.0
  0
ARC
  5
1CC
330
2
100
AcDbEntity
  8
0
100
AcDbCircle
 10
-18.21875000000001
 20
2.023000000000003
 30
0.0
 40
0.0855
100
AcDbArc
 50
180.0
 51
0.0
  0
ARC
  5
1CD
330
2
100
AcDbEntity
  8
0
100
AcDbCircle
 10
-18.21875000000001
 20
2.102000000000011
 30
0.0
 40
0.0855
100
AcDbArc
 50
0.0
 51
180.0
  0
ARC
  5
1CE
330
2
100
AcDbEntity
  8
0
100
AcDbCircle
 10
-16.71875000000001
 20
0.977000000000011
 30
0.0
 40
0.11675
100
AcDbArc
 50
0.0
 51
180.0
  0
ARC
  5
1CF
330
2
100
AcDbEntity
  8
0
100
AcDbCircle
 10
-16.71875000000001
 20
0.8980000000000032
 30
0.0
 40
0.11675
100
AcDbArc
 50
180.0
 51
0.0
  0
LINE
  5
1D0
330
2
100
AcDbEntity
  8
0
100
AcDbLine
 10
-16.63325000000002
 20
0.8980000000000032
 30
0.0
 11
-16.63325000000002
 21
0.977000000000011
 31
0.0
  0
LINE
  5
1D1
330
2
100
AcDbEntity
  8
0
100
AcDbLine
 10
-16.80425000000003
 20
0.977000000000011
 30
0.0
 11
-16.80425000000003
 21
0.8980000000000032
 31
0.0
  0
ARC
  5
1D2
330
2
100
AcDbEntity
  8
0
100
AcDbCircle
 10
-16.71875000000001
 20
0.977000000000011
 30
0.0
 40
0.0855
100
AcDbArc
 50
0.0
 51
180.0
  0
ARC
  5
1D3
330
2
100
AcDbEntity
  8
0
100
AcDbCircle
 10
-16.71875000000001
 20
0.8980000000000032
 30
0.0
 40
0.0855
100
AcDbArc
 50
180.0
 51
0.0
  0
LINE
  5
1D4
330
2
100
AcDbEntity
  8
0
100
AcDbLine
 10
-16.83550000000003
 20
0.977000000000011
 30
0.0
 11
-16.83550000000003
 21
0.8980000000000032
 31
0.0
  0
LINE
  5
1D5
330
2
100
AcDbEntity
  8
0
100
AcDbLine
 10
-16.60200000000002
 20
0.8980000000000032
 30
0.0
 11
-16.60200000000002
 21
0.977000000000011
 31
0.0
  0
ARC
  5
1D6
330
2
100
AcDbEntity
  8
0
100
AcDbCircle
 10
-16.71875000000001
 20
2.477000000000011
 30
0.0
 40
0.11675
100
AcDbArc
 50
0.0
 51
180.0
  0
LINE
  5
1D7
330
2
100
AcDbEntity
  8
0
100
AcDbLine
 10
-16.63325000000002
 20
2.477000000000011
 30
0.0
 11
-16.63325000000002
 21
2.398000000000003
 31
0.0
  0
LINE
  5
1D8
330
2
100
AcDbEntity
  8
0
100
AcDbLine
 10
-16.80425000000003
 20
2.398000000000003
 30
0.0
 11
-16.80425000000003
 21
2.477000000000011
 31
0.0
  0
ARC
  5
1D9
330
2
100
AcDbEntity
  8
0
100
AcDbCircle
 10
-16.71875000000001
 20
2.477000000000011
 30
0.0
 40
0.0855
100
AcDbArc
 50
0.0
 51
180.0
  0
LINE
  5
1DA
330
2
100
AcDbEntity
  8
0
100
AcDbLine
 10
-16.83550000000003
 20
2.398000000000003
 30
0.0
 11
-16.83550000000003
 21
2.477000000000011
 31
0.0
  0
LINE
  5
1DB
330
2
100
AcDbEntity
  8
0
100
AcDbLine
 10
-16.60200000000002
 20
2.477000000000011
 30
0.0
 11
-16.60200000000002
 21
2.398000000000003
 31
0.0
  0
ARC
  5
1DC
330
2
100
AcDbEntity
  8
0
100
AcDbCircle
 10
-13.71875000000001
 20
2.398000000000003
 30
0.0
 40
0.0855
100
AcDbArc
 50
180.0
 51
0.0
  0
ARC
  5
1DD
330
2
100
AcDbEntity
  8
0
100
AcDbCircle
 10
-13.71875000000001
 20
2.398000000000003
 30
0.0
 40
0.11675
100
AcDbArc
 50
180.0
 51
0.0
  0
ARC
  5
1DE
330
2
100
AcDbEntity
  8
0
100
AcDbCircle
 10
-13.71875000000001
 20
0.977000000000011
 30
0.0
 40
0.0855
100
AcDbArc
 50
0.0
 51
180.0
  0
ARC
  5
1DF
330
2
100
AcDbEntity
  8
0
100
AcDbCircle
 10
-13.71875000000001
 20
0.8980000000000032
 30
0.0
 40
0.0855
100
AcDbArc
 50
180.0
 51
0.0
  0
ARC
  5
1E0
330
2
100
AcDbEntity
  8
0
100
AcDbCircle
 10
-13.71875000000001
 20
0.977000000000011
 30
0.0
 40
0.11675
100
AcDbArc
 50
0.0
 51
180.0
  0
ARC
  5
1E1
330
2
100
AcDbEntity
  8
0
100
AcDbCircle
 10
-13.71875000000001
 20
0.8980000000000032
 30
0.0
 40
0.11675
100
AcDbArc
 50
180.0
 51
0.0
  0
CIRCLE
  5
1E2
330
2
100
AcDbEntity
  8
0
100
AcDbCircle
 10
-14.46875
 20
1.500000000000007
 30
0.0
 40
0.28125
  0
ARC
  5
1E3
330
2
100
AcDbEntity
  8
0
100
AcDbCircle
 10
-15.21875000000001
 20
0.602000000000011
 30
0.0
 40
0.0855
100
AcDbArc
 50
0.0
 51
180.0
  0
ARC
  5
1E4
330
2
100
AcDbEntity
  8
0
100
AcDbCircle
 10
-15.21875000000001
 20
0.5230000000000104
 30
0.0
 40
0.0855
100
AcDbArc
 50
180.0
 51
0.0
  0
ARC
  5
1E5
330
2
100
AcDbEntity
  8
0
100
AcDbCircle
 10
-15.21875000000001
 20
0.602000000000011
 30
0.0
 40
0.11675
100
AcDbArc
 50
0.0
 51
180.0
  0
ARC
  5
1E6
330
2
100
AcDbEntity
  8
0
100
AcDbCircle
 10
-15.21875000000001
 20
0.5230000000000104
 30
0.0
 40
0.11675
100
AcDbArc
 50
180.0
 51
0.0
  0
LINE
  5
1E7
330
2
100
AcDbEntity
  8
0
100
AcDbLine
 10
-15.30425000000003
 20
0.5230000000000104
 30
0.0
 11
-15.30425000000003
 21
0.602000000000011
 31
0.0
  0
LINE
  5
1E8
330
2
100
AcDbEntity
  8
0
100
AcDbLine
 10
-15.33550000000003
 20
0.5230000000000104
 30
0.0
 11
-15.33550000000003
 21
0.602000000000011
 31
0.0
  0
LINE
  5
1E9
330
2
100
AcDbEntity
  8
0
100
AcDbLine
 10
-15.13325000000002
 20
0.5230000000000104
 30
0.0
 11
-15.13325000000002
 21
0.602000000000011
 31
0.0
  0
LINE
  5
1EA
330
2
100
AcDbEntity
  8
0
100
AcDbLine
 10
-15.10200000000002
 20
0.5230000000000104
 30
0.0
 11
-15.10200000000002
 21
0.602000000000011
 31
0.0
  0
LINE
  5
1EB
330
2
100
AcDbEntity
  8
0
100
AcDbLine
 10
-13.80425000000003
 20
0.977000000000011
 30
0.0
 11
-13.80425000000003
 21
0.8980000000000032
 31
0.0
  0
LINE
  5
1EC
330
2
100
AcDbEntity
  8
0
100
AcDbLine
 10
-13.83550000000003
 20
0.977000000000011
 30
0.0
 11
-13.83550000000003
 21
0.8980000000000032
 31
0.0
  0
ARC
  5
1ED
330
2
100
AcDbEntity
  8
0
100
AcDbCircle
 10
-15.21875000000001
 20
2.102000000000011
 30
0.0
 40
0.0855
100
AcDbArc
 50
0.0
 51
180.0
  0
ARC
  5
1EE
330
2
100
AcDbEntity
  8
0
100
AcDbCircle
 10
-15.21875000000001
 20
2.023000000000003
 30
0.0
 40
0.0855
100
AcDbArc
 50
180.0
 51
0.0
  0
ARC
  5
1EF
330
2
100
AcDbEntity
  8
0
100
AcDbCircle
 10
-15.21875000000001
 20
2.102000000000011
 30
0.0
 40
0.11675
100
AcDbArc
 50
0.0
 51
180.0
  0
ARC
  5
1F0
330
2
100
AcDbEntity
  8
0
100
AcDbCircle
 10
-15.21875000000001
 20
2.023000000000003
 30
0.0
 40
0.11675
100
AcDbArc
 50
180.0
 51
0.0
  0
LINE
  5
1F1
330
2
100
AcDbEntity
  8
0
100
AcDbLine
 10
-15.30425000000003
 20
2.102000000000011
 30
0.0
 11
-15.30425000000003
 21
2.023000000000003
 31
0.0
  0
LINE
  5
1F2
330
2
100
AcDbEntity
  8
0
100
AcDbLine
 10
-15.33550000000003
 20
2.102000000000011
 30
0.0
 11
-15.33550000000003
 21
2.023000000000003
 31
0.0
  0
LINE
  5
1F3
330
2
100
AcDbEntity
  8
0
100
AcDbLine
 10
-15.13325000000002
 20
2.023000000000003
 30
0.0
 11
-15.13325000000002
 21
2.102000000000011
 31
0.0
  0
LINE
  5
1F4
330
2
100
AcDbEntity
  8
0
100
AcDbLine
 10
-15.10200000000002
 20
2.023000000000003
 30
0.0
 11
-15.10200000000002
 21
2.102000000000011
 31
0.0
  0
LINE
  5
1F5
330
2
100
AcDbEntity
  8
0
100
AcDbLine
 10
-13.63325000000002
 20
0.8980000000000032
 30
0.0
 11
-13.63325000000002
 21
0.977000000000011
 31
0.0
  0
LINE
  5
1F6
330
2
100
AcDbEntity
  8
0
100
AcDbLine
 10
-13.60200000000002
 20
0.8980000000000032
 30
0.0
 11
-13.60200000000002
 21
0.977000000000011
 31
0.0
  0
ARC
  5
1F7
330
2
100
AcDbEntity
  8
0
100
AcDbCircle
 10
-12.21875000000001
 20
0.602000000000011
 30
0.0
 40
0.0855
100
AcDbArc
 50
0.0
 51
180.0
  0
ARC
  5
1F8
330
2
100
AcDbEntity
  8
0
100
AcDbCircle
 10
-12.21875000000001
 20
0.5230000000000104
 30
0.0
 40
0.0855
100
AcDbArc
 50
180.0
 51
0.0
  0
LINE
  5
1F9
330
2
100
AcDbEntity
  8
0
100
AcDbLine
 10
-12.30425000000003
 20
0.5230000000000104
 30
0.0
 11
-12.30425000000003
 21
0.602000000000011
 31
0.0
  0
LINE
  5
1FA
330
2
100
AcDbEntity
  8
0
100
AcDbLine
 10
-12.13325000000002
 20
0.5230000000000104
 30
0.0
 11
-12.13325000000002
 21
0.602000000000011
 31
0.0
  0
ARC
  5
1FB
330
2
100
AcDbEntity
  8
0
100
AcDbCircle
 10
-12.21875000000001
 20
0.602000000000011
 30
0.0
 40
0.11675
100
AcDbArc
 50
0.0
 51
180.0
  0
LINE
  5
1FC
330
2
100
AcDbEntity
  8
0
100
AcDbLine
 10
-12.33550000000003
 20
0.5230000000000104
 30
0.0
 11
-12.33550000000003
 21
0.602000000000011
 31
0.0
  0
ARC
  5
1FD
330
2
100
AcDbEntity
  8
0
100
AcDbCircle
 10
-12.21875000000001
 20
0.5230000000000104
 30
0.0
 40
0.11675
100
AcDbArc
 50
180.0
 51
0.0
  0
LINE
  5
1FE
330
2
100
AcDbEntity
  8
0
100
AcDbLine
 10
-12.10200000000002
 20
0.5230000000000104
 30
0.0
 11
-12.10200000000002
 21
0.602000000000011
 31
0.0
  0
ARC
  5
1FF
330
2
100
AcDbEntity
  8
0
100
AcDbCircle
 10
-12.21875000000001
 20
2.102000000000011
 30
0.0
 40
0.0855
100
AcDbArc
 50
0.0
 51
180.0
  0
ARC
  5
200
330
2
100
AcDbEntity
  8
0
100
AcDbCircle
 10
-12.21875000000001
 20
2.023000000000003
 30
0.0
 40
0.0855
100
AcDbArc
 50
180.0
 51
0.0
  0
LINE
  5
201
330
2
100
AcDbEntity
  8
0
100
AcDbLine
 10
-12.30425000000003
 20
2.102000000000011
 30
0.0
 11
-12.30425000000003
 21
2.023000000000003
 31
0.0
  0
LINE
  5
202
330
2
100
AcDbEntity
  8
0
100
AcDbLine
 10
-12.13325000000002
 20
2.023000000000003
 30
0.0
 11
-12.13325000000002
 21
2.102000000000011
 31
0.0
  0
ARC
  5
203
330
2
100
AcDbEntity
  8
0
100
AcDbCircle
 10
-12.21875000000001
 20
2.102000000000011
 30
0.0
 40
0.11675
100
AcDbArc
 50
0.0
 51
180.0
  0
LINE
  5
204
330
2
100
AcDbEntity
  8
0
100
AcDbLine
 10
-12.33550000000003
 20
2.102000000000011
 30
0.0
 11
-12.33550000000003
 21
2.023000000000003
 31
0.0
  0
ARC
  5
205
330
2
100
AcDbEntity
  8
0
100
AcDbCircle
 10
-12.21875000000001
 20
2.023000000000003
 30
0.0
 40
0.11675
100
AcDbArc
 50
180.0
 51
0.0
  0
LINE
  5
206
330
2
100
AcDbEntity
  8
0
100
AcDbLine
 10
-12.10200000000002
 20
2.023000000000003
 30
0.0
 11
-12.10200000000002
 21
2.102000000000011
 31
0.0
  0
ARC
  5
207
330
2
100
AcDbEntity
  8
0
100
AcDbCircle
 10
-13.71875000000001
 20
2.477000000000011
 30
0.0
 40
0.0855
100
AcDbArc
 50
0.0
 51
180.0
  0
ARC
  5
208
330
2
100
AcDbEntity
  8
0
100
AcDbCircle
 10
-13.71875000000001
 20
2.477000000000011
 30
0.0
 40
0.11675
100
AcDbArc
 50
0.0
 51
180.0
  0
LINE
  5
209
330
2
100
AcDbEntity
  8
0
100
AcDbLine
 10
-13.80425000000003
 20
2.398000000000003
 30
0.0
 11
-13.80425000000003
 21
2.477000000000011
 31
0.0
  0
LINE
  5
20A
330
2
100
AcDbEntity
  8
0
100
AcDbLine
 10
-13.83550000000003
 20
2.398000000000003
 30
0.0
 11
-13.83550000000003
 21
2.477000000000011
 31
0.0
  0
LINE
  5
20B
330
2
100
AcDbEntity
  8
0
100
AcDbLine
 10
-13.63325000000002
 20
2.477000000000011
 30
0.0
 11
-13.63325000000002
 21
2.398000000000003
 31
0.0
  0
LINE
  5
20C
330
2
100
AcDbEntity
  8
0
100
AcDbLine
 10
-13.60200000000002
 20
2.477000000000011
 30
0.0
 11
-13.60200000000002
 21
2.398000000000003
 31
0.0
  0
ARC
  5
20D
330
2
100
AcDbEntity
  8
0
100
AcDbCircle
 10
-10.71875000000001
 20
2.398000000000003
 30
0.0
 40
0.0855
100
AcDbArc
 50
180.0
 51
0.0
  0
ARC
  5
20E
330
2
100
AcDbEntity
  8
0
100
AcDbCircle
 10
-10.71875000000001
 20
2.398000000000003
 30
0.0
 40
0.11675
100
AcDbArc
 50
180.0
 51
0.0
  0
LINE
  5
20F
330
2
100
AcDbEntity
  8
0
100
AcDbLine
 10
-10.63325000000002
 20
0.8980000000000032
 30
0.0
 11
-10.63325000000002
 21
0.977000000000011
 31
0.0
  0
LINE
  5
210
330
2
100
AcDbEntity
  8
0
100
AcDbLine
 10
-10.80425000000003
 20
0.977000000000011
 30
0.0
 11
-10.80425000000003
 21
0.8980000000000032
 31
0.0
  0
ARC
  5
211
330
2
100
AcDbEntity
  8
0
100
AcDbCircle
 10
-10.71875000000001
 20
0.977000000000011
 30
0.0
 40
0.0855
100
AcDbArc
 50
0.0
 51
180.0
  0
ARC
  5
212
330
2
100
AcDbEntity
  8
0
100
AcDbCircle
 10
-10.71875000000001
 20
0.8980000000000032
 30
0.0
 40
0.0855
100
AcDbArc
 50
180.0
 51
0.0
  0
ARC
  5
213
330
2
100
AcDbEntity
  8
0
100
AcDbCircle
 10
-10.71875000000001
 20
0.977000000000011
 30
0.0
 40
0.11675
100
AcDbArc
 50
0.0
 51
180.0
  0
LINE
  5
214
330
2
100
AcDbEntity
  8
0
100
AcDbLine
 10
-10.60200000000002
 20
0.8980000000000032
 30
0.0
 11
-10.60200000000002
 21
0.977000000000011
 31
0.0
  0
ARC
  5
215
330
2
100
AcDbEntity
  8
0
100
AcDbCircle
 10
-10.71875000000001
 20
0.8980000000000032
 30
0.0
 40
0.11675
100
AcDbArc
 50
180.0
 51
0.0
  0
LINE
  5
216
330
2
100
AcDbEntity
  8
0
100
AcDbLine
 10
-10.83550000000003
 20
0.977000000000011
 30
0.0
 11
-10.83550000000003
 21
0.8980000000000032
 31
0.0
  0
ARC
  5
217
330
2
100
AcDbEntity
  8
0
100
AcDbCircle
 10
-9.218750000000014
 20
0.602000000000011
 30
0.0
 40
0.0855
100
AcDbArc
 50
0.0
 51
180.0
  0
ARC
  5
218
330
2
100
AcDbEntity
  8
0
100
AcDbCircle
 10
-9.218750000000014
 20
0.5230000000000104
 30
0.0
 40
0.0855
100
AcDbArc
 50
180.0
 51
0.0
  0
LINE
  5
219
330
2
100
AcDbEntity
  8
0
100
AcDbLine
 10
-9.304250000000025
 20
0.5230000000000104
 30
0.0
 11
-9.304250000000025
 21
0.602000000000011
 31
0.0
  0
LINE
  5
21A
330
2
100
AcDbEntity
  8
0
100
AcDbLine
 10
-9.133250000000018
 20
0.5230000000000104
 30
0.0
 11
-9.133250000000018
 21
0.602000000000011
 31
0.0
  0
ARC
  5
21B
330
2
100
AcDbEntity
  8
0
100
AcDbCircle
 10
-9.218750000000014
 20
0.602000000000011
 30
0.0
 40
0.11675
100
AcDbArc
 50
0.0
 51
180.0
  0
LINE
  5
21C
330
2
100
AcDbEntity
  8
0
100
AcDbLine
 10
-9.335500000000025
 20
0.5230000000000104
 30
0.0
 11
-9.335500000000025
 21
0.602000000000011
 31
0.0
  0
ARC
  5
21D
330
2
100
AcDbEntity
  8
0
100
AcDbCircle
 10
-9.218750000000014
 20
0.5230000000000104
 30
0.0
 40
0.11675
100
AcDbArc
 50
180.0
 51
0.0
  0
LINE
  5
21E
330
2
100
AcDbEntity
  8
0
100
AcDbLine
 10
-9.102000000000018
 20
0.5230000000000104
 30
0.0
 11
-9.102000000000018
 21
0.602000000000011
 31
0.0
  0
ARC
  5
21F
330
2
100
AcDbEntity
  8
0
100
AcDbCircle
 10
-9.218750000000014
 20
2.102000000000011
 30
0.0
 40
0.0855
100
AcDbArc
 50
0.0
 51
180.0
  0
ARC
  5
220
330
2
100
AcDbEntity
  8
0
100
AcDbCircle
 10
-9.218750000000014
 20
2.023000000000003
 30
0.0
 40
0.0855
100
AcDbArc
 50
180.0
 51
0.0
  0
LINE
  5
221
330
2
100
AcDbEntity
  8
0
100
AcDbLine
 10
-9.304250000000025
 20
2.102000000000011
 30
0.0
 11
-9.304250000000025
 21
2.023000000000003
 31
0.0
  0
LINE
  5
222
330
2
100
AcDbEntity
  8
0
100
AcDbLine
 10
-9.133250000000018
 20
2.023000000000003
 30
0.0
 11
-9.133250000000018
 21
2.102000000000011
 31
0.0
  0
ARC
  5
223
330
2
100
AcDbEntity
  8
0
100
AcDbCircle
 10
-9.218750000000014
 20
2.102000000000011
 30
0.0
 40
0.11675
100
AcDbArc
 50
0.0
 51
180.0
  0
LINE
  5
224
330
2
100
AcDbEntity
  8
0
100
AcDbLine
 10
-9.335500000000025
 20
2.102000000000011
 30
0.0
 11
-9.335500000000025
 21
2.023000000000003
 31
0.0
  0
ARC
  5
225
330
2
100
AcDbEntity
  8
0
100
AcDbCircle
 10
-9.218750000000014
 20
2.023000000000003
 30
0.0
 40
0.11675
100
AcDbArc
 50
180.0
 51
0.0
  0
LINE
  5
226
330
2
100
AcDbEntity
  8
0
100
AcDbLine
 10
-9.102000000000018
 20
2.023000000000003
 30
0.0
 11
-9.102000000000018
 21
2.102000000000011
 31
0.0
  0
LINE
  5
227
330
2
100
AcDbEntity
  8
0
100
AcDbLine
 10
-10.63325000000002
 20
2.477000000000011
 30
0.0
 11
-10.63325000000002
 21
2.398000000000003
 31
0.0
  0
LINE
  5
228
330
2
100
AcDbEntity
  8
0
100
AcDbLine
 10
-10.80425000000003
 20
2.398000000000003
 30
0.0
 11
-10.80425000000003
 21
2.477000000000011
 31
0.0
  0
ARC
  5
229
330
2
100
AcDbEntity
  8
0
100
AcDbCircle
 10
-10.71875000000001
 20
2.477000000000011
 30
0.0
 40
0.0855
100
AcDbArc
 50
0.0
 51
180.0
  0
ARC
  5
22A
330
2
100
AcDbEntity
  8
0
100
AcDbCircle
 10
-10.71875000000001
 20
2.477000000000011
 30
0.0
 40
0.11675
100
AcDbArc
 50
0.0
 51
180.0
  0
LINE
  5
22B
330
2
100
AcDbEntity
  8
0
100
AcDbLine
 10
-10.60200000000002
 20
2.477000000000011
 30
0.0
 11
-10.60200000000002
 21
2.398000000000003
 31
0.0
  0
LINE
  5
22C
330
2
100
AcDbEntity
  8
0
100
AcDbLine
 10
-10.83550000000003
 20
2.398000000000003
 30
0.0
 11
-10.83550000000003
 21
2.477000000000011
 31
0.0
  0
ARC
  5
22D
330
2
100
AcDbEntity
  8
0
100
AcDbCircle
 10
-4.718750000000014
 20
2.398000000000003
 30
0.0
 40
0.0855
100
AcDbArc
 50
180.0
 51
0.0
  0
ARC
  5
22E
330
2
100
AcDbEntity
  8
0
100
AcDbCircle
 10
-4.718750000000014
 20
2.398000000000003
 30
0.0
 40
0.11675
100
AcDbArc
 50
180.0
 51
0.0
  0
ARC
  5
22F
330
2
100
AcDbEntity
  8
0
100
AcDbCircle
 10
-7.718750000000014
 20
2.398000000000003
 30
0.0
 40
0.0855
100
AcDbArc
 50
180.0
 51
0.0
  0
ARC
  5
230
330
2
100
AcDbEntity
  8
0
100
AcDbCircle
 10
-7.718750000000014
 20
2.398000000000003
 30
0.0
 40
0.11675
100
AcDbArc
 50
180.0
 51
0.0
  0
ARC
  5
231
330
2
100
AcDbEntity
  8
0
100
AcDbCircle
 10
-6.218750000000014
 20
2.102000000000011
 30
0.0
 40
0.0855
100
AcDbArc
 50
0.0
 51
180.0
  0
ARC
  5
232
330
2
100
AcDbEntity
  8
0
100
AcDbCircle
 10
-6.218750000000014
 20
2.023000000000003
 30
0.0
 40
0.0855
100
AcDbArc
 50
180.0
 51
0.0
  0
ARC
  5
233
330
2
100
AcDbEntity
  8
0
100
AcDbCircle
 10
-6.218750000000014
 20
2.102000000000011
 30
0.0
 40
0.11675
100
AcDbArc
 50
0.0
 51
180.0
  0
ARC
  5
234
330
2
100
AcDbEntity
  8
0
100
AcDbCircle
 10
-6.218750000000014
 20
2.023000000000003
 30
0.0
 40
0.11675
100
AcDbArc
 50
180.0
 51
0.0
  0
ARC
  5
235
330
2
100
AcDbEntity
  8
0
100
AcDbCircle
 10
-6.218750000000014
 20
0.602000000000011
 30
0.0
 40
0.0855
100
AcDbArc
 50
0.0
 51
180.0
  0
ARC
  5
236
330
2
100
AcDbEntity
  8
0
100
AcDbCircle
 10
-6.218750000000014
 20
0.5230000000000104
 30
0.0
 40
0.0855
100
AcDbArc
 50
180.0
 51
0.0
  0
ARC
  5
237
330
2
100
AcDbEntity
  8
0
100
AcDbCircle
 10
-6.218750000000014
 20
0.602000000000011
 30
0.0
 40
0.11675
100
AcDbArc
 50
0.0
 51
180.0
  0
ARC
  5
238
330
2
100
AcDbEntity
  8
0
100
AcDbCircle
 10
-6.218750000000014
 20
0.5230000000000104
 30
0.0
 40
0.11675
100
AcDbArc
 50
180.0
 51
0.0
  0
ARC
  5
239
330
2
100
AcDbEntity
  8
0
100
AcDbCircle
 10
-7.718750000000014
 20
0.977000000000011
 30
0.0
 40
0.0855
100
AcDbArc
 50
0.0
 51
180.0
  0
ARC
  5
23A
330
2
100
AcDbEntity
  8
0
100
AcDbCircle
 10
-7.718750000000014
 20
0.8980000000000032
 30
0.0
 40
0.0855
100
AcDbArc
 50
180.0
 51
0.0
  0
ARC
  5
23B
330
2
100
AcDbEntity
  8
0
100
AcDbCircle
 10
-7.718750000000014
 20
0.977000000000011
 30
0.0
 40
0.11675
100
AcDbArc
 50
0.0
 51
180.0
  0
ARC
  5
23C
330
2
100
AcDbEntity
  8
0
100
AcDbCircle
 10
-7.718750000000014
 20
0.8980000000000032
 30
0.0
 40
0.11675
100
AcDbArc
 50
180.0
 51
0.0
  0
LINE
  5
23D
330
2
100
AcDbEntity
  8
0
100
AcDbLine
 10
-7.804250000000025
 20
0.977000000000011
 30
0.0
 11
-7.804250000000025
 21
0.8980000000000032
 31
0.0
  0
LINE
  5
23E
330
2
100
AcDbEntity
  8
0
100
AcDbLine
 10
-7.835500000000025
 20
0.977000000000011
 30
0.0
 11
-7.835500000000025
 21
0.8980000000000032
 31
0.0
  0
LINE
  5
23F
330
2
100
AcDbEntity
  8
0
100
AcDbLine
 10
-7.633250000000018
 20
0.8980000000000032
 30
0.0
 11
-7.633250000000018
 21
0.977000000000011
 31
0.0
  0
LINE
  5
240
330
2
100
AcDbEntity
  8
0
100
AcDbLine
 10
-7.602000000000018
 20
0.8980000000000032
 30
0.0
 11
-7.602000000000018
 21
0.977000000000011
 31
0.0
  0
LINE
  5
241
330
2
100
AcDbEntity
  8
0
100
AcDbLine
 10
-6.304250000000025
 20
0.5230000000000104
 30
0.0
 11
-6.304250000000025
 21
0.602000000000011
 31
0.0
  0
LINE
  5
242
330
2
100
AcDbEntity
  8
0
100
AcDbLine
 10
-6.335500000000025
 20
0.5230000000000104
 30
0.0
 11
-6.335500000000025
 21
0.602000000000011
 31
0.0
  0
LINE
  5
243
330
2
100
AcDbEntity
  8
0
100
AcDbLine
 10
-6.304250000000025
 20
2.102000000000011
 30
0.0
 11
-6.304250000000025
 21
2.023000000000003
 31
0.0
  0
LINE
  5
244
330
2
100
AcDbEntity
  8
0
100
AcDbLine
 10
-6.335500000000025
 20
2.102000000000011
 30
0.0
 11
-6.335500000000025
 21
2.023000000000003
 31
0.0
  0
LINE
  5
245
330
2
100
AcDbEntity
  8
0
100
AcDbLine
 10
-6.133250000000018
 20
0.5230000000000104
 30
0.0
 11
-6.133250000000018
 21
0.602000000000011
 31
0.0
  0
LINE
  5
246
330
2
100
AcDbEntity
  8
0
100
AcDbLine
 10
-6.102000000000018
 20
0.5230000000000104
 30
0.0
 11
-6.102000000000018
 21
0.602000000000011
 31
0.0
  0
LINE
  5
247
330
2
100
AcDbEntity
  8
0
100
AcDbLine
 10
-4.633250000000018
 20
0.8980000000000032
 30
0.0
 11
-4.633250000000018
 21
0.977000000000011
 31
0.0
  0
LINE
  5
248
330
2
100
AcDbEntity
  8
0
100
AcDbLine
 10
-4.804250000000025
 20
0.977000000000011
 30
0.0
 11
-4.804250000000025
 21
0.8980000000000032
 31
0.0
  0
ARC
  5
249
330
2
100
AcDbEntity
  8
0
100
AcDbCircle
 10
-4.718750000000014
 20
0.977000000000011
 30
0.0
 40
0.0855
100
AcDbArc
 50
0.0
 51
180.0
  0
ARC
  5
24A
330
2
100
AcDbEntity
  8
0
100
AcDbCircle
 10
-4.718750000000014
 20
0.8980000000000032
 30
0.0
 40
0.0855
100
AcDbArc
 50
180.0
 51
0.0
  0
ARC
  5
24B
330
2
100
AcDbEntity
  8
0
100
AcDbCircle
 10
-4.718750000000014
 20
0.977000000000011
 30
0.0
 40
0.11675
100
AcDbArc
 50
0.0
 51
180.0
  0
LINE
  5
24C
330
2
100
AcDbEntity
  8
0
100
AcDbLine
 10
-4.602000000000018
 20
0.8980000000000032
 30
0.0
 11
-4.602000000000018
 21
0.977000000000011
 31
0.0
  0
ARC
  5
24D
330
2
100
AcDbEntity
  8
0
100
AcDbCircle
 10
-4.718750000000014
 20
0.8980000000000032
 30
0.0
 40
0.11675
100
AcDbArc
 50
180.0
 51
0.0
  0
LINE
  5
24E
330
2
100
AcDbEntity
  8
0
100
AcDbLine
 10
-4.835500000000025
 20
0.977000000000011
 30
0.0
 11
-4.835500000000025
 21
0.8980000000000032
 31
0.0
  0
LINE
  5
24F
330
2
100
AcDbEntity
  8
0
100
AcDbLine
 10
-6.133250000000018
 20
2.023000000000003
 30
0.0
 11
-6.133250000000018
 21
2.102000000000011
 31
0.0
  0
LINE
  5
250
330
2
100
AcDbEntity
  8
0
100
AcDbLine
 10
-6.102000000000018
 20
2.023000000000003
 30
0.0
 11
-6.102000000000018
 21
2.102000000000011
 31
0.0
  0
ARC
  5
251
330
2
100
AcDbEntity
  8
0
100
AcDbCircle
 10
-7.718750000000014
 20
2.477000000000011
 30
0.0
 40
0.0855
100
AcDbArc
 50
0.0
 51
180.0
  0
ARC
  5
252
330
2
100
AcDbEntity
  8
0
100
AcDbCircle
 10
-7.718750000000014
 20
2.477000000000011
 30
0.0
 40
0.11675
100
AcDbArc
 50
0.0
 51
180.0
  0
LINE
  5
253
330
2
100
AcDbEntity
  8
0
100
AcDbLine
 10
-7.804250000000025
 20
2.398000000000003
 30
0.0
 11
-7.804250000000025
 21
2.477000000000011
 31
0.0
  0
LINE
  5
254
330
2
100
AcDbEntity
  8
0
100
AcDbLine
 10
-7.835500000000025
 20
2.398000000000003
 30
0.0
 11
-7.835500000000025
 21
2.477000000000011
 31
0.0
  0
LINE
  5
255
330
2
100
AcDbEntity
  8
0
100
AcDbLine
 10
-7.633250000000018
 20
2.477000000000011
 30
0.0
 11
-7.633250000000018
 21
2.398000000000003
 31
0.0
  0
LINE
  5
256
330
2
100
AcDbEntity
  8
0
100
AcDbLine
 10
-7.602000000000018
 20
2.477000000000011
 30
0.0
 11
-7.602000000000018
 21
2.398000000000003
 31
0.0
  0
LINE
  5
257
330
2
100
AcDbEntity
  8
0
100
AcDbLine
 10
-4.633250000000018
 20
2.477000000000011
 30
0.0
 11
-4.633250000000018
 21
2.398000000000003
 31
0.0
  0
LINE
  5
258
330
2
100
AcDbEntity
  8
0
100
AcDbLine
 10
-4.804250000000025
 20
2.398000000000003
 30
0.0
 11
-4.804250000000025
 21
2.477000000000011
 31
0.0
  0
ARC
  5
259
330
2
100
AcDbEntity
  8
0
100
AcDbCircle
 10
-4.718750000000014
 20
2.477000000000011
 30
0.0
 40
0.0855
100
AcDbArc
 50
0.0
 51
180.0
  0
ARC
  5
25A
330
2
100
AcDbEntity
  8
0
100
AcDbCircle
 10
-4.718750000000014
 20
2.477000000000011
 30
0.0
 40
0.11675
100
AcDbArc
 50
0.0
 51
180.0
  0
LINE
  5
25B
330
2
100
AcDbEntity
  8
0
100
AcDbLine
 10
-4.602000000000018
 20
2.477000000000011
 30
0.0
 11
-4.602000000000018
 21
2.398000000000003
 31
0.0
  0
LINE
  5
25C
330
2
100
AcDbEntity
  8
0
100
AcDbLine
 10
-4.835500000000025
 20
2.398000000000003
 30
0.0
 11
-4.835500000000025
 21
2.477000000000011
 31
0.0
  0
LINE
  5
25D
330
2
100
AcDbEntity
  8
0
100
AcDbLine
 10
0.0
 20
0.0
 30
0.0
 11
0.40625
 21
0.40625
 31
0.0
  0
ARC
  5
25E
330
2
100
AcDbEntity
  8
0
100
AcDbCircle
 10
-1.718750000000014
 20
2.398000000000003
 30
0.0
 40
0.0855
100
AcDbArc
 50
180.0
 51
0.0
  0
ARC
  5
25F
330
2
100
AcDbEntity
  8
0
100
AcDbCircle
 10
-1.718750000000014
 20
2.398000000000003
 30
0.0
 40
0.11675
100
AcDbArc
 50
180.0
 51
0.0
  0
ARC
  5
260
330
2
100
AcDbEntity
  8
0
100
AcDbCircle
 10
-3.218750000000014
 20
0.602000000000011
 30
0.0
 40
0.0855
100
AcDbArc
 50
0.0
 51
180.0
  0
ARC
  5
261
330
2
100
AcDbEntity
  8
0
100
AcDbCircle
 10
-3.218750000000014
 20
0.5230000000000104
 30
0.0
 40
0.0855
100
AcDbArc
 50
180.0
 51
0.0
  0
LINE
  5
262
330
2
100
AcDbEntity
  8
0
100
AcDbLine
 10
-3.304250000000025
 20
0.5230000000000104
 30
0.0
 11
-3.304250000000025
 21
0.602000000000011
 31
0.0
  0
LINE
  5
263
330
2
100
AcDbEntity
  8
0
100
AcDbLine
 10
-3.133250000000018
 20
0.5230000000000104
 30
0.0
 11
-3.133250000000018
 21
0.602000000000011
 31
0.0
  0
ARC
  5
264
330
2
100
AcDbEntity
  8
0
100
AcDbCircle
 10
-3.218750000000014
 20
0.602000000000011
 30
0.0
 40
0.11675
100
AcDbArc
 50
0.0
 51
180.0
  0
LINE
  5
265
330
2
100
AcDbEntity
  8
0
100
AcDbLine
 10
-3.335500000000025
 20
0.5230000000000104
 30
0.0
 11
-3.335500000000025
 21
0.602000000000011
 31
0.0
  0
ARC
  5
266
330
2
100
AcDbEntity
  8
0
100
AcDbCircle
 10
-3.218750000000014
 20
0.5230000000000104
 30
0.0
 40
0.11675
100
AcDbArc
 50
180.0
 51
0.0
  0
LINE
  5
267
330
2
100
AcDbEntity
  8
0
100
AcDbLine
 10
-3.102000000000018
 20
0.5230000000000104
 30
0.0
 11
-3.102000000000018
 21
0.602000000000011
 31
0.0
  0
ARC
  5
268
330
2
100
AcDbEntity
  8
0
100
AcDbCircle
 10
-3.218750000000014
 20
2.102000000000011
 30
0.0
 40
0.0855
100
AcDbArc
 50
0.0
 51
180.0
  0
ARC
  5
269
330
2
100
AcDbEntity
  8
0
100
AcDbCircle
 10
-3.218750000000014
 20
2.023000000000003
 30
0.0
 40
0.0855
100
AcDbArc
 50
180.0
 51
0.0
  0
LINE
  5
26A
330
2
100
AcDbEntity
  8
0
100
AcDbLine
 10
-3.304250000000025
 20
2.102000000000011
 30
0.0
 11
-3.304250000000025
 21
2.023000000000003
 31
0.0
  0
LINE
  5
26B
330
2
100
AcDbEntity
  8
0
100
AcDbLine
 10
-3.133250000000018
 20
2.023000000000003
 30
0.0
 11
-3.133250000000018
 21
2.102000000000011
 31
0.0
  0
ARC
  5
26C
330
2
100
AcDbEntity
  8
0
100
AcDbCircle
 10
-3.218750000000014
 20
2.102000000000011
 30
0.0
 40
0.11675
100
AcDbArc
 50
0.0
 51
180.0
  0
LINE
  5
26D
330
2
100
AcDbEntity
  8
0
100
AcDbLine
 10
-3.335500000000025
 20
2.102000000000011
 30
0.0
 11
-3.335500000000025
 21
2.023000000000003
 31
0.0
  0
ARC
  5
26E
330
2
100
AcDbEntity
  8
0
100
AcDbCircle
 10
-3.218750000000014
 20
2.023000000000003
 30
0.0
 40
0.11675
100
AcDbArc
 50
180.0
 51
0.0
  0
LINE
  5
26F
330
2
100
AcDbEntity
  8
0
100
AcDbLine
 10
-3.102000000000018
 20
2.023000000000003
 30
0.0
 11
-3.102000000000018
 21
2.102000000000011
 31
0.0
  0
CIRCLE
  5
270
330
2
100
AcDbEntity
  8
0
100
AcDbCircle
 10
-0.96875
 20
1.500000000000007
 30
0.0
 40
0.28125
  0
LINE
  5
271
330
2
100
AcDbEntity
  8
0
100
AcDbLine
 10
-1.633250000000018
 20
0.8980000000000032
 30
0.0
 11
-1.633250000000018
 21
0.977000000000011
 31
0.0
  0
LINE
  5
272
330
2
100
AcDbEntity
  8
0
100
AcDbLine
 10
-1.804250000000025
 20
0.977000000000011
 30
0.0
 11
-1.804250000000025
 21
0.8980000000000032
 31
0.0
  0
ARC
  5
273
330
2
100
AcDbEntity
  8
0
100
AcDbCircle
 10
-1.718750000000014
 20
0.977000000000011
 30
0.0
 40
0.0855
100
AcDbArc
 50
0.0
 51
180.0
  0
ARC
  5
274
330
2
100
AcDbEntity
  8
0
100
AcDbCircle
 10
-1.718750000000014
 20
0.8980000000000032
 30
0.0
 40
0.0855
100
AcDbArc
 50
180.0
 51
0.0
  0
ARC
  5
275
330
2
100
AcDbEntity
  8
0
100
AcDbCircle
 10
-1.718750000000014
 20
0.977000000000011
 30
0.0
 40
0.11675
100
AcDbArc
 50
0.0
 51
180.0
  0
LINE
  5
276
330
2
100
AcDbEntity
  8
0
100
AcDbLine
 10
-1.602000000000018
 20
0.8980000000000032
 30
0.0
 11
-1.602000000000018
 21
0.977000000000011
 31
0.0
  0
ARC
  5
277
330
2
100
AcDbEntity
  8
0
100
AcDbCircle
 10
-1.718750000000014
 20
0.8980000000000032
 30
0.0
 40
0.11675
100
AcDbArc
 50
180.0
 51
0.0
  0
LINE
  5
278
330
2
100
AcDbEntity
  8
0
100
AcDbLine
 10
-1.835500000000025
 20
0.977000000000011
 30
0.0
 11
-1.835500000000025
 21
0.8980000000000032
 31
0.0
  0
LINE
  5
279
330
2
100
AcDbEntity
  8
0
100
AcDbLine
 10
-1.633250000000018
 20
2.477000000000011
 30
0.0
 11
-1.633250000000018
 21
2.398000000000003
 31
0.0
  0
LINE
  5
27A
330
2
100
AcDbEntity
  8
0
100
AcDbLine
 10
-1.804250000000025
 20
2.398000000000003
 30
0.0
 11
-1.804250000000025
 21
2.477000000000011
 31
0.0
  0
ARC
  5
27B
330
2
100
AcDbEntity
  8
0
100
AcDbCircle
 10
-1.718750000000014
 20
2.477000000000011
 30
0.0
 40
0.0855
100
AcDbArc
 50
0.0
 51
180.0
  0
ARC
  5
27C
330
2
100
AcDbEntity
  8
0
100
AcDbCircle
 10
-1.718750000000014
 20
2.477000000000011
 30
0.0
 40
0.11675
100
AcDbArc
 50
0.0
 51
180.0
  0
LINE
  5
27D
330
2
100
AcDbEntity
  8
0
100
AcDbLine
 10
-1.602000000000018
 20
2.477000000000011
 30
0.0
 11
-1.602000000000018
 21
2.398000000000003
 31
0.0
  0
LINE
  5
27E
330
2
100
AcDbEntity
  8
0
100
AcDbLine
 10
-1.835500000000025
 20
2.398000000000003
 30
0.0
 11
-1.835500000000025
 21
2.477000000000011
 31
0.0
  0
LINE
  5
27F
330
2
100
AcDbEntity
  8
0
  6
Continuous
100
AcDbLine
 10
0.40625
 20
0.40625
 30
0.0
 11
0.4062500000000036
 21
2.593749999999996
 31
0.0
  0
ARC
  5
280
330
2
100
AcDbEntity
  8
0
100
AcDbCircle
 10
-0.2187500000000142
 20
0.602000000000011
 30
0.0
 40
0.11675
100
AcDbArc
 50
0.0
 51
180.0
  0
ARC
  5
281
330
2
100
AcDbEntity
  8
0
100
AcDbCircle
 10
-0.2187500000000142
 20
0.5230000000000104
 30
0.0
 40
0.11675
100
AcDbArc
 50
180.0
 51
0.0
  0
ARC
  5
282
330
2
100
AcDbEntity
  8
0
100
AcDbCircle
 10
-0.2187500000000142
 20
0.602000000000011
 30
0.0
 40
0.0855
100
AcDbArc
 50
0.0
 51
180.0
  0
ARC
  5
283
330
2
100
AcDbEntity
  8
0
100
AcDbCircle
 10
-0.2187500000000142
 20
0.5230000000000104
 30
0.0
 40
0.0855
100
AcDbArc
 50
180.0
 51
0.0
  0
LINE
  5
284
330
2
100
AcDbEntity
  8
0
100
AcDbLine
 10
-0.3042500000000246
 20
0.5230000000000104
 30
0.0
 11
-0.3042500000000246
 21
0.602000000000011
 31
0.0
  0
LINE
  5
285
330
2
100
AcDbEntity
  8
0
100
AcDbLine
 10
-0.1332500000000181
 20
0.5230000000000104
 30
0.0
 11
-0.1332500000000181
 21
0.602000000000011
 31
0.0
  0
LINE
  5
286
330
2
100
AcDbEntity
  8
0
100
AcDbLine
 10
-0.3355000000000246
 20
0.5230000000000104
 30
0.0
 11
-0.3355000000000246
 21
0.602000000000011
 31
0.0
  0
LINE
  5
287
330
2
100
AcDbEntity
  8
0
100
AcDbLine
 10
-0.1020000000000181
 20
0.5230000000000104
 30
0.0
 11
-0.1020000000000181
 21
0.602000000000011
 31
0.0
  0
ARC
  5
288
330
2
100
AcDbEntity
  8
0
100
AcDbCircle
 10
-0.2187500000000142
 20
2.102000000000011
 30
0.0
 40
0.11675
100
AcDbArc
 50
0.0
 51
180.0
  0
ARC
  5
289
330
2
100
AcDbEntity
  8
0
100
AcDbCircle
 10
-0.2187500000000142
 20
2.023000000000003
 30
0.0
 40
0.11675
100
AcDbArc
 50
180.0
 51
0.0
  0
ARC
  5
28A
330
2
100
AcDbEntity
  8
0
100
AcDbCircle
 10
-0.2187500000000142
 20
2.102000000000011
 30
0.0
 40
0.0855
100
AcDbArc
 50
0.0
 51
180.0
  0
ARC
  5
28B
330
2
100
AcDbEntity
  8
0
100
AcDbCircle
 10
-0.2187500000000142
 20
2.023000000000003
 30
0.0
 40
0.0855
100
AcDbArc
 50
180.0
 51
0.0
  0
LINE
  5
28C
330
2
100
AcDbEntity
  8
0
100
AcDbLine
 10
-0.3042500000000246
 20
2.102000000000011
 30
0.0
 11
-0.3042500000000246
 21
2.023000000000003
 31
0.0
  0
LINE
  5
28D
330
2
100
AcDbEntity
  8
0
100
AcDbLine
 10
-0.1332500000000181
 20
2.023000000000003
 30
0.0
 11
-0.1332500000000181
 21
2.102000000000011
 31
0.0
  0
LINE
  5
28E
330
2
100
AcDbEntity
  8
0
100
AcDbLine
 10
-0.3355000000000246
 20
2.102000000000011
 30
0.0
 11
-0.3355000000000246
 21
2.023000000000003
 31
0.0
  0
LINE
  5
28F
330
2
100
AcDbEntity
  8
0
100
AcDbLine
 10
-0.1020000000000181
 20
2.023000000000003
 30
0.0
 11
-0.1020000000000181
 21
2.102000000000011
 31
0.0
  0
LINE
  5
290
330
2
100
AcDbEntity
  8
0
100
AcDbLine
 10
0.0000000000000036
 20
2.999999999999996
 30
0.0
 11
0.4062500000000036
 21
2.593749999999996
 31
0.0
  0
ENDSEC
  0
SECTION
  2
OBJECTS
  0
DICTIONARY
  5
7
330
0
100
AcDbDictionary
281
     1
  3
ACAD_COLOR
350
15D
  3
ACAD_GROUP
350
1F
  3
ACAD_LAYOUT
350
B
  3
ACAD_MATERIAL
350
15C
  3
ACAD_MLINESTYLE
350
20
  3
ACAD_PLOTSETTINGS
350
21
  3
ACAD_PLOTSTYLENAME
350
6
  3
ACAD_TABLESTYLE
350
15E
  3
ACDBHEADERROUNDTRIPXREC
350
2A6
  3
AcDbVariableDictionary
350
158
  0
DICTIONARY
  5
291
330
2
100
AcDbDictionary
280
     1
281
     1
  3
ACAD_SORTENTS
360
292
  0
DICTIONARY
  5
15D
102
{ACAD_REACTORS
330
7
102
}
330
7
100
AcDbDictionary
281
     1
  0
DICTIONARY
  5
1F
102
{ACAD_REACTORS
330
7
102
}
330
7
100
AcDbDictionary
281
     1
  0
DICTIONARY
  5
B
102
{ACAD_REACTORS
330
7
102
}
330
7
100
AcDbDictionary
281
     1
  3
Layout1
350
F
  3
Model
350
A
  0
DICTIONARY
  5
15C
102
{ACAD_REACTORS
330
7
102
}
330
7
100
AcDbDictionary
281
     1
  0
DICTIONARY
  5
20
102
{ACAD_REACTORS
330
7
102
}
330
7
100
AcDbDictionary
281
     1
  3
Standard
350
23
  0
DICTIONARY
  5
21
102
{ACAD_REACTORS
330
7
102
}
330
7
100
AcDbDictionary
281
     1
  0
ACDBDICTIONARYWDFLT
  5
6
102
{ACAD_REACTORS
330
7
102
}
330
7
100
AcDbDictionary
281
     1
  3
Normal
350
5
100
AcDbDictionaryWithDefault
340
5
  0
DICTIONARY
  5
15E
102
{ACAD_REACTORS
330
7
102
}
330
7
100
AcDbDictionary
281
     1
  3
Standard
350
15F
  0
DICTIONARY
  5
2A6
102
{ACAD_REACTORS
330
7
102
}
330
7
100
AcDbDictionary
281
     1
  3
COLORDICT
350
2A7
  3
MATERIALDICT
350
2A8
  0
DICTIONARY
  5
158
102
{ACAD_REACTORS
330
7
102
}
330
7
100
AcDbDictionary
281
     1
  3
CTABLESTYLE
350
29A
  3
HIDETEXT
350
2A5
  0
SORTENTSTABLE
  5
292
102
{ACAD_REACTORS
330
291
102
}
330
291
100
AcDbSortentsTable
330
2
331
202
  5
202
331
16B
  5
16B
331
1C6
  5
1C6
331
170
  5
170
331
246
  5
246
331
22B
  5
22B
331
190
  5
190
331
210
  5
210
331
1D6
  5
1D6
331
18F
  5
18F
331
1D0
  5
1D0
331
165
  5
165
331
1E9
  5
1E9
331
1E1
  5
1E1
331
1DF
  5
1DF
331
228
  5
228
331
19F
  5
19F
331
1AF
  5
1AF
331
1CC
  5
1CC
331
1F0
  5
1F0
331
231
  5
231
331
185
  5
185
331
1F3
  5
1F3
331
1F5
  5
1F5
331
187
  5
187
331
17A
  5
17A
331
20F
  5
20F
331
1AE
  5
1AE
331
1FD
  5
1FD
331
27A
  5
27A
331
27B
  5
27B
331
27C
  5
27C
331
189
  5
189
331
1D8
  5
1D8
331
162
  5
162
331
1FB
  5
1FB
331
215
  5
215
331
21F
  5
21F
331
19B
  5
19B
331
1B2
  5
1B2
331
1EC
  5
1EC
331
18B
  5
18B
331
206
  5
206
331
28F
  5
28F
331
290
  5
290
331
1DA
  5
1DA
331
1E6
  5
1E6
331
173
  5
173
331
179
  5
179
331
24A
  5
24A
331
229
  5
229
331
222
  5
222
331
21A
  5
21A
331
236
  5
236
331
25E
  5
25E
331
1C8
  5
1C8
331
286
  5
286
331
287
  5
287
331
1BA
  5
1BA
331
232
  5
232
331
1DC
  5
1DC
331
1D5
  5
1D5
331
21B
  5
21B
331
1C2
  5
1C2
331
1E4
  5
1E4
331
224
  5
224
331
1BD
  5
1BD
331
237
  5
237
331
23D
  5
23D
331
24F
  5
24F
331
218
  5
218
331
23B
  5
23B
331
265
  5
265
331
266
  5
266
331
18C
  5
18C
331
214
  5
214
331
22C
  5
22C
331
240
  5
240
331
241
  5
241
331
19A
  5
19A
331
288
  5
288
331
289
  5
289
331
28A
  5
28A
331
211
  5
211
331
1BF
  5
1BF
331
1CA
  5
1CA
331
267
  5
267
331
268
  5
268
331
269
  5
269
331
239
  5
239
331
27D
  5
27D
331
27E
  5
27E
331
27F
  5
27F
331
1AC
  5
1AC
331
244
  5
244
331
22A
  5
22A
331
25F
  5
25F
331
260
  5
260
331
261
  5
261
331
1C7
  5
1C7
331
1E7
  5
1E7
331
205
  5
205
331
203
  5
203
331
1F2
  5
1F2
331
164
  5
164
331
1E8
  5
1E8
331
217
  5
217
331
1A2
  5
1A2
331
1EE
  5
1EE
331
22E
  5
22E
331
254
  5
254
331
255
  5
255
331
18A
  5
18A
331
1D9
  5
1D9
331
182
  5
182
331
238
  5
238
331
1C9
  5
1C9
331
1EB
  5
1EB
331
1A3
  5
1A3
331
253
  5
253
331
193
  5
193
331
1F9
  5
1F9
331
1B9
  5
1B9
331
28C
  5
28C
331
1C4
  5
1C4
331
24B
  5
24B
331
1E5
  5
1E5
331
183
  5
183
331
1B0
  5
1B0
331
1EA
  5
1EA
331
26A
  5
26A
331
26B
  5
26B
331
25B
  5
25B
331
25C
  5
25C
331
25D
  5
25D
331
17D
  5
17D
331
1D3
  5
1D3
331
245
  5
245
331
26C
  5
26C
331
26D
  5
26D
331
26E
  5
26E
331
26F
  5
26F
331
1E0
  5
1E0
331
180
  5
180
331
247
  5
247
331
1A4
  5
1A4
331
1CD
  5
1CD
331
21D
  5
21D
331
279
  5
279
331
16E
  5
16E
331
1AB
  5
1AB
331
1D2
  5
1D2
331
195
  5
195
331
1DE
  5
1DE
331
212
  5
212
331
22D
  5
22D
331
167
  5
167
331
20E
  5
20E
331
1B7
  5
1B7
331
219
  5
219
331
1FA
  5
1FA
331
225
  5
225
331
243
  5
243
331
1F6
  5
1F6
331
194
  5
194
331
198
  5
198
331
19E
  5
19E
331
258
  5
258
331
259
  5
259
331
25A
  5
25A
331
1DB
  5
1DB
331
28B
  5
28B
331
1B3
  5
1B3
331
24E
  5
24E
331
23E
  5
23E
331
23F
  5
23F
331
1B6
  5
1B6
331
256
  5
256
331
257
  5
257
331
16F
  5
16F
331
1D1
  5
1D1
331
17B
  5
17B
331
171
  5
171
331
1CF
  5
1CF
331
19C
  5
19C
331
1A9
  5
1A9
331
272
  5
272
331
273
  5
273
331
274
  5
274
331
275
  5
275
331
19D
  5
19D
331
248
  5
248
331
249
  5
249
331
1B5
  5
1B5
331
270
  5
270
331
271
  5
271
331
174
  5
174
331
188
  5
188
331
281
  5
281
331
282
  5
282
331
283
  5
283
331
163
  5
163
331
201
  5
201
331
184
  5
184
331
1F8
  5
1F8
331
176
  5
176
331
1F7
  5
1F7
331
207
  5
207
331
208
  5
208
331
204
  5
204
331
1B8
  5
1B8
331
1A6
  5
1A6
331
23C
  5
23C
331
250
  5
250
331
1ED
  5
1ED
331
1E2
  5
1E2
331
1A1
  5
1A1
331
169
  5
169
331
213
  5
213
331
251
  5
251
331
252
  5
252
331
1C1
  5
1C1
331
1C0
  5
1C0
331
1A5
  5
1A5
331
178
  5
178
331
23A
  5
23A
331
276
  5
276
331
277
  5
277
331
278
  5
278
331
17F
  5
17F
331
1E3
  5
1E3
331
16D
  5
16D
331
223
  5
223
331
24D
  5
24D
331
1C5
  5
1C5
331
24C
  5
24C
331
216
  5
216
331
172
  5
172
331
1CE
  5
1CE
331
196
  5
196
331
177
  5
177
331
1A0
  5
1A0
331
242
  5
242
331
1FC
  5
1FC
331
21E
  5
21E
331
209
  5
209
331
166
  5
166
331
1DD
  5
1DD
331
1C3
  5
1C3
331
21C
  5
21C
331
175
  5
175
331
200
  5
200
331
192
  5
192
331
1B1
  5
1B1
331
1BC
  5
1BC
331
284
  5
284
331
28D
  5
28D
331
28E
  5
28E
331
230
  5
230
331
262
  5
262
331
263
  5
263
331
264
  5
264
331
1B4
  5
1B4
331
1FE
  5
1FE
331
1F4
  5
1F4
331
220
  5
220
331
20B
  5
20B
331
17C
  5
17C
331
197
  5
197
331
1AD
  5
1AD
331
22F
  5
22F
331
1A7
  5
1A7
331
1FF
  5
1FF
331
1F1
  5
1F1
331
20D
  5
20D
331
1BB
  5
1BB
331
20A
  5
20A
331
1BE
  5
1BE
331
20C
  5
20C
331
168
  5
168
331
1D7
  5
1D7
331
186
  5
186
331
1AA
  5
1AA
331
285
  5
285
331
1A8
  5
1A8
331
280
  5
280
331
1EF
  5
1EF
331
18E
  5
18E
331
199
  5
199
331
221
  5
221
331
17E
  5
17E
331
16C
  5
16C
331
18D
  5
18D
331
1CB
  5
1CB
331
1D4
  5
1D4
331
235
  5
235
331
227
  5
227
331
234
  5
234
331
181
  5
181
331
191
  5
191
331
233
  5
233
331
226
  5
226
331
16A
  5
16A
  0
LAYOUT
  5
F
102
{ACAD_REACTORS
330
B
102
}
102
{ACAD_XDICTIONARY
360
2A9
102
}
330
B
100
AcDbPlotSettings
  1

  2
Client\ssd-helder#\hp psc 2100 series [UPD:PCL4]
  4

  6

 40
0.0
 41
0.0
 42
0.0
 43
0.0
 44
0.0
 45
0.0
 46
0.0
 47
0.0
 48
0.0
 49
0.0
140
0.0
141
0.0
142
1.0
143
1.0
 70
   688
 72
     0
 73
     0
 74
     5
  7

 75
    16
147
1.0
148
0.0
149
0.0
100
AcDbLayout
  1
Layout1
 70
     0
 71
     1
 10
0.0
 20
0.0
 11
12.0
 21
9.0
 12
0.0
 22
0.0
 32
0.0
 14
1.000000000000000E+20
 24
1.000000000000000E+20
 34
1.000000000000000E+20
 15
-1.000000000000000E+20
 25
-1.000000000000000E+20
 35
-1.000000000000000E+20
146
0.0
 13
0.0
 23
0.0
 33
0.0
 16
1.0
 26
0.0
 36
0.0
 17
0.0
 27
1.0
 37
0.0
 76
     0
330
C
  0
LAYOUT
  5
A
102
{ACAD_REACTORS
330
B
102
}
102
{ACAD_XDICTIONARY
360
2AB
102
}
330
B
100
AcDbPlotSettings
  1

  2
none_device
  4
Letter_(8.50_x_11.00_Inches)
  6

 40
6.349999904632568
 41
6.349999904632568
 42
6.350006103515625
 43
6.350006103515625
 44
215.8999938964844
 45
279.3999938964844
 46
0.0
 47
0.0
 48
0.0
 49
0.0
140
0.0
141
0.0
142
1.0
143
1.0
 70
 11952
 72
     0
 73
     1
 74
     0
  7

 75
     0
147
1.0
148
-253.8028611526719
149
20.84798274138411
100
AcDbLayout
  1
Model
 70
     1
 71
     0
 10
0.0
 20
0.0
 11
12.0
 21
9.0
 12
0.0
 22
0.0
 32
0.0
 14
0.0
 24
0.0
 34
0.0
 15
0.0
 25
0.0
 35
0.0
146
0.0
 13
0.0
 23
0.0
 33
0.0
 16
1.0
 26
0.0
 36
0.0
 17
0.0
 27
1.0
 37
0.0
 76
     0
330
2
  0
MLINESTYLE
  5
23
102
{ACAD_REACTORS
330
20
102
}
330
20
100
AcDbMlineStyle
  2
STANDARD
 70
     0
  3

 62
   256
 51
90.0
 52
90.0
 71
     2
 49
0.5
 62
   256
  6
BYLAYER
 49
-0.5
 62
   256
  6
BYLAYER
  0
ACDBPLACEHOLDER
  5
5
102
{ACAD_REACTORS
330
6
102
}
330
6
  0
ACAD_PROXY_OBJECT
  5
15F
102
{ACAD_REACTORS
330
15E
102
}
330
15E
100
AcDbProxyObject
 90
      499
 91
      504
 95
   983063
 70
     0
 93
     1841
310
4214DD185B99185C9928B81E85EB51B8AE3F2E07A17AD46E2B8FC02B5E8DC0F42B1CFD028000000C1008070000C3001FDFF8000000C1003FBFF000000182007F7FE00000030400FEFFC00000060801FDFF8000000C1003FBFF00000018200000000000000681FA0B0000001820100E000186003FBFF000000182007F7FE000
310
00030400FEFFC00000060801FDFF8000000C1003FBFF000000182007F7FE000000304000AD7A3703D0AC73F4160000003040201C00030C007F7FE00000030400FEFFC00000060801FDFF8000000C1003FBFF000000182007F7FE00000030400FEFFC000000608000
340
12
340
12
340
12
 94
        0
  0
XRECORD
  5
2A7
102
{ACAD_REACTORS
330
2A6
102
}
330
2A6
100
AcDbXrecord
340
15D
  0
XRECORD
  5
2A8
102
{ACAD_REACTORS
330
2A6
102
}
330
2A6
100
AcDbXrecord
340
15C
  0
DICTIONARYVAR
  5
29A
102
{ACAD_REACTORS
330
158
102
}
330
158
100
DictionaryVariables
280
     0
  1
STANDARD
  0
DICTIONARYVAR
  5
2A5
102
{ACAD_REACTORS
330
158
102
}
330
158
100
DictionaryVariables
280
     0
  1
0
  0
DICTIONARY
  5
2A9
330
F
100
AcDbDictionary
280
     1
281
     1
  3
ACAD_XREC_ROUNDTRIP
360
2AA
  0
DICTIONARY
  5
2AB
330
A
100
AcDbDictionary
280
     1
281
     1
  3
ACAD_XREC_ROUNDTRIP
360
2AC
  0
XRECORD
  5
2AA
102
{ACAD_REACTORS
330
2A9
102
}
330
2A9
100
AcDbXrecord
102
SHADEPLOT
 70
     0
102
SHADEPLOTRESLEVEL
 70
     2
102
SHADEPLOTCUSTOMDPI
 70
   300
  0
XRECORD
  5
2AC
102
{ACAD_REACTORS
330
2AB
102
}
330
2AB
100
AcDbXrecord
102
SHADEPLOT
 70
     0
102
SHADEPLOTRESLEVEL
 70
     2
102
SHADEPLOTCUSTOMDPI
 70
   300
  0
ENDSEC
  0
EOF
