  0
SECTION
  2
HEADER
  9
$ACADVER
  1
AC1015
  9
$ACADMAINTVER
 70
     6
  9
$DWGCODEPAGE
  3
ANSI_1252
  9
$INSBASE
 10
0.0
 20
0.0
 30
0.0
  9
$EXTMIN
 10
-15.13421918059519
 20
0.0
 30
0.0
  9
$EXTMAX
 10
7.135983585771269
 20
18.0
 30
0.0
  9
$LIMMIN
 10
0.0
 20
0.0
  9
$LIMMAX
 10
26.25
 20
20.0
  9
$ORTHOMODE
 70
     1
  9
$REGENMODE
 70
     1
  9
$FILLMODE
 70
     1
  9
$QTEXTMODE
 70
     0
  9
$MIRRTEXT
 70
     0
  9
$LTSCALE
 40
0.5
  9
$ATTMODE
 70
     1
  9
$TEXTSIZE
 40
0.225
  9
$TRACEWID
 40
0.05
  9
$TEXTSTYLE
  7
STANDARD
  9
$CLAYER
  8
OBJECT
  9
$CELTYPE
  6
BYLAYER
  9
$CECOLOR
 62
   256
  9
$CELTSCALE
 40
1.0
  9
$DISPSILH
 70
     0
  9
$DIMSCALE
 40
2.5
  9
$DIMASZ
 40
0.125
  9
$DIMEXO
 40
0.062
  9
$DIMDLI
 40
0.375
  9
$DIMRND
 40
0.0
  9
$DIMDLE
 40
0.0
  9
$DIMEXE
 40
0.08
  9
$DIMTP
 40
0.0
  9
$DIMTM
 40
0.0
  9
$DIMTXT
 40
0.09
  9
$DIMCEN
 40
-0.03125
  9
$DIMTSZ
 40
0.0
  9
$DIMTOL
 70
     0
  9
$DIMLIM
 70
     0
  9
$DIMTIH
 70
     1
  9
$DIMTOH
 70
     1
  9
$DIMSE1
 70
     0
  9
$DIMSE2
 70
     0
  9
$DIMTAD
 70
     0
  9
$DIMZIN
 70
     0
  9
$DIMBLK
  1

  9
$DIMASO
 70
     0
  9
$DIMSHO
 70
     0
  9
$DIMPOST
  1

  9
$DIMAPOST
  1

  9
$DIMALT
 70
     0
  9
$DIMALTD
 70
     2
  9
$DIMALTF
 40
25.4
  9
$DIMLFAC
 40
1.0
  9
$DIMTOFL
 70
     0
  9
$DIMTVP
 40
0.0
  9
$DIMTIX
 70
     0
  9
$DIMSOXD
 70
     0
  9
$DIMSAH
 70
     0
  9
$DIMBLK1
  1

  9
$DIMBLK2
  1

  9
$DIMSTYLE
  2
STANDARD
  9
$DIMCLRD
 70
     0
  9
$DIMCLRE
 70
     0
  9
$DIMCLRT
 70
     0
  9
$DIMTFAC
 40
1.0
  9
$DIMGAP
 40
0.09375
  9
$DIMJUST
 70
     0
  9
$DIMSD1
 70
     0
  9
$DIMSD2
 70
     0
  9
$DIMTOLJ
 70
     1
  9
$DIMTZIN
 70
     0
  9
$DIMALTZ
 70
     0
  9
$DIMALTTZ
 70
     0
  9
$DIMUPT
 70
     0
  9
$DIMDEC
 70
     5
  9
$DIMTDEC
 70
     5
  9
$DIMALTU
 70
     5
  9
$DIMALTTD
 70
     2
  9
$DIMTXSTY
  7
STANDARD
  9
$DIMAUNIT
 70
     0
  9
$DIMADEC
 70
     0
  9
$DIMALTRND
 40
0.0
  9
$DIMAZIN
 70
     0
  9
$DIMDSEP
 70
    46
  9
$DIMATFIT
 70
     3
  9
$DIMFRAC
 70
     2
  9
$DIMLDRBLK
  1

  9
$DIMLUNIT
 70
     5
  9
$DIMLWD
 70
    -2
  9
$DIMLWE
 70
    -2
  9
$DIMTMOVE
 70
     2
  9
$LUNITS
 70
     5
  9
$LUPREC
 70
     5
  9
$SKETCHINC
 40
0.1
  9
$FILLETRAD
 40
0.114
  9
$AUNITS
 70
     0
  9
$AUPREC
 70
     0
  9
$MENU
  1
acad
  9
$ELEVATION
 40
0.0
  9
$PELEVATION
 40
0.0
  9
$THICKNESS
 40
0.0
  9
$LIMCHECK
 70
     0
  9
$CHAMFERA
 40
0.25
  9
$CHAMFERB
 40
0.25
  9
$CHAMFERC
 40
0.0
  9
$CHAMFERD
 40
0.0
  9
$SKPOLY
 70
     0
  9
$TDCREATE
 40
2448887.702996065
  9
$TDUCREATE
 40
2448888.036329398
  9
$TDUPDATE
 40
2454181.845749433
  9
$TDUUPDATE
 40
2454182.179082766
  9
$TDINDWG
 40
0.0706704282
  9
$TDUSRTIMER
 40
0.0706704282
  9
$USRTIMER
 70
     1
  9
$ANGBASE
 50
0.0
  9
$ANGDIR
 70
     0
  9
$PDMODE
 70
     0
  9
$PDSIZE
 40
0.0
  9
$PLINEWID
 40
0.0
  9
$SPLFRAME
 70
     0
  9
$SPLINETYPE
 70
     6
  9
$SPLINESEGS
 70
     8
  9
$HANDSEED
  5
118
  9
$SURFTAB1
 70
     6
  9
$SURFTAB2
 70
     6
  9
$SURFTYPE
 70
     6
  9
$SURFU
 70
     6
  9
$SURFV
 70
     6
  9
$UCSBASE
  2

  9
$UCSNAME
  2

  9
$UCSORG
 10
0.0
 20
0.0
 30
0.0
  9
$UCSXDIR
 10
1.0
 20
0.0
 30
0.0
  9
$UCSYDIR
 10
0.0
 20
1.0
 30
0.0
  9
$UCSORTHOREF
  2

  9
$UCSORTHOVIEW
 70
     0
  9
$UCSORGTOP
 10
0.0
 20
0.0
 30
0.0
  9
$UCSORGBOTTOM
 10
0.0
 20
0.0
 30
0.0
  9
$UCSORGLEFT
 10
0.0
 20
0.0
 30
0.0
  9
$UCSORGRIGHT
 10
0.0
 20
0.0
 30
0.0
  9
$UCSORGFRONT
 10
0.0
 20
0.0
 30
0.0
  9
$UCSORGBACK
 10
0.0
 20
0.0
 30
0.0
  9
$PUCSBASE
  2

  9
$PUCSNAME
  2

  9
$PUCSORG
 10
0.0
 20
0.0
 30
0.0
  9
$PUCSXDIR
 10
1.0
 20
0.0
 30
0.0
  9
$PUCSYDIR
 10
0.0
 20
1.0
 30
0.0
  9
$PUCSORTHOREF
  2

  9
$PUCSORTHOVIEW
 70
     0
  9
$PUCSORGTOP
 10
0.0
 20
0.0
 30
0.0
  9
$PUCSORGBOTTOM
 10
0.0
 20
0.0
 30
0.0
  9
$PUCSORGLEFT
 10
0.0
 20
0.0
 30
0.0
  9
$PUCSORGRIGHT
 10
0.0
 20
0.0
 30
0.0
  9
$PUCSORGFRONT
 10
0.0
 20
0.0
 30
0.0
  9
$PUCSORGBACK
 10
0.0
 20
0.0
 30
0.0
  9
$USERI1
 70
     0
  9
$USERI2
 70
     0
  9
$USERI3
 70
     0
  9
$USERI4
 70
     0
  9
$USERI5
 70
     0
  9
$USERR1
 40
0.0
  9
$USERR2
 40
0.0
  9
$USERR3
 40
0.0
  9
$USERR4
 40
0.0
  9
$USERR5
 40
0.0
  9
$WORLDVIEW
 70
     1
  9
$SHADEDGE
 70
     3
  9
$SHADEDIF
 70
    70
  9
$TILEMODE
 70
     1
  9
$MAXACTVP
 70
    16
  9
$PINSBASE
 10
0.0
 20
0.0
 30
0.0
  9
$PLIMCHECK
 70
     0
  9
$PEXTMIN
 10
1.000000000000000E+20
 20
1.000000000000000E+20
 30
1.000000000000000E+20
  9
$PEXTMAX
 10
-1.000000000000000E+20
 20
-1.000000000000000E+20
 30
-1.000000000000000E+20
  9
$PLIMMIN
 10
0.0
 20
0.0
  9
$PLIMMAX
 10
12.0
 20
9.0
  9
$UNITMODE
 70
     0
  9
$VISRETAIN
 70
     0
  9
$PLINEGEN
 70
     0
  9
$PSLTSCALE
 70
     0
  9
$TREEDEPTH
 70
  3020
  9
$CMLSTYLE
  2
STANDARD
  9
$CMLJUST
 70
     0
  9
$CMLSCALE
 40
1.0
  9
$PROXYGRAPHICS
 70
     1
  9
$MEASUREMENT
 70
     0
  9
$CELWEIGHT
370
    -1
  9
$ENDCAPS
280
     0
  9
$JOINSTYLE
280
     0
  9
$LWDISPLAY
290
     0
  9
$INSUNITS
 70
     0
  9
$HYPERLINKBASE
  1

  9
$STYLESHEET
  1

  9
$XEDIT
290
     1
  9
$CEPSNTYPE
380
     0
  9
$PSTYLEMODE
290
     1
  9
$FINGERPRINTGUID
  2
{9F33E7CD-0ACB-436C-8E86-EA13E199EC0D}
  9
$VERSIONGUID
  2
{4B8F9E5E-68D7-460E-B931-852FA616B8F9}
  9
$EXTNAMES
290
     1
  9
$PSVPSCALE
 40
0.0
  9
$OLESTARTUP
290
     0
  0
ENDSEC
  0
SECTION
  2
CLASSES
  0
CLASS
  1
DICTIONARYVAR
  2
AcDbDictionaryVar
  3
AutoCAD 2000
 90
        0
280
     0
281
     0
  0
CLASS
  1
LWPOLYLINE
  2
AcDbPolyline
  3
AutoCAD 2000
 90
        0
280
     0
281
     1
  0
CLASS
  1
ACDBDICTIONARYWDFLT
  2
AcDbDictionaryWithDefault
  3
AutoCAD 2000
 90
        0
280
     0
281
     0
  0
CLASS
  1
ACDBPLACEHOLDER
  2
AcDbPlaceHolder
  3
ObjectDBX Classes
 90
        0
280
     0
281
     0
  0
CLASS
  1
LAYOUT
  2
AcDbLayout
  3
ObjectDBX Classes
 90
        0
280
     0
281
     0
  0
CLASS
  1
TABLESTYLE
  2
AcDbTableStyle
  3
ObjectDBX Classes
 90
     2047
280
     1
281
     0
  0
CLASS
  1
SORTENTSTABLE
  2
AcDbSortentsTable
  3
AutoCAD 2000
 90
        0
280
     0
281
     0
  0
ENDSEC
  0
SECTION
  2
TABLES
  0
TABLE
  2
VPORT
  5
19
330
0
100
AcDbSymbolTable
 70
     2
  0
VPORT
  5
10A
330
19
100
AcDbSymbolTableRecord
100
AcDbViewportTableRecord
  2
*Active
 70
     0
 10
0.0
 20
0.0
 11
1.0
 21
1.0
 12
1.394242641077099
 22
8.994684959023987
 13
0.0
 23
0.0
 14
0.03125
 24
0.03125
 15
0.25
 25
0.25
 16
0.0
 26
0.0
 36
1.0
 17
0.0
 27
0.0
 37
0.0
 40
22.96467933682424
 41
1.814583333333333
 42
50.0
 43
0.0
 44
0.0
 50
0.0
 51
0.0
 71
     0
 72
   100
 73
     1
 74
     0
 75
     0
 76
     0
 77
     0
 78
     0
281
     0
 65
     1
110
0.0
120
0.0
130
0.0
111
1.0
121
0.0
131
0.0
112
0.0
122
1.0
132
0.0
 79
     0
146
0.0
  0
ENDTAB
  0
TABLE
  2
LTYPE
  5
14
330
0
100
AcDbSymbolTable
 70
     2
  0
LTYPE
  5
15
330
14
100
AcDbSymbolTableRecord
100
AcDbLinetypeTableRecord
  2
BYBLOCK
 70
     0
  3

 72
    65
 73
     0
 40
0.0
  0
LTYPE
  5
16
330
14
100
AcDbSymbolTableRecord
100
AcDbLinetypeTableRecord
  2
BYLAYER
 70
     0
  3

 72
    65
 73
     0
 40
0.0
  0
LTYPE
  5
8
330
14
100
AcDbSymbolTableRecord
100
AcDbLinetypeTableRecord
  2
CONTINUOUS
 70
     0
  3
Solid line
 72
    65
 73
     0
 40
0.0
  0
LTYPE
  5
FF
330
14
100
AcDbSymbolTableRecord
100
AcDbLinetypeTableRecord
  2
HIDDEN
 70
     0
  3
Hidden __ __ __ __ __ __ __ __ __ __ __ __ __ _
 72
    65
 73
     2
 40
0.375
 49
0.25
 74
     0
 49
-0.125
 74
     0
  0
ENDTAB
  0
TABLE
  2
LAYER
  5
10
330
0
100
AcDbSymbolTable
 70
     2
  0
LAYER
  5
4
330
10
100
AcDbSymbolTableRecord
100
AcDbLayerTableRecord
  2
0
 70
     0
 62
    -1
  6
CONTINUOUS
370
    -3
390
5
  0
LAYER
  5
22
330
10
100
AcDbSymbolTableRecord
100
AcDbLayerTableRecord
  2
OBJECT
 70
     0
 62
     7
  6
CONTINUOUS
370
    -3
390
5
  0
ENDTAB
  0
TABLE
  2
STYLE
  5
11
330
0
100
AcDbSymbolTable
 70
     2
  0
STYLE
  5
12
330
11
100
AcDbSymbolTableRecord
100
AcDbTextStyleTableRecord
  2
STANDARD
 70
     0
 40
0.0
 41
1.0
 50
0.0
 71
     0
 42
0.225
  3
TXT
  4

  0
STYLE
  5
FE
330
11
100
AcDbSymbolTableRecord
100
AcDbTextStyleTableRecord
  2

 70
     1
 40
0.0
 41
1.0
 50
0.0
 71
     0
 42
0.225
  3
ltypeshp.shx
  4

  0
ENDTAB
  0
TABLE
  2
VIEW
  5
17
330
0
100
AcDbSymbolTable
 70
     0
  0
ENDTAB
  0
TABLE
  2
UCS
  5
18
330
0
100
AcDbSymbolTable
 70
     0
  0
ENDTAB
  0
TABLE
  2
APPID
  5
1B
330
0
100
AcDbSymbolTable
 70
     1
  0
APPID
  5
1C
330
1B
100
AcDbSymbolTableRecord
100
AcDbRegAppTableRecord
  2
ACAD
 70
     0
  0
ENDTAB
  0
TABLE
  2
DIMSTYLE
  5
1D
330
0
100
AcDbSymbolTable
 70
     1
100
AcDbDimStyleTable
  0
DIMSTYLE
105
24
330
1D
100
AcDbSymbolTableRecord
100
AcDbDimStyleTableRecord
  2
STANDARD
 70
     0
  3

  4

340
12
  0
ENDTAB
  0
TABLE
  2
BLOCK_RECORD
  5
1
330
0
100
AcDbSymbolTable
 70
     0
  0
BLOCK_RECORD
  5
2
102
{ACAD_XDICTIONARY
360
89
102
}
330
1
100
AcDbSymbolTableRecord
100
AcDbBlockTableRecord
  2
*MODEL_SPACE
340
A
  0
BLOCK_RECORD
  5
C
330
1
100
AcDbSymbolTableRecord
100
AcDbBlockTableRecord
  2
*PAPER_SPACE
340
F
  0
ENDTAB
  0
ENDSEC
  0
SECTION
  2
BLOCKS
  0
BLOCK
  5
3
330
2
100
AcDbEntity
  8
0
100
AcDbBlockBegin
  2
*MODEL_SPACE
 70
     0
 10
0.0
 20
0.0
 30
0.0
  3
*MODEL_SPACE
  1

  4

  0
ENDBLK
  5
9
330
2
100
AcDbEntity
  8
0
100
AcDbBlockEnd
  0
BLOCK
  5
D
330
C
100
AcDbEntity
 67
     1
  8
0
100
AcDbBlockBegin
  2
*PAPER_SPACE
 70
     0
 10
0.0
 20
0.0
 30
0.0
  3
*PAPER_SPACE
  1

  4

  0
ENDBLK
  5
E
330
C
100
AcDbEntity
 67
     1
  8
0
100
AcDbBlockEnd
  0
ENDSEC
  0
SECTION
  2
ENTITIES
  0
LINE
  5
8D
330
2
100
AcDbEntity
  8
OBJECT
100
AcDbLine
 10
-1.375
 20
17.75
 30
0.0
 11
-1.375
 21
11.0625
 31
0.0
  0
LINE
  5
8E
330
2
100
AcDbEntity
  8
OBJECT
100
AcDbLine
 10
-0.125
 20
17.75
 30
0.0
 11
-0.125
 21
11.0625
 31
0.0
  0
LINE
  5
8F
330
2
100
AcDbEntity
  8
OBJECT
100
AcDbLine
 10
0.0
 20
0.0
 30
0.0
 11
0.0
 21
7.894408962358339
 31
0.0
  0
LINE
  5
90
330
2
100
AcDbEntity
  8
OBJECT
100
AcDbLine
 10
0.0625
 20
0.0
 30
0.0
 11
0.0624999999999964
 21
9.952019543173961
 31
0.0
  0
LINE
  5
91
330
2
100
AcDbEntity
  8
OBJECT
100
AcDbLine
 10
0.0
 20
0.0
 30
0.0
 11
0.0625
 21
0.0
 31
0.0
  0
LINE
  5
92
330
2
100
AcDbEntity
  8
OBJECT
100
AcDbLine
 10
0.0470444443128599
 20
7.82889362587669
 30
0.0
 11
-1.323076923076926
 21
10.18461538461539
 31
0.0
  0
LINE
  5
93
330
2
100
AcDbEntity
  8
OBJECT
100
AcDbLine
 10
0.0
 20
7.909779614325078
 30
0.0
 11
0.0
 21
10.09022038567493
 31
0.0
  0
ARC
  5
94
330
2
100
AcDbEntity
  8
OBJECT
100
AcDbCircle
 10
-0.0570000000000022
 20
7.894408962358337
 30
0.0
 40
0.057
100
AcDbArc
 50
0.0
 51
30.18289319701735
  0
ARC
  5
95
330
2
100
AcDbEntity
  8
OBJECT
100
AcDbCircle
 10
-0.0515000000000043
 20
7.771578771824103
 30
0.0
 40
0.114
100
AcDbArc
 50
0.0
 51
30.18289319701735
  0
CIRCLE
  5
96
330
2
100
AcDbEntity
  8
OBJECT
100
AcDbCircle
 10
-0.375
 20
12.3125
 30
0.0
 40
0.078125
  0
LINE
  5
97
330
2
100
AcDbEntity
  8
OBJECT
100
AcDbLine
 10
-1.375
 20
11.0625
 30
0.0
 11
-1.375
 21
10.375
 31
0.0
  0
ARC
  5
98
330
2
100
AcDbEntity
  8
OBJECT
100
AcDbCircle
 10
-1.0
 20
10.375
 30
0.0
 40
0.375
100
AcDbArc
 50
180.0
 51
210.5102374061157
  0
CIRCLE
  5
99
330
2
100
AcDbEntity
  8
OBJECT
100
AcDbCircle
 10
-1.0
 20
11.6875
 30
0.0
 40
0.078125
  0
LINE
  5
9A
330
2
100
AcDbEntity
  8
OBJECT
100
AcDbLine
 10
-0.125
 20
11.0625
 30
0.0
 11
-0.125
 21
10.40625
 31
0.0
  0
ARC
  5
9B
330
2
100
AcDbEntity
  8
OBJECT
100
AcDbCircle
 10
-0.0515000000000043
 20
9.952019543173961
 30
0.0
 40
0.114
100
AcDbArc
 50
0.0
 51
30.18289319701711
  0
LINE
  5
9C
330
2
100
AcDbEntity
  8
OBJECT
100
AcDbLine
 10
-0.0730769230769255
 20
10.21586538461539
 30
0.0
 11
0.0470444443128599
 21
10.00933439722654
 31
0.0
  0
ARC
  5
9D
330
2
100
AcDbEntity
  8
OBJECT
100
AcDbCircle
 10
0.25
 20
10.40625
 30
0.0
 40
0.375
100
AcDbArc
 50
180.0
 51
210.5102374061157
  0
CIRCLE
  5
9E
330
2
100
AcDbEntity
  8
OBJECT
100
AcDbCircle
 10
-1.125
 20
12.6875
 30
0.0
 40
0.078125
  0
CIRCLE
  5
9F
330
2
100
AcDbEntity
  8
OBJECT
100
AcDbCircle
 10
-1.0
 20
13.6875
 30
0.0
 40
0.078125
  0
CIRCLE
  5
A0
330
2
100
AcDbEntity
  8
OBJECT
100
AcDbCircle
 10
-1.125
 20
14.6875
 30
0.0
 40
0.078125
  0
CIRCLE
  5
A1
330
2
100
AcDbEntity
  8
OBJECT
100
AcDbCircle
 10
-0.5
 20
13.3125
 30
0.0
 40
0.078125
  0
CIRCLE
  5
A2
330
2
100
AcDbEntity
  8
OBJECT
100
AcDbCircle
 10
-0.375
 20
14.3125
 30
0.0
 40
0.078125
  0
CIRCLE
  5
A3
330
2
100
AcDbEntity
  8
OBJECT
100
AcDbCircle
 10
-0.5
 20
15.3125
 30
0.0
 40
0.078125
  0
LINE
  5
A4
330
2
100
AcDbEntity
  8
OBJECT
100
AcDbLine
 10
-0.3749999999999965
 20
18.0
 30
0.0
 11
-1.125
 21
18.0
 31
0.0
  0
CIRCLE
  5
A5
330
2
100
AcDbEntity
  8
OBJECT
100
AcDbCircle
 10
-0.75
 20
16.5
 30
0.0
 40
0.1875
  0
CIRCLE
  5
A6
330
2
100
AcDbEntity
  8
OBJECT
100
AcDbCircle
 10
-1.0
 20
15.6875
 30
0.0
 40
0.078125
  0
CIRCLE
  5
A7
330
2
100
AcDbEntity
  8
OBJECT
100
AcDbCircle
 10
-1.125
 20
16.6875
 30
0.0
 40
0.078125
  0
LINE
  5
A8
330
2
100
AcDbEntity
  8
OBJECT
100
AcDbLine
 10
-1.375
 20
17.75
 30
0.0
 11
-1.125
 21
18.0
 31
0.0
  0
CIRCLE
  5
A9
330
2
100
AcDbEntity
  8
OBJECT
100
AcDbCircle
 10
-1.0
 20
17.6875
 30
0.0
 40
0.078125
  0
CIRCLE
  5
AA
330
2
100
AcDbEntity
  8
OBJECT
100
AcDbCircle
 10
-0.375
 20
16.3125
 30
0.0
 40
0.078125
  0
LINE
  5
AB
330
2
100
AcDbEntity
  8
OBJECT
100
AcDbLine
 10
-0.375
 20
18.0
 30
0.0
 11
-0.125
 21
17.75
 31
0.0
  0
CIRCLE
  5
AC
330
2
100
AcDbEntity
  8
OBJECT
100
AcDbCircle
 10
-0.5
 20
17.3125
 30
0.0
 40
0.078125
  0
LINE
  5
AD
330
2
100
AcDbEntity
  8
OBJECT
100
AcDbLine
 10
5.685735594823917
 20
8.047980456826053
 30
0.0
 11
5.685735594823925
 21
17.99999999999999
 31
0.0
  0
LINE
  5
AE
330
2
100
AcDbEntity
  8
OBJECT
100
AcDbLine
 10
5.748235594823925
 20
10.10559103764167
 30
0.0
 11
5.748235594823925
 21
18.0
 31
0.0
  0
LINE
  5
AF
330
2
100
AcDbEntity
  8
OBJECT
100
AcDbLine
 10
7.123235594823925
 20
0.25
 30
0.0
 11
7.123235594823925
 21
6.8125
 31
0.0
  0
LINE
  5
B0
330
2
100
AcDbEntity
  8
OBJECT
100
AcDbLine
 10
5.873235594823925
 20
0.25
 30
0.0
 11
5.873235594823925
 21
6.8125
 31
0.0
  0
CIRCLE
  5
B1
330
2
100
AcDbEntity
  8
OBJECT
100
AcDbCircle
 10
6.498235594823925
 20
1.5
 30
0.0
 40
0.1875
  0
LINE
  5
B2
330
2
100
AcDbEntity
  8
OBJECT
100
AcDbLine
 10
6.123235594823925
 20
0.0
 30
0.0
 11
6.873235594823925
 21
0.0
 31
0.0
  0
CIRCLE
  5
B3
330
2
100
AcDbEntity
  8
OBJECT
100
AcDbCircle
 10
6.248235594823925
 20
0.6875
 30
0.0
 40
0.078125
  0
LINE
  5
B4
330
2
100
AcDbEntity
  8
OBJECT
100
AcDbLine
 10
6.123235594823925
 20
0.0
 30
0.0
 11
5.873235594823925
 21
0.25
 31
0.0
  0
LINE
  5
B5
330
2
100
AcDbEntity
  8
OBJECT
100
AcDbLine
 10
7.123235594823925
 20
0.25
 30
0.0
 11
6.873235594823925
 21
0.0
 31
0.0
  0
CIRCLE
  5
B6
330
2
100
AcDbEntity
  8
OBJECT
100
AcDbCircle
 10
6.748235594823925
 20
0.3125
 30
0.0
 40
0.078125
  0
CIRCLE
  5
B7
330
2
100
AcDbEntity
  8
OBJECT
100
AcDbCircle
 10
6.873235594823925
 20
1.3125
 30
0.0
 40
0.078125
  0
CIRCLE
  5
B8
330
2
100
AcDbEntity
  8
OBJECT
100
AcDbCircle
 10
6.123235594823925
 20
1.6875
 30
0.0
 40
0.078125
  0
CIRCLE
  5
B9
330
2
100
AcDbEntity
  8
OBJECT
100
AcDbCircle
 10
6.248235594823925
 20
2.6875
 30
0.0
 40
0.078125
  0
CIRCLE
  5
BA
330
2
100
AcDbEntity
  8
OBJECT
100
AcDbCircle
 10
6.748235594823925
 20
2.3125
 30
0.0
 40
0.078125
  0
LINE
  5
BB
330
2
100
AcDbEntity
  8
OBJECT
  6
HIDDEN
100
AcDbLine
 10
5.748235594823925
 20
7.909779614325073
 30
0.0
 11
5.748235594823925
 21
10.09022038567493
 31
0.0
  0
LINE
  5
BC
330
2
100
AcDbEntity
  8
OBJECT
100
AcDbLine
 10
5.701191150511058
 20
10.17110637412332
 30
0.0
 11
7.071312517900847
 21
7.815384615384618
 31
0.0
  0
CIRCLE
  5
BD
330
2
100
AcDbEntity
  8
OBJECT
100
AcDbCircle
 10
6.123235594823925
 20
3.6875
 30
0.0
 40
0.078125
  0
CIRCLE
  5
BE
330
2
100
AcDbEntity
  8
OBJECT
100
AcDbCircle
 10
6.873235594823925
 20
3.3125
 30
0.0
 40
0.078125
  0
CIRCLE
  5
BF
330
2
100
AcDbEntity
  8
OBJECT
100
AcDbCircle
 10
6.748235594823925
 20
4.3125
 30
0.0
 40
0.078125
  0
CIRCLE
  5
C0
330
2
100
AcDbEntity
  8
OBJECT
100
AcDbCircle
 10
6.248235594823925
 20
4.6875
 30
0.0
 40
0.078125
  0
CIRCLE
  5
C1
330
2
100
AcDbEntity
  8
OBJECT
100
AcDbCircle
 10
6.123235594823925
 20
5.6875
 30
0.0
 40
0.078125
  0
CIRCLE
  5
C2
330
2
100
AcDbEntity
  8
OBJECT
100
AcDbCircle
 10
6.873235594823925
 20
5.3125
 30
0.0
 40
0.078125
  0
ARC
  5
C3
330
2
100
AcDbEntity
  8
OBJECT
100
AcDbCircle
 10
5.498235594823925
 20
7.593750000000002
 30
0.0
 40
0.375
100
AcDbArc
 50
0.0
 51
30.51026179691339
  0
ARC
  5
C4
330
2
100
AcDbEntity
  8
OBJECT
100
AcDbCircle
 10
6.748235594823925
 20
7.625000000000002
 30
0.0
 40
0.375
100
AcDbArc
 50
0.0
 51
30.51026179691339
  0
ARC
  5
C5
330
2
100
AcDbEntity
  8
OBJECT
100
AcDbCircle
 10
5.873235594823925
 20
6.875
 30
0.0
 40
0.0625
100
AcDbArc
 50
270.0
 51
90.0
  0
LINE
  5
C6
330
2
100
AcDbEntity
  8
OBJECT
100
AcDbLine
 10
5.873235594823925
 20
6.9375
 30
0.0
 11
5.873235594823925
 21
7.593750000000002
 31
0.0
  0
ARC
  5
C7
330
2
100
AcDbEntity
  8
OBJECT
100
AcDbCircle
 10
7.123235594823925
 20
6.875
 30
0.0
 40
0.0625
100
AcDbArc
 50
90.0
 51
270.0
  0
CIRCLE
  5
C8
330
2
100
AcDbEntity
  8
OBJECT
100
AcDbCircle
 10
6.748235594823925
 20
6.3125
 30
0.0
 40
0.078125
  0
LINE
  5
C9
330
2
100
AcDbEntity
  8
OBJECT
100
AcDbLine
 10
7.123235594823925
 20
7.625000000000002
 30
0.0
 11
7.123235594823925
 21
6.9375
 31
0.0
  0
ARC
  5
CA
330
2
100
AcDbEntity
  8
OBJECT
100
AcDbCircle
 10
5.799735594823922
 20
8.047980456826053
 30
0.0
 40
0.114
100
AcDbArc
 50
180.0
 51
210.1828931970173
  0
LINE
  5
CB
330
2
100
AcDbEntity
  8
OBJECT
100
AcDbLine
 10
5.821312517900847
 20
7.784134615384618
 30
0.0
 11
5.701191150511058
 21
7.990665602773468
 31
0.0
  0
ARC
  5
CC
330
2
100
AcDbEntity
  8
OBJECT
100
AcDbCircle
 10
5.799735594823922
 20
10.22842122817591
 30
0.0
 40
0.114
100
AcDbArc
 50
180.0
 51
210.1828931970174
  0
ARC
  5
CD
330
2
100
AcDbEntity
  8
OBJECT
100
AcDbCircle
 10
5.805235594823927
 20
10.10559103764167
 30
0.0
 40
0.057
100
AcDbArc
 50
180.0000000000001
 51
210.1828931970174
  0
LINE
  5
CE
330
2
100
AcDbEntity
  8
OBJECT
100
AcDbLine
 10
5.748235594823925
 20
18.0
 30
0.0
 11
5.685735594823925
 21
17.99999999999999
 31
0.0
  0
LINE
  5
DB
330
2
100
AcDbEntity
  8
OBJECT
100
AcDbLine
 10
-7.185735594823914
 20
8.047980456826053
 30
0.0
 11
-7.185735594823921
 21
17.99999999999999
 31
0.0
  0
LINE
  5
DC
330
2
100
AcDbEntity
  8
OBJECT
100
AcDbLine
 10
-7.248235594823921
 20
10.10559103764167
 30
0.0
 11
-7.248235594823921
 21
18.0
 31
0.0
  0
LINE
  5
DD
330
2
100
AcDbEntity
  8
OBJECT
100
AcDbLine
 10
-8.623235594823921
 20
0.25
 30
0.0
 11
-8.623235594823921
 21
6.8125
 31
0.0
  0
LINE
  5
DE
330
2
100
AcDbEntity
  8
OBJECT
100
AcDbLine
 10
-7.373235594823921
 20
0.25
 30
0.0
 11
-7.373235594823921
 21
6.8125
 31
0.0
  0
CIRCLE
  5
DF
330
2
100
AcDbEntity
  8
OBJECT
100
AcDbCircle
 10
-7.998235594823921
 20
1.5
 30
0.0
 40
0.1875
  0
LINE
  5
E0
330
2
100
AcDbEntity
  8
OBJECT
100
AcDbLine
 10
-7.623235594823921
 20
0.0
 30
0.0
 11
-8.373235594823921
 21
0.0
 31
0.0
  0
CIRCLE
  5
E1
330
2
100
AcDbEntity
  8
OBJECT
100
AcDbCircle
 10
-7.748235594823921
 20
0.6875
 30
0.0
 40
0.078125
  0
LINE
  5
E2
330
2
100
AcDbEntity
  8
OBJECT
100
AcDbLine
 10
-7.623235594823921
 20
0.0
 30
0.0
 11
-7.373235594823921
 21
0.25
 31
0.0
  0
LINE
  5
E3
330
2
100
AcDbEntity
  8
OBJECT
100
AcDbLine
 10
-8.623235594823921
 20
0.25
 30
0.0
 11
-8.373235594823921
 21
0.0
 31
0.0
  0
CIRCLE
  5
E4
330
2
100
AcDbEntity
  8
OBJECT
100
AcDbCircle
 10
-8.248235594823921
 20
0.3125
 30
0.0
 40
0.078125
  0
CIRCLE
  5
E5
330
2
100
AcDbEntity
  8
OBJECT
100
AcDbCircle
 10
-8.373235594823921
 20
1.3125
 30
0.0
 40
0.078125
  0
CIRCLE
  5
E6
330
2
100
AcDbEntity
  8
OBJECT
100
AcDbCircle
 10
-7.623235594823921
 20
1.6875
 30
0.0
 40
0.078125
  0
CIRCLE
  5
E7
330
2
100
AcDbEntity
  8
OBJECT
100
AcDbCircle
 10
-7.748235594823921
 20
2.6875
 30
0.0
 40
0.078125
  0
CIRCLE
  5
E8
330
2
100
AcDbEntity
  8
OBJECT
100
AcDbCircle
 10
-8.248235594823921
 20
2.3125
 30
0.0
 40
0.078125
  0
LINE
  5
E9
330
2
100
AcDbEntity
  8
OBJECT
100
AcDbLine
 10
-7.248235594823921
 20
7.909779614325073
 30
0.0
 11
-7.248235594823921
 21
10.09022038567493
 31
0.0
  0
LINE
  5
EA
330
2
100
AcDbEntity
  8
OBJECT
100
AcDbLine
 10
-7.201191150511054
 20
10.17110637412332
 30
0.0
 11
-8.571312517900843
 21
7.815384615384618
 31
0.0
  0
CIRCLE
  5
EB
330
2
100
AcDbEntity
  8
OBJECT
100
AcDbCircle
 10
-7.623235594823921
 20
3.6875
 30
0.0
 40
0.078125
  0
CIRCLE
  5
EC
330
2
100
AcDbEntity
  8
OBJECT
100
AcDbCircle
 10
-8.373235594823921
 20
3.3125
 30
0.0
 40
0.078125
  0
CIRCLE
  5
ED
330
2
100
AcDbEntity
  8
OBJECT
100
AcDbCircle
 10
-8.248235594823921
 20
4.3125
 30
0.0
 40
0.078125
  0
CIRCLE
  5
EE
330
2
100
AcDbEntity
  8
OBJECT
100
AcDbCircle
 10
-7.748235594823921
 20
4.6875
 30
0.0
 40
0.078125
  0
CIRCLE
  5
EF
330
2
100
AcDbEntity
  8
OBJECT
100
AcDbCircle
 10
-7.623235594823921
 20
5.6875
 30
0.0
 40
0.078125
  0
CIRCLE
  5
F0
330
2
100
AcDbEntity
  8
OBJECT
100
AcDbCircle
 10
-8.373235594823921
 20
5.3125
 30
0.0
 40
0.078125
  0
ARC
  5
F1
330
2
100
AcDbEntity
  8
OBJECT
100
AcDbCircle
 10
-6.998235594823921
 20
7.593750000000002
 30
0.0
 40
0.375
100
AcDbArc
 50
149.4897382030866
 51
180.0
  0
ARC
  5
F2
330
2
100
AcDbEntity
  8
OBJECT
100
AcDbCircle
 10
-8.248235594823921
 20
7.625000000000002
 30
0.0
 40
0.375
100
AcDbArc
 50
149.4897382030866
 51
180.0
  0
ARC
  5
F3
330
2
100
AcDbEntity
  8
OBJECT
100
AcDbCircle
 10
-7.373235594823921
 20
6.875
 30
0.0
 40
0.0625
100
AcDbArc
 50
90.0
 51
270.0
  0
LINE
  5
F4
330
2
100
AcDbEntity
  8
OBJECT
100
AcDbLine
 10
-7.373235594823921
 20
6.9375
 30
0.0
 11
-7.373235594823921
 21
7.593750000000002
 31
0.0
  0
ARC
  5
F5
330
2
100
AcDbEntity
  8
OBJECT
100
AcDbCircle
 10
-8.623235594823921
 20
6.875
 30
0.0
 40
0.0625
100
AcDbArc
 50
270.0
 51
90.0
  0
CIRCLE
  5
F6
330
2
100
AcDbEntity
  8
OBJECT
100
AcDbCircle
 10
-8.248235594823921
 20
6.3125
 30
0.0
 40
0.078125
  0
LINE
  5
F7
330
2
100
AcDbEntity
  8
OBJECT
100
AcDbLine
 10
-8.623235594823921
 20
7.625000000000002
 30
0.0
 11
-8.623235594823921
 21
6.9375
 31
0.0
  0
ARC
  5
F8
330
2
100
AcDbEntity
  8
OBJECT
100
AcDbCircle
 10
-7.299735594823918
 20
8.047980456826053
 30
0.0
 40
0.114
100
AcDbArc
 50
329.8171068029827
 51
0.000000000000007
  0
LINE
  5
F9
330
2
100
AcDbEntity
  8
OBJECT
100
AcDbLine
 10
-7.321312517900843
 20
7.784134615384618
 30
0.0
 11
-7.201191150511054
 21
7.990665602773468
 31
0.0
  0
ARC
  5
FA
330
2
100
AcDbEntity
  8
OBJECT
100
AcDbCircle
 10
-7.299735594823918
 20
10.22842122817591
 30
0.0
 40
0.114
100
AcDbArc
 50
329.8171068029826
 51
0.000000000000007
  0
ARC
  5
FB
330
2
100
AcDbEntity
  8
OBJECT
100
AcDbCircle
 10
-7.305235594823923
 20
10.10559103764167
 30
0.0
 40
0.057
100
AcDbArc
 50
329.8171068029826
 51
359.9999999999999
  0
LINE
  5
FC
330
2
100
AcDbEntity
  8
OBJECT
100
AcDbLine
 10
-7.248235594823921
 20
18.0
 30
0.0
 11
-7.185735594823921
 21
17.99999999999999
 31
0.0
  0
ENDSEC
  0
SECTION
  2
OBJECTS
  0
DICTIONARY
  5
7
330
0
100
AcDbDictionary
281
     1
  3
ACAD_COLOR
350
82
  3
ACAD_GROUP
350
1F
  3
ACAD_LAYOUT
350
B
  3
ACAD_MATERIAL
350
81
  3
ACAD_MLINESTYLE
350
20
  3
ACAD_PLOTSETTINGS
350
21
  3
ACAD_PLOTSTYLENAME
350
6
  3
ACAD_TABLESTYLE
350
83
  3
ACDBHEADERROUNDTRIPXREC
350
111
  3
AcDbVariableDictionary
350
7D
  0
DICTIONARY
  5
89
330
2
100
AcDbDictionary
280
     1
281
     1
  3
ACAD_SORTENTS
360
8A
  0
DICTIONARY
  5
82
102
{ACAD_REACTORS
330
7
102
}
330
7
100
AcDbDictionary
281
     1
  0
DICTIONARY
  5
1F
102
{ACAD_REACTORS
330
7
102
}
330
7
100
AcDbDictionary
281
     1
  0
DICTIONARY
  5
B
102
{ACAD_REACTORS
330
7
102
}
330
7
100
AcDbDictionary
281
     1
  3
Layout1
350
F
  3
Model
350
A
  0
DICTIONARY
  5
81
102
{ACAD_REACTORS
330
7
102
}
330
7
100
AcDbDictionary
281
     1
  0
DICTIONARY
  5
20
102
{ACAD_REACTORS
330
7
102
}
330
7
100
AcDbDictionary
281
     1
  3
STANDARD
350
23
  0
DICTIONARY
  5
21
102
{ACAD_REACTORS
330
7
102
}
330
7
100
AcDbDictionary
281
     1
  0
ACDBDICTIONARYWDFLT
  5
6
102
{ACAD_REACTORS
330
7
102
}
330
7
100
AcDbDictionary
281
     1
  3
Normal
350
5
100
AcDbDictionaryWithDefault
340
5
  0
DICTIONARY
  5
83
102
{ACAD_REACTORS
330
7
102
}
330
7
100
AcDbDictionary
281
     1
  3
Standard
350
84
  0
DICTIONARY
  5
111
102
{ACAD_REACTORS
330
7
102
}
330
7
100
AcDbDictionary
281
     1
  3
COLORDICT
350
112
  3
MATERIALDICT
350
113
  0
DICTIONARY
  5
7D
102
{ACAD_REACTORS
330
7
102
}
330
7
100
AcDbDictionary
281
     1
  3
CTABLESTYLE
350
D6
  3
HIDETEXT
350
110
  0
SORTENTSTABLE
  5
8A
102
{ACAD_REACTORS
330
89
102
}
330
89
100
AcDbSortentsTable
330
2
331
9B
  5
BD
331
9A
  5
BC
331
B5
  5
95
331
C2
  5
A2
331
AA
  5
CC
331
93
  5
B5
331
C1
  5
A1
331
CC
  5
AC
331
C9
  5
A9
331
B0
  5
90
331
90
  5
B2
331
B2
  5
92
331
AB
  5
CD
331
CD
  5
AD
331
AC
  5
CE
331
A6
  5
C8
331
8D
  5
AF
331
CB
  5
AB
331
C7
  5
A7
331
BA
  5
9A
331
A9
  5
CB
331
98
  5
BA
331
AE
  5
8E
331
A5
  5
C7
331
94
  5
B6
331
BD
  5
9D
331
C0
  5
A0
331
B9
  5
99
331
C4
  5
A4
331
C3
  5
A3
331
99
  5
BB
331
AD
  5
8D
331
AF
  5
8F
331
A7
  5
C9
331
C6
  5
A6
331
9F
  5
C1
331
B7
  5
97
331
B8
  5
98
331
95
  5
B7
331
BC
  5
9C
331
CE
  5
AE
331
A8
  5
CA
331
C8
  5
A8
331
BB
  5
9B
331
97
  5
B9
331
B3
  5
93
331
C5
  5
A5
331
B1
  5
91
331
BE
  5
9E
331
A1
  5
C3
331
A3
  5
C5
331
9C
  5
BE
331
A2
  5
C4
331
A0
  5
C2
331
92
  5
B4
331
BF
  5
9F
331
91
  5
B3
331
A4
  5
C6
331
8F
  5
B1
331
B6
  5
96
331
9D
  5
BF
331
96
  5
B8
331
CA
  5
AA
331
B4
  5
94
331
9E
  5
C0
331
8E
  5
B0
  0
LAYOUT
  5
F
102
{ACAD_REACTORS
330
B
102
}
102
{ACAD_XDICTIONARY
360
114
102
}
330
B
100
AcDbPlotSettings
  1

  2
X:\Program Files\AutoCAD2002\plotters\DWF ePlot (optimized for plotting).pc3
  4

  6

 40
0.0
 41
0.0
 42
0.0
 43
0.0
 44
0.0
 45
0.0
 46
0.0
 47
0.0
 48
0.0
 49
0.0
140
0.0
141
0.0
142
1.0
143
1.0
 70
   688
 72
     0
 73
     0
 74
     5
  7

 75
    16
147
1.0
148
0.0
149
0.0
100
AcDbLayout
  1
Layout1
 70
     0
 71
     1
 10
0.0
 20
0.0
 11
12.0
 21
9.0
 12
0.0
 22
0.0
 32
0.0
 14
1.000000000000000E+20
 24
1.000000000000000E+20
 34
1.000000000000000E+20
 15
-1.000000000000000E+20
 25
-1.000000000000000E+20
 35
-1.000000000000000E+20
146
0.0
 13
0.0
 23
0.0
 33
0.0
 16
1.0
 26
0.0
 36
0.0
 17
0.0
 27
1.0
 37
0.0
 76
     0
330
C
  0
LAYOUT
  5
A
102
{ACAD_REACTORS
330
B
102
}
102
{ACAD_XDICTIONARY
360
116
102
}
330
B
100
AcDbPlotSettings
  1

  2
X:\Program Files\AutoCAD2002\plotters\DWF ePlot (optimized for plotting).pc3
  4

  6

 40
0.0
 41
0.0
 42
0.0
 43
0.0
 44
0.0
 45
0.0
 46
0.0
 47
0.0
 48
0.0
 49
0.0
140
0.0
141
0.0
142
1.0
143
1.0
 70
  1712
 72
     0
 73
     0
 74
     0
  7

 75
     0
147
1.0
148
0.0
149
0.0
100
AcDbLayout
  1
Model
 70
     1
 71
     0
 10
0.0
 20
0.0
 11
12.0
 21
9.0
 12
0.0
 22
0.0
 32
0.0
 14
0.0
 24
0.0
 34
0.0
 15
0.0
 25
0.0
 35
0.0
146
0.0
 13
0.0
 23
0.0
 33
0.0
 16
1.0
 26
0.0
 36
0.0
 17
0.0
 27
1.0
 37
0.0
 76
     0
330
2
  0
MLINESTYLE
  5
23
102
{ACAD_REACTORS
330
20
102
}
330
20
100
AcDbMlineStyle
  2
STANDARD
 70
     0
  3

 62
   256
 51
90.0
 52
90.0
 71
     2
 49
0.5
 62
   256
  6
BYLAYER
 49
-0.5
 62
   256
  6
BYLAYER
  0
ACDBPLACEHOLDER
  5
5
102
{ACAD_REACTORS
330
6
102
}
330
6
  0
ACAD_PROXY_OBJECT
  5
84
102
{ACAD_REACTORS
330
83
102
}
330
83
100
AcDbProxyObject
 90
      499
 91
      505
 95
   983063
 70
     0
 93
     1841
310
4214DD185B99185C9928B81E85EB51B8AE3F2E07A17AD46E2B8FC02B5E8DC0F42B1CFD028000000C1008070000C3001FDFF8000000C1003FBFF000000182007F7FE00000030400FEFFC00000060801FDFF8000000C1003FBFF00000018200000000000000681FA0B0000001820100E000186003FBFF000000182007F7FE000
310
00030400FEFFC00000060801FDFF8000000C1003FBFF000000182007F7FE000000304000AD7A3703D0AC73F4160000003040201C00030C007F7FE00000030400FEFFC00000060801FDFF8000000C1003FBFF000000182007F7FE00000030400FEFFC000000608000
340
12
340
12
340
12
 94
        0
  0
XRECORD
  5
112
102
{ACAD_REACTORS
330
111
102
}
330
111
100
AcDbXrecord
340
82
  0
XRECORD
  5
113
102
{ACAD_REACTORS
330
111
102
}
330
111
100
AcDbXrecord
340
81
  0
DICTIONARYVAR
  5
D6
102
{ACAD_REACTORS
330
7D
102
}
330
7D
100
DictionaryVariables
280
     0
  1
STANDARD
  0
DICTIONARYVAR
  5
110
102
{ACAD_REACTORS
330
7D
102
}
330
7D
100
DictionaryVariables
280
     0
  1
0
  0
DICTIONARY
  5
114
330
F
100
AcDbDictionary
280
     1
281
     1
  3
ACAD_XREC_ROUNDTRIP
360
115
  0
DICTIONARY
  5
116
330
A
100
AcDbDictionary
280
     1
281
     1
  3
ACAD_XREC_ROUNDTRIP
360
117
  0
XRECORD
  5
115
102
{ACAD_REACTORS
330
114
102
}
330
114
100
AcDbXrecord
102
SHADEPLOT
 70
     0
102
SHADEPLOTRESLEVEL
 70
     2
102
SHADEPLOTCUSTOMDPI
 70
   300
  0
XRECORD
  5
117
102
{ACAD_REACTORS
330
116
102
}
330
116
100
AcDbXrecord
102
SHADEPLOT
 70
     0
102
SHADEPLOTRESLEVEL
 70
     2
102
SHADEPLOTCUSTOMDPI
 70
   300
  0
ENDSEC
  0
EOF
