  0
SECTION
  2
HEADER
  9
$ACADVER
  1
AC1015
  9
$ACADMAINTVER
 70
     6
  9
$DWGCODEPAGE
  3
ANSI_1252
  9
$INSBASE
 10
0.0
 20
0.0
 30
0.0
  9
$EXTMIN
 10
-0.3552103099611372
 20
-0.0007323659964982
 30
-0.0015258207003583
  9
$EXTMAX
 10
11.64067895680201
 20
14.50122074794632
 30
0.0000000349246037
  9
$LIMMIN
 10
0.0
 20
0.0
  9
$LIMMAX
 10
31.5
 20
24.0
  9
$ORTHOMODE
 70
     1
  9
$REGENMODE
 70
     1
  9
$FILLMODE
 70
     1
  9
$QTEXTMODE
 70
     0
  9
$MIRRTEXT
 70
     0
  9
$LTSCALE
 40
1.0
  9
$ATTMODE
 70
     1
  9
$TEXTSIZE
 40
0.270000000000005
  9
$TRACEWID
 40
0.05
  9
$TEXTSTYLE
  7
STANDARD
  9
$CLAYER
  8
0
  9
$CELTYPE
  6
ByLayer
  9
$CECOLOR
 62
   256
  9
$CELTSCALE
 40
1.0
  9
$DISPSILH
 70
     0
  9
$DIMSCALE
 40
3.00000000000005
  9
$DIMASZ
 40
0.125
  9
$DIMEXO
 40
0.062
  9
$DIMDLI
 40
0.375
  9
$DIMRND
 40
0.0
  9
$DIMDLE
 40
0.0
  9
$DIMEXE
 40
0.08
  9
$DIMTP
 40
0.0
  9
$DIMTM
 40
0.0
  9
$DIMTXT
 40
0.09
  9
$DIMCEN
 40
-0.03125
  9
$DIMTSZ
 40
0.0
  9
$DIMTOL
 70
     0
  9
$DIMLIM
 70
     0
  9
$DIMTIH
 70
     1
  9
$DIMTOH
 70
     1
  9
$DIMSE1
 70
     0
  9
$DIMSE2
 70
     0
  9
$DIMTAD
 70
     0
  9
$DIMZIN
 70
     0
  9
$DIMBLK
  1

  9
$DIMASO
 70
     0
  9
$DIMSHO
 70
     0
  9
$DIMPOST
  1

  9
$DIMAPOST
  1

  9
$DIMALT
 70
     0
  9
$DIMALTD
 70
     2
  9
$DIMALTF
 40
25.4
  9
$DIMLFAC
 40
1.0
  9
$DIMTOFL
 70
     0
  9
$DIMTVP
 40
0.0
  9
$DIMTIX
 70
     0
  9
$DIMSOXD
 70
     0
  9
$DIMSAH
 70
     0
  9
$DIMBLK1
  1

  9
$DIMBLK2
  1

  9
$DIMSTYLE
  2
Standard
  9
$DIMCLRD
 70
     0
  9
$DIMCLRE
 70
     0
  9
$DIMCLRT
 70
     0
  9
$DIMTFAC
 40
1.0
  9
$DIMGAP
 40
0.09
  9
$DIMJUST
 70
     0
  9
$DIMSD1
 70
     0
  9
$DIMSD2
 70
     0
  9
$DIMTOLJ
 70
     1
  9
$DIMTZIN
 70
     0
  9
$DIMALTZ
 70
     0
  9
$DIMALTTZ
 70
     0
  9
$DIMUPT
 70
     0
  9
$DIMDEC
 70
     5
  9
$DIMTDEC
 70
     5
  9
$DIMALTU
 70
     5
  9
$DIMALTTD
 70
     2
  9
$DIMTXSTY
  7
STANDARD
  9
$DIMAUNIT
 70
     0
  9
$DIMADEC
 70
     0
  9
$DIMALTRND
 40
0.0
  9
$DIMAZIN
 70
     0
  9
$DIMDSEP
 70
    46
  9
$DIMATFIT
 70
     3
  9
$DIMFRAC
 70
     0
  9
$DIMLDRBLK
  1

  9
$DIMLUNIT
 70
     5
  9
$DIMLWD
 70
    -2
  9
$DIMLWE
 70
    -2
  9
$DIMTMOVE
 70
     2
  9
$LUNITS
 70
     5
  9
$LUPREC
 70
     5
  9
$SKETCHINC
 40
0.1
  9
$FILLETRAD
 40
0.0
  9
$AUNITS
 70
     0
  9
$AUPREC
 70
     0
  9
$MENU
  1
acad
  9
$ELEVATION
 40
0.0
  9
$PELEVATION
 40
0.0
  9
$THICKNESS
 40
0.0
  9
$LIMCHECK
 70
     0
  9
$CHAMFERA
 40
0.0
  9
$CHAMFERB
 40
0.0
  9
$CHAMFERC
 40
0.0
  9
$CHAMFERD
 40
0.0
  9
$SKPOLY
 70
     0
  9
$TDCREATE
 40
2449287.818841204
  9
$TDUCREATE
 40
2449288.152174537
  9
$TDUPDATE
 40
2454162.879823194
  9
$TDUUPDATE
 40
2454163.213156528
  9
$TDINDWG
 40
0.0921344907
  9
$TDUSRTIMER
 40
0.0921344907
  9
$USRTIMER
 70
     1
  9
$ANGBASE
 50
0.0
  9
$ANGDIR
 70
     0
  9
$PDMODE
 70
     0
  9
$PDSIZE
 40
0.0
  9
$PLINEWID
 40
0.0
  9
$SPLFRAME
 70
     0
  9
$SPLINETYPE
 70
     6
  9
$SPLINESEGS
 70
     8
  9
$HANDSEED
  5
213
  9
$SURFTAB1
 70
     6
  9
$SURFTAB2
 70
     6
  9
$SURFTYPE
 70
     6
  9
$SURFU
 70
     6
  9
$SURFV
 70
     6
  9
$UCSBASE
  2

  9
$UCSNAME
  2

  9
$UCSORG
 10
0.0
 20
0.0
 30
0.0
  9
$UCSXDIR
 10
1.0
 20
0.0
 30
0.0
  9
$UCSYDIR
 10
0.0
 20
1.0
 30
0.0
  9
$UCSORTHOREF
  2

  9
$UCSORTHOVIEW
 70
     0
  9
$UCSORGTOP
 10
0.0
 20
0.0
 30
0.0
  9
$UCSORGBOTTOM
 10
0.0
 20
0.0
 30
0.0
  9
$UCSORGLEFT
 10
0.0
 20
0.0
 30
0.0
  9
$UCSORGRIGHT
 10
0.0
 20
0.0
 30
0.0
  9
$UCSORGFRONT
 10
0.0
 20
0.0
 30
0.0
  9
$UCSORGBACK
 10
0.0
 20
0.0
 30
0.0
  9
$PUCSBASE
  2

  9
$PUCSNAME
  2

  9
$PUCSORG
 10
0.0
 20
0.0
 30
0.0
  9
$PUCSXDIR
 10
1.0
 20
0.0
 30
0.0
  9
$PUCSYDIR
 10
0.0
 20
1.0
 30
0.0
  9
$PUCSORTHOREF
  2

  9
$PUCSORTHOVIEW
 70
     0
  9
$PUCSORGTOP
 10
0.0
 20
0.0
 30
0.0
  9
$PUCSORGBOTTOM
 10
0.0
 20
0.0
 30
0.0
  9
$PUCSORGLEFT
 10
0.0
 20
0.0
 30
0.0
  9
$PUCSORGRIGHT
 10
0.0
 20
0.0
 30
0.0
  9
$PUCSORGFRONT
 10
0.0
 20
0.0
 30
0.0
  9
$PUCSORGBACK
 10
0.0
 20
0.0
 30
0.0
  9
$USERI1
 70
     0
  9
$USERI2
 70
     0
  9
$USERI3
 70
     0
  9
$USERI4
 70
     0
  9
$USERI5
 70
     0
  9
$USERR1
 40
0.0
  9
$USERR2
 40
0.0
  9
$USERR3
 40
0.0
  9
$USERR4
 40
0.0
  9
$USERR5
 40
0.0
  9
$WORLDVIEW
 70
     1
  9
$SHADEDGE
 70
     3
  9
$SHADEDIF
 70
    70
  9
$TILEMODE
 70
     1
  9
$MAXACTVP
 70
    16
  9
$PINSBASE
 10
0.0
 20
0.0
 30
0.0
  9
$PLIMCHECK
 70
     0
  9
$PEXTMIN
 10
1.000000000000000E+20
 20
1.000000000000000E+20
 30
1.000000000000000E+20
  9
$PEXTMAX
 10
-1.000000000000000E+20
 20
-1.000000000000000E+20
 30
-1.000000000000000E+20
  9
$PLIMMIN
 10
0.0
 20
0.0
  9
$PLIMMAX
 10
12.0
 20
9.0
  9
$UNITMODE
 70
     0
  9
$VISRETAIN
 70
     0
  9
$PLINEGEN
 70
     0
  9
$PSLTSCALE
 70
     0
  9
$TREEDEPTH
 70
  3020
  9
$CMLSTYLE
  2
Standard
  9
$CMLJUST
 70
     0
  9
$CMLSCALE
 40
1.0
  9
$PROXYGRAPHICS
 70
     1
  9
$MEASUREMENT
 70
     0
  9
$CELWEIGHT
370
    -1
  9
$ENDCAPS
280
     0
  9
$JOINSTYLE
280
     0
  9
$LWDISPLAY
290
     0
  9
$INSUNITS
 70
     0
  9
$HYPERLINKBASE
  1

  9
$STYLESHEET
  1

  9
$XEDIT
290
     1
  9
$CEPSNTYPE
380
     0
  9
$PSTYLEMODE
290
     1
  9
$FINGERPRINTGUID
  2
{697B0D5E-39D6-46A8-91E7-D263D466F21E}
  9
$VERSIONGUID
  2
{689D90AA-4289-423D-AB3B-1ADEE1CD6B05}
  9
$EXTNAMES
290
     1
  9
$PSVPSCALE
 40
0.0
  9
$OLESTARTUP
290
     0
  0
ENDSEC
  0
SECTION
  2
CLASSES
  0
CLASS
  1
ACDBDICTIONARYWDFLT
  2
AcDbDictionaryWithDefault
  3
AutoCAD 2000
 90
        0
280
     0
281
     0
  0
CLASS
  1
ACDBPLACEHOLDER
  2
AcDbPlaceHolder
  3
ObjectDBX Classes
 90
        0
280
     0
281
     0
  0
CLASS
  1
LAYOUT
  2
AcDbLayout
  3
ObjectDBX Classes
 90
        0
280
     0
281
     0
  0
CLASS
  1
DICTIONARYVAR
  2
AcDbDictionaryVar
  3
AutoCAD 2000
 90
        0
280
     0
281
     0
  0
CLASS
  1
LONG_TRANSACTION
  2
AcDbLongTransaction
  3
ObjectDBX Classes
 90
   -65536
280
     1
281
     0
  0
CLASS
  1
LWPOLYLINE
  2
AcDbPolyline
  3
AutoCAD 2000
 90
        0
280
     0
281
     1
  0
CLASS
  1
HATCH
  2
AcDbHatch
  3
AutoCAD 2000
 90
        0
280
     0
281
     1
  0
CLASS
  1
XRECORD
  2
AcDbXrecord
  3
AutoCAD 2000
 90
        0
280
     0
281
     0
  0
CLASS
  1
LONG_TRANSACTION
  2
AcDbLongTransaction
  3
ObjectDBX Classes
 90
   -65536
280
     1
281
     0
  0
CLASS
  1
LWPOLYLINE
  2
AcDbPolyline
  3
AutoCAD 2000
 90
        0
280
     0
281
     1
  0
CLASS
  1
HATCH
  2
AcDbHatch
  3
AutoCAD 2000
 90
        0
280
     0
281
     1
  0
CLASS
  1
XRECORD
  2
AcDbXrecord
  3
AutoCAD 2000
 90
        0
280
     0
281
     0
  0
CLASS
  1
LONG_TRANSACTION
  2
AcDbLongTransaction
  3
ObjectDBX Classes
 90
   -65536
280
     1
281
     0
  0
CLASS
  1
LWPOLYLINE
  2
AcDbPolyline
  3
AutoCAD 2000
 90
        0
280
     0
281
     1
  0
CLASS
  1
HATCH
  2
AcDbHatch
  3
AutoCAD 2000
 90
        0
280
     0
281
     1
  0
CLASS
  1
XRECORD
  2
AcDbXrecord
  3
AutoCAD 2000
 90
        0
280
     0
281
     0
  0
CLASS
  1
LONG_TRANSACTION
  2
AcDbLongTransaction
  3
ObjectDBX Classes
 90
   -65536
280
     1
281
     0
  0
CLASS
  1
LWPOLYLINE
  2
AcDbPolyline
  3
AutoCAD 2000
 90
        0
280
     0
281
     1
  0
CLASS
  1
HATCH
  2
AcDbHatch
  3
AutoCAD 2000
 90
        0
280
     0
281
     1
  0
CLASS
  1
XRECORD
  2
AcDbXrecord
  3
AutoCAD 2000
 90
        0
280
     0
281
     0
  0
CLASS
  1
TABLESTYLE
  2
AcDbTableStyle
  3
ObjectDBX Classes
 90
     2047
280
     1
281
     0
  0
CLASS
  1
SORTENTSTABLE
  2
AcDbSortentsTable
  3
AutoCAD 2000
 90
        0
280
     0
281
     0
  0
ENDSEC
  0
SECTION
  2
TABLES
  0
TABLE
  2
VPORT
  5
1D
330
0
100
AcDbSymbolTable
 70
     2
  0
VPORT
  5
206
330
1D
100
AcDbSymbolTableRecord
100
AcDbViewportTableRecord
  2
*Active
 70
     0
 10
0.0
 20
0.0
 11
1.0
 21
1.0
 12
15.57239484501943
 22
11.99963381700175
 13
0.0
 23
0.0
 14
0.03125
 24
0.03125
 15
0.25
 25
0.25
 16
0.0
 26
0.0
 36
1.0
 17
0.0
 27
0.0
 37
0.0
 40
24.30011780091537
 41
1.814583333333333
 42
50.0
 43
0.0
 44
0.0
 50
0.0
 51
0.0
 71
     0
 72
   100
 73
     1
 74
     0
 75
     0
 76
     0
 77
     0
 78
     0
281
     0
 65
     1
110
0.0
120
0.0
130
0.0
111
1.0
121
0.0
131
0.0
112
0.0
122
1.0
132
0.0
 79
     0
146
0.0
  0
ENDTAB
  0
TABLE
  2
LTYPE
  5
18
330
0
100
AcDbSymbolTable
 70
     2
  0
LTYPE
  5
19
330
18
100
AcDbSymbolTableRecord
100
AcDbLinetypeTableRecord
  2
ByBlock
 70
     0
  3

 72
    65
 73
     0
 40
0.0
  0
LTYPE
  5
1A
330
18
100
AcDbSymbolTableRecord
100
AcDbLinetypeTableRecord
  2
ByLayer
 70
     0
  3

 72
    65
 73
     0
 40
0.0
  0
LTYPE
  5
A
330
18
100
AcDbSymbolTableRecord
100
AcDbLinetypeTableRecord
  2
CONTINUOUS
 70
     0
  3
Solid line
 72
    65
 73
     0
 40
0.0
  0
LTYPE
  5
1EC
330
18
100
AcDbSymbolTableRecord
100
AcDbLinetypeTableRecord
  2
HIDDEN
 70
     0
  3
Hidden __ __ __ __ __ __ __ __ __ __ __ __ __ _
 72
    65
 73
     2
 40
0.375
 49
0.25
 74
     0
 49
-0.125
 74
     0
  0
ENDTAB
  0
TABLE
  2
LAYER
  5
14
330
0
100
AcDbSymbolTable
 70
     1
  0
LAYER
  5
6
330
14
100
AcDbSymbolTableRecord
100
AcDbLayerTableRecord
  2
0
 70
     0
 62
     7
  6
CONTINUOUS
370
    -3
390
7
  0
ENDTAB
  0
TABLE
  2
STYLE
  5
15
330
0
100
AcDbSymbolTable
 70
     1
  0
STYLE
  5
16
330
15
100
AcDbSymbolTableRecord
100
AcDbTextStyleTableRecord
  2
STANDARD
 70
     0
 40
0.0
 41
1.0
 50
0.0
 71
     0
 42
0.270000000000005
  3
TXT
  4

  0
ENDTAB
  0
TABLE
  2
VIEW
  5
1B
330
0
100
AcDbSymbolTable
 70
     0
  0
ENDTAB
  0
TABLE
  2
UCS
  5
1C
330
0
100
AcDbSymbolTable
 70
     0
  0
ENDTAB
  0
TABLE
  2
APPID
  5
1F
330
0
100
AcDbSymbolTable
 70
     1
  0
APPID
  5
20
330
1F
100
AcDbSymbolTableRecord
100
AcDbRegAppTableRecord
  2
ACAD
 70
     0
  0
ENDTAB
  0
TABLE
  2
DIMSTYLE
  5
21
330
0
100
AcDbSymbolTable
 70
     1
100
AcDbDimStyleTable
  0
DIMSTYLE
105
28
330
21
100
AcDbSymbolTableRecord
100
AcDbDimStyleTableRecord
  2
Standard
 70
     0
  3

  4

340
16
  0
ENDTAB
  0
TABLE
  2
BLOCK_RECORD
  5
1
330
0
100
AcDbSymbolTable
 70
     0
  0
BLOCK_RECORD
  5
2
102
{ACAD_XDICTIONARY
360
3
102
}
330
1
100
AcDbSymbolTableRecord
100
AcDbBlockTableRecord
  2
*Model_Space
340
C
  0
BLOCK_RECORD
  5
E
330
1
100
AcDbSymbolTableRecord
100
AcDbBlockTableRecord
  2
*Paper_Space
340
13
  0
ENDTAB
  0
ENDSEC
  0
SECTION
  2
BLOCKS
  0
BLOCK
  5
5
330
2
100
AcDbEntity
  8
0
100
AcDbBlockBegin
  2
*Model_Space
 70
     0
 10
0.0
 20
0.0
 30
0.0
  3
*Model_Space
  1

  4

  0
ENDBLK
  5
B
330
2
100
AcDbEntity
  8
0
100
AcDbBlockEnd
  0
BLOCK
  5
11
330
E
100
AcDbEntity
 67
     1
  8
0
100
AcDbBlockBegin
  2
*Paper_Space
 70
     0
 10
0.0
 20
0.0
 30
0.0
  3
*Paper_Space
  1

  4

  0
ENDBLK
  5
12
330
E
100
AcDbEntity
 67
     1
  8
0
100
AcDbBlockEnd
  0
ENDSEC
  0
SECTION
  2
ENTITIES
  0
LINE
  5
110
330
2
100
AcDbEntity
  8
0
100
AcDbLine
 10
3.59375
 20
3.750000000000002
 30
0.0
 11
3.59375
 21
8.249999999999998
 31
0.0
  0
LINE
  5
111
330
2
100
AcDbEntity
  8
0
100
AcDbLine
 10
-0.2187500000000053
 20
3.750000000000002
 30
0.0
 11
-0.21875
 21
8.249999999999995
 31
0.0
  0
LINE
  5
112
330
2
100
AcDbEntity
  8
0
100
AcDbLine
 10
3.46875
 20
3.750000000000002
 30
0.0
 11
3.46875
 21
8.249999999999998
 31
0.0
  0
LINE
  5
113
330
2
100
AcDbEntity
  8
0
100
AcDbLine
 10
-0.0937500000000053
 20
3.750000000000002
 30
0.0
 11
-0.09375
 21
8.249999999999995
 31
0.0
  0
LINE
  5
114
330
2
100
AcDbEntity
  8
0
100
AcDbLine
 10
0.1562500596046395
 20
3.375000000000002
 30
0.0
 11
3.21875
 21
3.375000000000002
 31
0.0
  0
LINE
  5
115
330
2
100
AcDbEntity
  8
0
100
AcDbLine
 10
0.1562501332800323
 20
3.500000000000002
 30
0.0
 11
3.21875
 21
3.500000000000002
 31
0.0
  0
LINE
  5
116
330
2
100
AcDbEntity
  8
0
100
AcDbLine
 10
-0.0151650429449539
 20
2.088388347648321
 30
0.0
 11
0.3964466094067252
 21
1.67677669529664
 31
0.0
  0
LINE
  5
117
330
2
100
AcDbEntity
  8
0
100
AcDbLine
 10
0.0732233047033617
 20
2.17677669529664
 30
0.0
 11
0.4848349570550408
 21
1.765165042944956
 31
0.0
  0
LINE
  5
118
330
2
100
AcDbEntity
  8
0
100
AcDbLine
 10
0.0
 20
0.0
 30
0.0
 11
0.0000000000000018
 21
0.646446609406734
 31
0.0
  0
LINE
  5
119
330
2
100
AcDbEntity
  8
0
100
AcDbLine
 10
-0.125
 20
0.0
 30
0.0
 11
-0.125
 21
0.646446609406734
 31
0.0
  0
LINE
  5
11A
330
2
100
AcDbEntity
  8
0
100
AcDbLine
 10
-0.125
 20
0.0
 30
0.0
 11
0.0
 21
0.0
 31
0.0
  0
LINE
  5
11B
330
2
100
AcDbEntity
  8
0
100
AcDbLine
 10
-0.0151650429449557
 20
0.911611652351688
 30
0.0
 11
0.3964466094067234
 21
1.323223304703371
 31
0.0
  0
LINE
  5
11C
330
2
100
AcDbEntity
  8
0
100
AcDbLine
 10
0.0732233047033652
 20
0.8232233047033724
 30
0.0
 11
0.4848349570550408
 21
1.23483495705505
 31
0.0
  0
ARC
  5
11D
330
2
100
AcDbEntity
  8
0
100
AcDbCircle
 10
0.25
 20
0.646446609406734
 30
0.0
 40
0.375
100
AcDbArc
 50
135.0000000000001
 51
179.9999999999999
  0
ARC
  5
11E
330
2
100
AcDbEntity
  8
0
100
AcDbCircle
 10
0.2500000000000018
 20
0.646446609406734
 30
0.0
 40
0.25
100
AcDbArc
 50
135.0000000000001
 51
179.9999999999999
  0
ARC
  5
11F
330
2
100
AcDbEntity
  8
0
100
AcDbCircle
 10
0.2196699141100869
 20
1.500000000000005
 30
0.0
 40
0.25
100
AcDbArc
 50
315.0000000000001
 51
44.99999999999962
  0
ARC
  5
120
330
2
100
AcDbEntity
  8
0
100
AcDbCircle
 10
0.2196699141100851
 20
1.500000000000002
 30
0.0
 40
0.375
100
AcDbArc
 50
315.0000000000001
 51
44.99999999999992
  0
ARC
  5
121
330
2
100
AcDbEntity
  8
0
100
AcDbCircle
 10
-0.0119862506420816
 20
3.648099760330895
 30
0.0
 40
0.3069771437915365
100
AcDbArc
 50
132.3414721198747
 51
196.7223905398125
  0
ARC
  5
122
330
2
100
AcDbEntity
  8
0
100
AcDbCircle
 10
0.5800104065287197
 20
3.47503173437895
 30
0.0
 40
0.2247303314272199
100
AcDbArc
 50
267.3994323320044
 51
333.5690491108126
  0
LINE
  5
123
330
2
100
AcDbEntity
  8
0
100
AcDbLine
 10
0.0000000000000018
 20
2.838388347648321
 30
0.0
 11
0.2878289354580996
 21
3.251217283106419
 31
0.0
  0
LINE
  5
124
330
2
100
AcDbEntity
  8
0
100
AcDbLine
 10
-0.0000000000000018
 20
2.353553390593278
 30
0.0
 11
-0.0000000000000018
 21
3.125000000000002
 31
0.0
  0
LINE
  5
125
330
2
100
AcDbEntity
  8
0
100
AcDbLine
 10
-0.1249999999999982
 20
2.353553390593275
 30
0.0
 11
-0.125
 21
3.125000000000002
 31
0.0
  0
ARC
  5
126
330
2
100
AcDbEntity
  8
0
100
AcDbCircle
 10
0.2500000000000018
 20
2.353553390593275
 30
0.0
 40
0.375
100
AcDbArc
 50
180.0
 51
224.9999999999999
  0
ARC
  5
127
330
2
100
AcDbEntity
  8
0
100
AcDbCircle
 10
0.2499999999999982
 20
2.353553390593278
 30
0.0
 40
0.25
100
AcDbArc
 50
180.0
 51
224.9999999999999
  0
ARC
  5
128
330
2
100
AcDbEntity
  8
0
100
AcDbCircle
 10
0.25
 20
3.125000000000002
 30
0.0
 40
0.375
100
AcDbArc
 50
150.803436674164
 51
179.9999999999999
  0
ARC
  5
129
330
2
100
AcDbEntity
  8
0
100
AcDbCircle
 10
0.1562499999999947
 20
3.750000000000002
 30
0.0
 40
0.5
100
AcDbArc
 50
202.1718978476876
 51
269.9999999999999
  0
ARC
  5
12A
330
2
100
AcDbEntity
  8
0
100
AcDbCircle
 10
0.1562499999999947
 20
3.750000000000002
 30
0.0
 40
0.375
100
AcDbArc
 50
179.9999999999999
 51
269.9999999999999
  0
ARC
  5
12B
330
2
100
AcDbEntity
  8
0
100
AcDbCircle
 10
0.1562499999999947
 20
3.750000000000002
 30
0.0
 40
0.25
100
AcDbArc
 50
179.9999999999999
 51
269.9999999999999
  0
LINE
  5
12C
330
2
100
AcDbEntity
  8
0
100
AcDbLine
 10
0.1562499999999947
 20
3.250000000000002
 30
0.0
 11
0.5698137429092682
 21
3.250000000000005
 31
0.0
  0
ARC
  5
12D
330
2
100
AcDbEntity
  8
0
100
AcDbCircle
 10
0.2499999999999982
 20
3.125000000000002
 30
0.0
 40
0.25
100
AcDbArc
 50
146.4156405226019
 51
179.9999999999999
  0
LINE
  5
12E
330
2
100
AcDbEntity
  8
0
100
AcDbLine
 10
3.301776695296638
 20
2.17677669529664
 30
0.0
 11
2.890165042944959
 21
1.765165042944956
 31
0.0
  0
LINE
  5
12F
330
2
100
AcDbEntity
  8
0
100
AcDbLine
 10
3.390165042944954
 20
2.088388347648321
 30
0.0
 11
2.978553390593275
 21
1.67677669529664
 31
0.0
  0
LINE
  5
130
330
2
100
AcDbEntity
  8
0
100
AcDbLine
 10
3.5
 20
0.0
 30
0.0
 11
3.5
 21
0.646446609406734
 31
0.0
  0
LINE
  5
131
330
2
100
AcDbEntity
  8
0
100
AcDbLine
 10
3.375
 20
0.0
 30
0.0
 11
3.374999999999998
 21
0.646446609406734
 31
0.0
  0
LINE
  5
132
330
2
100
AcDbEntity
  8
0
100
AcDbLine
 10
3.5
 20
0.0
 30
0.0
 11
3.375
 21
0.0
 31
0.0
  0
LINE
  5
133
330
2
100
AcDbEntity
  8
0
100
AcDbLine
 10
3.301776695296635
 20
0.8232233047033724
 30
0.0
 11
2.890165042944959
 21
1.23483495705505
 31
0.0
  0
LINE
  5
134
330
2
100
AcDbEntity
  8
0
100
AcDbLine
 10
3.390165042944956
 20
0.911611652351688
 30
0.0
 11
2.978553390593277
 21
1.323223304703371
 31
0.0
  0
ARC
  5
135
330
2
100
AcDbEntity
  8
0
100
AcDbCircle
 10
3.125
 20
0.646446609406734
 30
0.0
 40
0.375
100
AcDbArc
 50
0.0000000000000509
 51
44.99999999999992
  0
ARC
  5
136
330
2
100
AcDbEntity
  8
0
100
AcDbCircle
 10
3.124999999999998
 20
0.646446609406734
 30
0.0
 40
0.25
100
AcDbArc
 50
0.0000000000000509
 51
44.9999999999999
  0
ARC
  5
137
330
2
100
AcDbEntity
  8
0
100
AcDbCircle
 10
3.155330085889915
 20
1.500000000000002
 30
0.0
 40
0.375
100
AcDbArc
 50
135.0000000000001
 51
224.9999999999999
  0
ARC
  5
138
330
2
100
AcDbEntity
  8
0
100
AcDbCircle
 10
3.15625
 20
1.500000000000005
 30
0.0
 40
0.25
100
AcDbArc
 50
135.0000000000004
 51
224.9999999999999
  0
ARC
  5
139
330
2
100
AcDbEntity
  8
0
100
AcDbCircle
 10
3.39961214785003
 20
3.648099760330895
 30
0.0
 40
0.3069771437915365
100
AcDbArc
 50
343.2776094601875
 51
47.6585278801253
  0
LINE
  5
13A
330
2
100
AcDbEntity
  8
0
100
AcDbLine
 10
3.374999999999998
 20
2.838388347648321
 30
0.0
 11
3.0871710645419
 21
3.251217283106419
 31
0.0
  0
LINE
  5
13B
330
2
100
AcDbEntity
  8
0
100
AcDbLine
 10
3.499999999999998
 20
2.353553390593275
 30
0.0
 11
3.5
 21
3.125000000000002
 31
0.0
  0
LINE
  5
13C
330
2
100
AcDbEntity
  8
0
100
AcDbLine
 10
3.375000000000002
 20
2.353553390593278
 30
0.0
 11
3.375000000000002
 21
3.125000000000002
 31
0.0
  0
ARC
  5
13D
330
2
100
AcDbEntity
  8
0
100
AcDbCircle
 10
3.124999999999998
 20
2.353553390593275
 30
0.0
 40
0.375
100
AcDbArc
 50
315.0000000000002
 51
0.0
  0
ARC
  5
13E
330
2
100
AcDbEntity
  8
0
100
AcDbCircle
 10
3.125000000000002
 20
2.353553390593278
 30
0.0
 40
0.25
100
AcDbArc
 50
315.0000000000002
 51
0.0
  0
LINE
  5
13F
330
2
100
AcDbEntity
  8
0
100
AcDbLine
 10
3.231375897207956
 20
3.250000000000002
 30
0.0
 11
2.817812154298682
 21
3.250000000000005
 31
0.0
  0
ARC
  5
140
330
2
100
AcDbEntity
  8
0
100
AcDbCircle
 10
2.807615490679231
 20
3.47503173437895
 30
0.0
 40
0.2247303314272199
100
AcDbArc
 50
206.4309508891875
 51
272.6005676679956
  0
ARC
  5
141
330
2
100
AcDbEntity
  8
0
100
AcDbCircle
 10
3.231375897207956
 20
3.750000000000002
 30
0.0
 40
0.5
100
AcDbArc
 50
270.0000000000001
 51
337.8281021523124
  0
ARC
  5
142
330
2
100
AcDbEntity
  8
0
100
AcDbCircle
 10
3.21875
 20
3.750000000000002
 30
0.0
 40
0.375
100
AcDbArc
 50
270.0
 51
0.0
  0
ARC
  5
143
330
2
100
AcDbEntity
  8
0
100
AcDbCircle
 10
3.125
 20
3.125000000000002
 30
0.0
 40
0.375
100
AcDbArc
 50
0.0000000000000509
 51
28.31387932382906
  0
ARC
  5
144
330
2
100
AcDbEntity
  8
0
100
AcDbCircle
 10
3.125000000000002
 20
3.125000000000002
 30
0.0
 40
0.25
100
AcDbArc
 50
0.0000000000000509
 51
32.91010040822179
  0
ARC
  5
145
330
2
100
AcDbEntity
  8
0
100
AcDbCircle
 10
3.21875
 20
3.750000000000002
 30
0.0
 40
0.25
100
AcDbArc
 50
270.0
 51
0.0
  0
LINE
  5
146
330
2
100
AcDbEntity
  8
0
100
AcDbLine
 10
-0.21875
 20
8.249999999999995
 30
0.0
 11
-0.09375
 21
8.249999999999995
 31
0.0
  0
LINE
  5
147
330
2
100
AcDbEntity
  8
0
100
AcDbLine
 10
3.46875
 20
8.249999999999998
 30
0.0
 11
3.59375
 21
8.249999999999998
 31
0.0
  0
LINE
  5
148
330
2
100
AcDbEntity
  8
0
100
AcDbLine
 10
9.388439649555711
 20
0.625
 30
0.0
 11
9.388439649555721
 21
6.499949999999991
 31
0.0
  0
LINE
  5
149
330
2
100
AcDbEntity
  8
0
100
AcDbLine
 10
10.63843964955573
 20
0.6250000000000089
 30
0.0
 11
10.63843964955573
 21
6.508296181851138
 31
0.0
  0
LINE
  5
14A
330
2
100
AcDbEntity
  8
0
100
AcDbLine
 10
8.388339649555718
 20
3.375000000000009
 30
0.0
 11
8.388339649555718
 21
8.249999999999998
 31
0.0
  0
LINE
  5
14B
330
2
100
AcDbEntity
  8
0
100
AcDbLine
 10
11.63833964955571
 20
3.375000000000009
 30
0.0
 11
11.63833964955573
 21
8.25
 31
0.0
  0
LINE
  5
14C
330
2
100
AcDbEntity
  8
0
100
AcDbLine
 10
9.825839649555718
 20
0.7499999999999982
 30
0.0
 11
10.29458964955572
 21
0.7499999999999982
 31
0.0
  0
LINE
  5
14D
330
2
100
AcDbEntity
  8
0
100
AcDbLine
 10
9.825839649555718
 20
0.9999999999999982
 30
0.0
 11
10.29458964955572
 21
0.9999999999999982
 31
0.0
  0
LINE
  5
14E
330
2
100
AcDbEntity
  8
0
100
AcDbLine
 10
9.638339649555718
 20
0.8749999999999982
 30
0.0
 11
10.51333964955572
 21
0.8749999999999982
 31
0.0
  0
ARC
  5
14F
330
2
100
AcDbEntity
  8
0
100
AcDbCircle
 10
9.638439649555711
 20
0.625
 30
0.0
 40
0.25
100
AcDbArc
 50
179.9999999999999
 51
224.9999999999997
  0
ARC
  5
150
330
2
100
AcDbEntity
  8
0
100
AcDbCircle
 10
10.38843964955573
 20
0.6250000000000089
 30
0.0
 40
0.25
100
AcDbArc
 50
315.0000000000002
 51
0.0000000000000763
  0
LINE
  5
151
330
2
100
AcDbEntity
  8
0
100
AcDbLine
 10
9.825839649555718
 20
1.624999999999998
 30
0.0
 11
10.29458964955572
 21
1.624999999999998
 31
0.0
  0
LINE
  5
152
330
2
100
AcDbEntity
  8
0
100
AcDbLine
 10
9.607089649555718
 20
1.499999999999998
 30
0.0
 11
10.48208964955572
 21
1.499999999999998
 31
0.0
  0
LINE
  5
153
330
2
100
AcDbEntity
  8
0
100
AcDbLine
 10
9.607089649555718
 20
1.749999999999998
 30
0.0
 11
10.48208964955572
 21
1.749999999999998
 31
0.0
  0
LINE
  5
154
330
2
100
AcDbEntity
  8
0
100
AcDbLine
 10
10.88828964955573
 20
3.375000000000011
 30
0.0
 11
10.63823964955573
 21
3.375000000000011
 31
0.0
  0
LINE
  5
155
330
2
100
AcDbEntity
  8
0
100
AcDbLine
 10
9.138389649555709
 20
3.375000000000011
 30
0.0
 11
9.388439649555714
 21
3.375000000000011
 31
0.0
  0
ARC
  5
156
330
2
100
AcDbEntity
  8
0
100
AcDbCircle
 10
8.625445475731556
 20
3.343750000000012
 30
0.0
 40
0.03125
100
AcDbArc
 50
45.0
 51
90.0
  0
ARC
  5
157
330
2
100
AcDbEntity
  8
0
100
AcDbCircle
 10
9.151333823379868
 20
3.343750000000012
 30
0.0
 40
0.03125
100
AcDbArc
 50
90.0
 51
134.9999999999999
  0
ARC
  5
158
330
2
100
AcDbEntity
  8
0
100
AcDbCircle
 10
8.888389649555723
 20
3.500000000000062
 30
0.0
 40
0.2499999999999929
100
AcDbArc
 50
359.9999999999973
 51
180.0000000000028
  0
ARC
  5
159
330
2
100
AcDbEntity
  8
0
100
AcDbCircle
 10
8.789277997204028
 20
3.312500000000012
 30
0.0
 40
0.0625
100
AcDbArc
 50
224.9999999999991
 51
269.9999999999999
  0
LINE
  5
15A
330
2
100
AcDbEntity
  8
0
100
AcDbLine
 10
8.745083823379868
 20
3.268305826175853
 30
0.0
 11
8.64754256264364
 21
3.365847086912092
 31
0.0
  0
LINE
  5
15B
330
2
100
AcDbEntity
  8
0
100
AcDbLine
 10
8.98750130190739
 20
3.250000000000012
 30
0.0
 11
8.789277997204028
 21
3.250000000000012
 31
0.0
  0
LINE
  5
15C
330
2
100
AcDbEntity
  8
0
100
AcDbLine
 10
9.031695475731549
 20
3.268305826175853
 30
0.0
 11
9.129236736467792
 21
3.365847086912092
 31
0.0
  0
ARC
  5
15D
330
2
100
AcDbEntity
  8
0
100
AcDbCircle
 10
8.98750130190739
 20
3.312500000000012
 30
0.0
 40
0.0625
100
AcDbArc
 50
270.0
 51
314.9999999999999
  0
LINE
  5
15E
330
2
100
AcDbEntity
  8
0
100
AcDbLine
 10
8.638389649555709
 20
3.500000000000052
 30
0.0
 11
8.638389649555716
 21
3.37500000000002
 31
0.0
  0
LINE
  5
15F
330
2
100
AcDbEntity
  8
0
100
AcDbLine
 10
8.388339649555718
 20
3.375000000000009
 30
0.0
 11
8.638389649555716
 21
3.375000000000009
 31
0.0
  0
LINE
  5
160
330
2
100
AcDbEntity
  8
0
100
AcDbLine
 10
9.138389649555716
 20
3.500000000000052
 30
0.0
 11
9.138389649555709
 21
3.37500000000002
 31
0.0
  0
LINE
  5
161
330
2
100
AcDbEntity
  8
0
100
AcDbLine
 10
9.794589649555718
 20
2.187499999999998
 30
0.0
 11
10.29458964955572
 21
2.187499999999998
 31
0.0
  0
LINE
  5
162
330
2
100
AcDbEntity
  8
0
100
AcDbLine
 10
9.794589649555718
 20
2.437499999999998
 30
0.0
 11
10.29458964955572
 21
2.437499999999998
 31
0.0
  0
LINE
  5
163
330
2
100
AcDbEntity
  8
0
100
AcDbLine
 10
9.607089649555718
 20
2.312499999999998
 30
0.0
 11
10.48208964955572
 21
2.312499999999998
 31
0.0
  0
LINE
  5
164
330
2
100
AcDbEntity
  8
0
100
AcDbLine
 10
10.23090077038706
 20
3.500000000000007
 30
0.0
 11
9.795978528726312
 21
3.500000000000007
 31
0.0
  0
ARC
  5
165
330
2
100
AcDbEntity
  8
0
100
AcDbCircle
 10
10.01343964955566
 20
3.708333333333229
 30
0.0
 40
0.3020833333332104
100
AcDbArc
 50
225.9513743258727
 51
314.0486256741283
  0
ARC
  5
166
330
2
100
AcDbEntity
  8
0
100
AcDbCircle
 10
10.01343964955573
 20
3.065845353244736
 30
0.0
 40
0.046875
100
AcDbArc
 50
200.4238721544559
 51
339.5761278455441
  0
LINE
  5
167
330
2
100
AcDbEntity
  8
0
100
AcDbLine
 10
9.79597852872649
 20
3.49653872313889
 30
0.0
 11
9.969511367849368
 21
3.049487734489944
 31
0.0
  0
LINE
  5
168
330
2
100
AcDbEntity
  8
0
100
AcDbLine
 10
9.388439649555718
 20
3.500000000000011
 30
0.0
 11
9.795978528726312
 21
3.500000000000007
 31
0.0
  0
ARC
  5
169
330
2
100
AcDbEntity
  8
0
100
AcDbCircle
 10
9.781683446833679
 20
3.468750000000007
 30
0.0
 40
0.03125
100
AcDbArc
 50
45.95137432586935
 51
90.0
  0
LINE
  5
16A
330
2
100
AcDbEntity
  8
0
100
AcDbLine
 10
10.23090077038494
 20
3.496538723138855
 30
0.0
 11
10.05736793126208
 21
3.049487734489944
 31
0.0
  0
LINE
  5
16B
330
2
100
AcDbEntity
  8
0
100
AcDbLine
 10
10.63843964955572
 20
3.500000000000009
 30
0.0
 11
10.23090077038706
 21
3.500000000000007
 31
0.0
  0
ARC
  5
16C
330
2
100
AcDbEntity
  8
0
100
AcDbCircle
 10
10.24519585227765
 20
3.468750000000011
 30
0.0
 40
0.03125
100
AcDbArc
 50
90.0
 51
134.0486256741307
  0
CIRCLE
  5
16D
330
2
100
AcDbEntity
  8
0
100
AcDbCircle
 10
8.888339649555718
 20
4.4375
 30
0.0
 40
0.0859375
  0
ARC
  5
16E
330
2
100
AcDbEntity
  8
0
100
AcDbCircle
 10
11.13828964955572
 20
3.500000000000062
 30
0.0
 40
0.2499999999999929
100
AcDbArc
 50
359.9999999999973
 51
180.0000000000027
  0
ARC
  5
16F
330
2
100
AcDbEntity
  8
0
100
AcDbCircle
 10
10.87534547573157
 20
3.343750000000012
 30
0.0
 40
0.03125
100
AcDbArc
 50
45.00000000000005
 51
90.0
  0
ARC
  5
170
330
2
100
AcDbEntity
  8
0
100
AcDbCircle
 10
11.40123382337989
 20
3.343750000000012
 30
0.0
 40
0.03125
100
AcDbArc
 50
90.0
 51
135.0
  0
ARC
  5
171
330
2
100
AcDbEntity
  8
0
100
AcDbCircle
 10
11.23740130190742
 20
3.312500000000012
 30
0.0
 40
0.0625
100
AcDbArc
 50
270.0000000000001
 51
315.0000000000009
  0
ARC
  5
172
330
2
100
AcDbEntity
  8
0
100
AcDbCircle
 10
11.03917799720405
 20
3.312500000000012
 30
0.0
 40
0.0625
100
AcDbArc
 50
225.0000000000001
 51
270.0
  0
LINE
  5
173
330
2
100
AcDbEntity
  8
0
100
AcDbLine
 10
10.99498382337989
 20
3.268305826175853
 30
0.0
 11
10.89744256264365
 21
3.365847086912092
 31
0.0
  0
LINE
  5
174
330
2
100
AcDbEntity
  8
0
100
AcDbLine
 10
11.03917799720405
 20
3.250000000000012
 30
0.0
 11
11.23740130190742
 21
3.250000000000012
 31
0.0
  0
LINE
  5
175
330
2
100
AcDbEntity
  8
0
100
AcDbLine
 10
11.28159547573157
 20
3.268305826175853
 30
0.0
 11
11.3791367364678
 21
3.365847086912092
 31
0.0
  0
LINE
  5
176
330
2
100
AcDbEntity
  8
0
100
AcDbLine
 10
10.88828964955573
 20
3.500000000000052
 30
0.0
 11
10.88828964955573
 21
3.37500000000002
 31
0.0
  0
LINE
  5
177
330
2
100
AcDbEntity
  8
0
100
AcDbLine
 10
11.63833964955573
 20
3.375000000000009
 30
0.0
 11
11.38828964955573
 21
3.375000000000009
 31
0.0
  0
LINE
  5
178
330
2
100
AcDbEntity
  8
0
100
AcDbLine
 10
11.38828964955573
 20
3.500000000000052
 30
0.0
 11
11.38828964955573
 21
3.37500000000002
 31
0.0
  0
CIRCLE
  5
179
330
2
100
AcDbEntity
  8
0
100
AcDbCircle
 10
11.01333964955572
 20
4.4375
 30
0.0
 40
0.0859375
  0
LINE
  5
17A
330
2
100
AcDbEntity
  8
0
100
AcDbLine
 10
8.388339649555718
 20
8.249999999999998
 30
0.0
 11
11.63833964955573
 21
8.25
 31
0.0
  0
CIRCLE
  5
17B
330
2
100
AcDbEntity
  8
0
100
AcDbCircle
 10
10.88833964955572
 20
7.374949999999988
 30
0.0
 40
0.28125
  0
CIRCLE
  5
17C
330
2
100
AcDbEntity
  8
0
100
AcDbCircle
 10
9.138339649555718
 20
7.374949999999988
 30
0.0
 40
0.28125
  0
CIRCLE
  5
17D
330
2
100
AcDbEntity
  8
0
100
AcDbCircle
 10
9.013339649555718
 20
6.1875
 30
0.0
 40
0.0859375
  0
ARC
  5
17E
330
2
100
AcDbEntity
  8
0
100
AcDbCircle
 10
10.38843964955572
 20
6.499949999999982
 30
0.0
 40
0.25
100
AcDbArc
 50
0.0000000000000509
 51
44.99999999999969
  0
ARC
  5
17F
330
2
100
AcDbEntity
  8
0
100
AcDbCircle
 10
9.638439649555721
 20
6.499949999999991
 30
0.0
 40
0.25
100
AcDbArc
 50
135.0
 51
179.9999999999999
  0
ARC
  5
180
330
2
100
AcDbEntity
  8
0
100
AcDbCircle
 10
10.01343964955572
 20
6.874949999999988
 30
0.0
 40
0.25
100
AcDbArc
 50
44.99999999999994
 51
135.0
  0
LINE
  5
181
330
2
100
AcDbEntity
  8
0
100
AcDbLine
 10
9.461662954259083
 20
6.676726695296628
 30
0.0
 11
9.836662954259086
 21
7.051726695296626
 31
0.0
  0
LINE
  5
182
330
2
100
AcDbEntity
  8
0
100
AcDbLine
 10
10.56521668202715
 20
6.676726358121833
 30
0.0
 11
10.19021634485236
 21
7.051726695296626
 31
0.0
  0
CIRCLE
  5
183
330
2
100
AcDbEntity
  8
0
100
AcDbCircle
 10
9.138339649555718
 20
7.9375
 30
0.0
 40
0.0859375
  0
CIRCLE
  5
184
330
2
100
AcDbEntity
  8
0
100
AcDbCircle
 10
10.76333964955572
 20
7.9375
 30
0.0
 40
0.0859375
  0
CIRCLE
  5
185
330
2
100
AcDbEntity
  8
0
100
AcDbCircle
 10
11.13833964955572
 20
6.1875
 30
0.0
 40
0.0859375
  0
LINE
  5
186
330
2
100
AcDbEntity
  8
0
100
AcDbLine
 10
10.56521634485237
 20
0.4482233047033724
 30
0.0
 11
10.19021634485236
 21
0.0732233047033599
 31
0.0
  0
LINE
  5
187
330
2
100
AcDbEntity
  8
0
100
AcDbLine
 10
9.461662954259072
 20
0.4482233047033635
 30
0.0
 11
9.836662954259079
 21
0.0732233047033599
 31
0.0
  0
ARC
  5
188
330
2
100
AcDbEntity
  8
0
100
AcDbCircle
 10
10.01343964955572
 20
0.2499999999999982
 30
0.0
 40
0.25
100
AcDbArc
 50
225.0
 51
315.0000000000001
  0
LINE
  5
189
330
2
100
AcDbEntity
  8
0
100
AcDbLine
 10
-0.2187500000000018
 20
11.25
 30
0.0
 11
3.590163793981542
 21
11.25
 31
0.0
  0
LINE
  5
18A
330
2
100
AcDbEntity
  8
0
100
AcDbLine
 10
-0.2187500000000071
 20
14.5
 30
0.0
 11
3.590163793981548
 21
14.50000000000001
 31
0.0
  0
LINE
  5
18B
330
2
100
AcDbEntity
  8
0
100
AcDbLine
 10
-0.0937500000000071
 20
14.5
 30
0.0
 11
-0.09375
 21
11.25
 31
0.0
  0
LINE
  5
18C
330
2
100
AcDbEntity
  8
0
100
AcDbLine
 10
-0.2187500000000071
 20
14.5
 30
0.0
 11
-0.2187500000000018
 21
11.25
 31
0.0
  0
CIRCLE
  5
18D
330
2
100
AcDbEntity
  8
0
100
AcDbCircle
 10
0.3750000000000036
 20
12.25
 30
0.0
 40
0.15625
  0
LINE
  5
18E
330
2
100
AcDbEntity
  8
0
100
AcDbLine
 10
-0.3437499999999965
 20
11.84916165235165
 30
0.0
 11
-0.3437499999999965
 21
11.65093834764829
 31
0.0
  0
LINE
  5
18F
330
2
100
AcDbEntity
  8
0
100
AcDbLine
 10
-0.325444173824156
 20
11.60674417382413
 30
0.0
 11
-0.2279029130879167
 21
11.5092029130879
 31
0.0
  0
ARC
  5
190
330
2
100
AcDbEntity
  8
0
100
AcDbCircle
 10
-0.2499999999999965
 20
11.48710582617582
 30
0.0
 40
0.03125
100
AcDbArc
 50
0.0
 51
45.0
  0
ARC
  5
191
330
2
100
AcDbEntity
  8
0
100
AcDbCircle
 10
-0.2812499999999965
 20
11.65093834764829
 30
0.0
 40
0.0625
100
AcDbArc
 50
180.0000000000001
 51
225.0000000000009
  0
LINE
  5
192
330
2
100
AcDbEntity
  8
0
100
AcDbLine
 10
-0.325444173824156
 20
11.89335582617581
 30
0.0
 11
-0.2279029130879167
 21
11.99089708691206
 31
0.0
  0
ARC
  5
193
330
2
100
AcDbEntity
  8
0
100
AcDbCircle
 10
-0.2499999999999965
 20
12.01299417382413
 30
0.0
 40
0.03125
100
AcDbArc
 50
315.0000000000001
 51
0.0
  0
ARC
  5
194
330
2
100
AcDbEntity
  8
0
100
AcDbCircle
 10
-0.2812499999999965
 20
11.84916165235165
 30
0.0
 40
0.0625
100
AcDbArc
 50
135.0000000000001
 51
180.0
  0
ARC
  5
195
330
2
100
AcDbEntity
  8
0
100
AcDbCircle
 10
0.5312500000000071
 20
11.75004999999999
 30
0.0
 40
0.1249999999999929
100
AcDbArc
 50
269.9999999999973
 51
90.00000000000244
  0
LINE
  5
196
330
2
100
AcDbEntity
  8
0
100
AcDbLine
 10
0.5312500000000018
 20
11.62505
 30
0.0
 11
-0.09375
 21
11.62505
 31
0.0
  0
LINE
  5
197
330
2
100
AcDbEntity
  8
0
100
AcDbLine
 10
0.5312500000000018
 20
11.87504999999998
 30
0.0
 11
-0.09375
 21
11.87504999999998
 31
0.0
  0
LINE
  5
198
330
2
100
AcDbEntity
  8
0
100
AcDbLine
 10
0.2187500000000604
 20
12.25
 30
0.0
 11
-0.0937500000000036
 21
12.25
 31
0.0
  0
ARC
  5
199
330
2
100
AcDbEntity
  8
0
100
AcDbCircle
 10
-0.3333333333332185
 20
12.87500000000005
 30
0.0
 40
0.3020833333332104
100
AcDbArc
 50
322.4764867978796
 51
37.52351320212051
  0
LINE
  5
19A
330
2
100
AcDbEntity
  8
0
100
AcDbLine
 10
-0.0937500000000036
 20
12.66832569352601
 30
0.0
 11
0.3255122655100671
 21
12.83107171829363
 31
0.0
  0
LINE
  5
19B
330
2
100
AcDbEntity
  8
0
100
AcDbLine
 10
-0.0937500000000036
 20
13.08167430647396
 30
0.0
 11
0.3255122655100671
 21
12.91892828170634
 31
0.0
  0
ARC
  5
19C
330
2
100
AcDbEntity
  8
0
100
AcDbCircle
 10
0.3091546467552746
 20
12.87499999999998
 30
0.0
 40
0.046875
100
AcDbArc
 50
290.4238721544559
 51
69.57612784554416
  0
LINE
  5
19D
330
2
100
AcDbEntity
  8
0
100
AcDbLine
 10
-0.325444173824156
 20
14.14325582617587
 30
0.0
 11
-0.2279029130879167
 21
14.2407970869121
 31
0.0
  0
ARC
  5
19E
330
2
100
AcDbEntity
  8
0
100
AcDbCircle
 10
-0.2812499999999965
 20
13.90083834764835
 30
0.0
 40
0.0625
100
AcDbArc
 50
180.0000000000001
 51
225.0
  0
ARC
  5
19F
330
2
100
AcDbEntity
  8
0
100
AcDbCircle
 10
-0.2812499999999965
 20
14.09906165235171
 30
0.0
 40
0.0625
100
AcDbArc
 50
134.9999999999992
 51
180.0
  0
ARC
  5
1A0
330
2
100
AcDbEntity
  8
0
100
AcDbCircle
 10
-0.2499999999999965
 20
13.73700582617587
 30
0.0
 40
0.03125
100
AcDbArc
 50
0.0000000000000254
 51
44.99999999999997
  0
LINE
  5
1A1
330
2
100
AcDbEntity
  8
0
100
AcDbLine
 10
-0.325444173824156
 20
13.85664417382419
 30
0.0
 11
-0.2279029130879167
 21
13.75910291308794
 31
0.0
  0
LINE
  5
1A2
330
2
100
AcDbEntity
  8
0
100
AcDbLine
 10
-0.3437499999999965
 20
13.90083834764835
 30
0.0
 11
-0.3437499999999965
 21
14.09906165235171
 31
0.0
  0
CIRCLE
  5
1A3
330
2
100
AcDbEntity
  8
0
100
AcDbCircle
 10
0.375
 20
13.5
 30
0.0
 40
0.15625
  0
LINE
  5
1A4
330
2
100
AcDbEntity
  8
0
100
AcDbLine
 10
0.21875
 20
13.49999999999999
 30
0.0
 11
-0.0937500000000053
 21
13.5
 31
0.0
  0
LINE
  5
1A5
330
2
100
AcDbEntity
  8
0
100
AcDbLine
 10
0.5312500000000018
 20
14.12495000000001
 30
0.0
 11
-0.09375
 21
14.12495000000001
 31
0.0
  0
LINE
  5
1A6
330
2
100
AcDbEntity
  8
0
100
AcDbLine
 10
0.5312500000000018
 20
13.87495000000002
 30
0.0
 11
-0.09375
 21
13.87495000000002
 31
0.0
  0
ARC
  5
1A7
330
2
100
AcDbEntity
  8
0
100
AcDbCircle
 10
0.5312500000000071
 20
13.99995000000001
 30
0.0
 40
0.1249999999999929
100
AcDbArc
 50
269.9999999999976
 51
90.00000000000276
  0
ARC
  5
1A8
330
2
100
AcDbEntity
  8
0
100
AcDbCircle
 10
-0.2499999999999965
 20
14.26289417382418
 30
0.0
 40
0.03125
100
AcDbArc
 50
315.0000000000001
 51
0.0000000000000254
  0
LINE
  5
1A9
330
2
100
AcDbEntity
  8
0
100
AcDbLine
 10
3.465163793981548
 20
14.50000000000001
 30
0.0
 11
3.465163793981541
 21
11.25
 31
0.0
  0
LINE
  5
1AA
330
2
100
AcDbEntity
  8
0
100
AcDbLine
 10
3.590163793981548
 20
14.50000000000001
 30
0.0
 11
3.590163793981542
 21
11.25
 31
0.0
  0
LINE
  5
1AB
330
2
100
AcDbEntity
  8
0
100
AcDbLine
 10
3.500000000000002
 20
12.24999999999999
 30
0.0
 11
3.499999999999998
 21
12.65753887916866
 31
0.0
  0
CIRCLE
  5
1AC
330
2
100
AcDbEntity
  8
0
100
AcDbCircle
 10
3.0
 20
12.25
 30
0.0
 40
0.15625
  0
LINE
  5
1AD
330
2
100
AcDbEntity
  8
0
100
AcDbLine
 10
2.840163793981546
 20
11.62505
 30
0.0
 11
3.465163793981548
 21
11.62505
 31
0.0
  0
LINE
  5
1AE
330
2
100
AcDbEntity
  8
0
100
AcDbLine
 10
2.840163793981546
 20
11.87504999999998
 30
0.0
 11
3.465163793981548
 21
11.87504999999998
 31
0.0
  0
LINE
  5
1AF
330
2
100
AcDbEntity
  8
0
100
AcDbLine
 10
3.15625
 20
12.25
 30
0.0
 11
3.465163793981542
 21
12.25
 31
0.0
  0
ARC
  5
1B0
330
2
100
AcDbEntity
  8
0
100
AcDbCircle
 10
2.840163793981541
 20
11.75004999999999
 30
0.0
 40
0.1249999999999929
100
AcDbArc
 50
89.99999999999757
 51
270.0000000000028
  0
LINE
  5
1B1
330
2
100
AcDbEntity
  8
0
100
AcDbLine
 10
3.715163793981544
 20
11.84916165235165
 30
0.0
 11
3.715163793981544
 21
11.65093834764829
 31
0.0
  0
LINE
  5
1B2
330
2
100
AcDbEntity
  8
0
100
AcDbLine
 10
3.696857967805704
 20
11.60674417382413
 30
0.0
 11
3.599316707069464
 21
11.5092029130879
 31
0.0
  0
ARC
  5
1B3
330
2
100
AcDbEntity
  8
0
100
AcDbCircle
 10
3.621413793981544
 20
11.48710582617582
 30
0.0
 40
0.03125
100
AcDbArc
 50
135.0
 51
180.0000000000001
  0
ARC
  5
1B4
330
2
100
AcDbEntity
  8
0
100
AcDbCircle
 10
3.652663793981544
 20
11.65093834764829
 30
0.0
 40
0.0625
100
AcDbArc
 50
314.9999999999992
 51
0.0
  0
LINE
  5
1B5
330
2
100
AcDbEntity
  8
0
100
AcDbLine
 10
3.696857967805704
 20
11.89335582617581
 30
0.0
 11
3.599316707069464
 21
11.99089708691206
 31
0.0
  0
ARC
  5
1B6
330
2
100
AcDbEntity
  8
0
100
AcDbCircle
 10
3.621413793981544
 20
12.01299417382413
 30
0.0
 40
0.03125
100
AcDbArc
 50
180.0000000000001
 51
224.9999999999999
  0
ARC
  5
1B7
330
2
100
AcDbEntity
  8
0
100
AcDbCircle
 10
3.652663793981544
 20
11.84916165235165
 30
0.0
 40
0.0625
100
AcDbArc
 50
0.000000000000014
 51
44.99999999999996
  0
LINE
  5
1B8
330
2
100
AcDbEntity
  8
0
100
AcDbLine
 10
3.465163793981544
 20
13.08028224040575
 30
0.0
 11
3.049487734489935
 21
12.91892828170635
 31
0.0
  0
LINE
  5
1B9
330
2
100
AcDbEntity
  8
0
100
AcDbLine
 10
3.465163793981544
 20
12.66971775959424
 30
0.0
 11
3.049487734489935
 21
12.83107171829364
 31
0.0
  0
ARC
  5
1BA
330
2
100
AcDbEntity
  8
0
100
AcDbCircle
 10
3.065845353244727
 20
12.87499999999999
 30
0.0
 40
0.046875
100
AcDbArc
 50
110.4238721544558
 51
249.5761278455441
  0
ARC
  5
1BB
330
2
100
AcDbEntity
  8
0
100
AcDbCircle
 10
3.70833333333322
 20
12.87500000000005
 30
0.0
 40
0.3020833333332104
100
AcDbArc
 50
143.6078435953027
 51
216.3921564046968
  0
LINE
  5
1BC
330
2
100
AcDbEntity
  8
0
100
AcDbLine
 10
3.696857967805704
 20
14.14325582617587
 30
0.0
 11
3.599316707069464
 21
14.2407970869121
 31
0.0
  0
LINE
  5
1BD
330
2
100
AcDbEntity
  8
0
100
AcDbLine
 10
2.840163793981546
 20
13.87495000000002
 30
0.0
 11
3.465163793981548
 21
13.87495000000002
 31
0.0
  0
LINE
  5
1BE
330
2
100
AcDbEntity
  8
0
100
AcDbLine
 10
2.840163793981546
 20
14.12495000000001
 30
0.0
 11
3.465163793981548
 21
14.12495000000001
 31
0.0
  0
LINE
  5
1BF
330
2
100
AcDbEntity
  8
0
100
AcDbLine
 10
3.156249999999819
 20
13.49999999999999
 30
0.0
 11
3.465163793981546
 21
13.5
 31
0.0
  0
CIRCLE
  5
1C0
330
2
100
AcDbEntity
  8
0
100
AcDbCircle
 10
3.0
 20
13.5
 30
0.0
 40
0.15625
  0
ARC
  5
1C1
330
2
100
AcDbEntity
  8
0
100
AcDbCircle
 10
2.840163793981541
 20
13.99995000000001
 30
0.0
 40
0.1249999999999929
100
AcDbArc
 50
89.99999999999724
 51
270.0000000000024
  0
LINE
  5
1C2
330
2
100
AcDbEntity
  8
0
100
AcDbLine
 10
3.590163793981548
 20
13.74995000000003
 30
0.0
 11
3.590163793981548
 21
13.49990000000002
 31
0.0
  0
LINE
  5
1C3
330
2
100
AcDbEntity
  8
0
100
AcDbLine
 10
3.696857967805704
 20
13.85664417382419
 30
0.0
 11
3.599316707069464
 21
13.75910291308794
 31
0.0
  0
ARC
  5
1C4
330
2
100
AcDbEntity
  8
0
100
AcDbCircle
 10
3.621413793981544
 20
13.73700582617587
 30
0.0
 40
0.03125
100
AcDbArc
 50
135.0000000000001
 51
180.0
  0
LINE
  5
1C5
330
2
100
AcDbEntity
  8
0
100
AcDbLine
 10
3.715163793981544
 20
13.90083834764835
 30
0.0
 11
3.715163793981544
 21
14.09906165235171
 31
0.0
  0
ARC
  5
1C6
330
2
100
AcDbEntity
  8
0
100
AcDbCircle
 10
3.652663793981544
 20
14.09906165235171
 30
0.0
 40
0.0625
100
AcDbArc
 50
0.0000000000000368
 51
45.00000000000085
  0
ARC
  5
1C7
330
2
100
AcDbEntity
  8
0
100
AcDbCircle
 10
3.652663793981544
 20
13.90083834764835
 30
0.0
 40
0.0625
100
AcDbArc
 50
315.0000000000001
 51
0.0
  0
ARC
  5
1C8
330
2
100
AcDbEntity
  8
0
100
AcDbCircle
 10
3.621413793981544
 20
14.26289417382418
 30
0.0
 40
0.03125
100
AcDbArc
 50
180.0
 51
225.0
  0
LINE
  5
1C9
330
2
100
AcDbEntity
  8
0
100
AcDbLine
 10
3.590163793981548
 20
14.50000000000002
 30
0.0
 11
3.590163793981548
 21
14.24995000000002
 31
0.0
  0
LINE
  5
1E8
330
2
100
AcDbEntity
  8
0
  6
HIDDEN
100
AcDbLine
 10
8.452238123104706
 20
3.500000000000002
 30
0.0
 11
9.305709682089002
 21
3.500000000000002
 31
0.0
  0
LINE
  5
1E9
330
2
100
AcDbEntity
  8
0
  6
HIDDEN
100
AcDbLine
 10
10.71756049088276
 20
3.500000000000003
 30
0.0
 11
11.56379141330456
 21
3.500000000000002
 31
0.0
  0
ENDSEC
  0
SECTION
  2
OBJECTS
  0
DICTIONARY
  5
9
330
0
100
AcDbDictionary
281
     1
  3
ACAD_COLOR
350
104
  3
ACAD_GROUP
350
23
  3
ACAD_LAYOUT
350
D
  3
ACAD_MATERIAL
350
103
  3
ACAD_MLINESTYLE
350
24
  3
ACAD_PLOTSETTINGS
350
25
  3
ACAD_PLOTSTYLENAME
350
8
  3
ACAD_TABLESTYLE
350
105
  3
ACDBHEADERROUNDTRIPXREC
350
20C
  3
AcDbVariableDictionary
350
FF
  0
DICTIONARY
  5
3
330
2
100
AcDbDictionary
280
     1
281
     1
  3
ACAD_SORTENTS
360
10C
  0
DICTIONARY
  5
104
102
{ACAD_REACTORS
330
9
102
}
330
9
100
AcDbDictionary
281
     1
  0
DICTIONARY
  5
23
102
{ACAD_REACTORS
330
9
102
}
330
9
100
AcDbDictionary
281
     1
  0
DICTIONARY
  5
D
102
{ACAD_REACTORS
330
9
102
}
330
9
100
AcDbDictionary
281
     1
  3
Layout1
350
13
  3
Model
350
C
  0
DICTIONARY
  5
103
102
{ACAD_REACTORS
330
9
102
}
330
9
100
AcDbDictionary
281
     1
  0
DICTIONARY
  5
24
102
{ACAD_REACTORS
330
9
102
}
330
9
100
AcDbDictionary
281
     1
  3
Standard
350
27
  0
DICTIONARY
  5
25
102
{ACAD_REACTORS
330
9
102
}
330
9
100
AcDbDictionary
281
     1
  0
ACDBDICTIONARYWDFLT
  5
8
102
{ACAD_REACTORS
330
9
102
}
330
9
100
AcDbDictionary
281
     1
  3
Normal
350
7
100
AcDbDictionaryWithDefault
340
7
  0
DICTIONARY
  5
105
102
{ACAD_REACTORS
330
9
102
}
330
9
100
AcDbDictionary
281
     1
  3
Standard
350
106
  0
DICTIONARY
  5
20C
102
{ACAD_REACTORS
330
9
102
}
330
9
100
AcDbDictionary
281
     1
  3
COLORDICT
350
20D
  3
MATERIALDICT
350
20E
  0
DICTIONARY
  5
FF
102
{ACAD_REACTORS
330
9
102
}
330
9
100
AcDbDictionary
281
     1
  3
CTABLESTYLE
350
1D0
  3
DIMASSOC
350
101
  3
HIDETEXT
350
100
  0
SORTENTSTABLE
  5
10C
102
{ACAD_REACTORS
330
3
102
}
330
3
100
AcDbSortentsTable
330
2
331
1A4
  5
1A4
331
142
  5
182
331
186
  5
14D
331
158
  5
11F
331
1A9
  5
1A9
331
190
  5
190
331
113
  5
153
331
110
  5
150
331
1AD
  5
1AD
331
1A7
  5
1A7
331
129
  5
169
331
195
  5
195
331
176
  5
13D
331
123
  5
163
331
1AB
  5
1AB
331
18C
  5
18C
331
1B2
  5
1B2
331
12D
  5
16D
331
12F
  5
16F
331
147
  5
187
331
1A1
  5
1A1
331
19C
  5
19C
331
18A
  5
18A
331
1B9
  5
1B9
331
1A3
  5
1A3
331
1A5
  5
1A5
331
163
  5
12A
331
152
  5
119
331
17A
  5
141
331
12C
  5
16C
331
13E
  5
17E
331
154
  5
11B
331
14C
  5
113
331
118
  5
158
331
1B0
  5
1B0
331
13C
  5
17C
331
143
  5
183
331
185
  5
14C
331
17B
  5
142
331
136
  5
176
331
16E
  5
135
331
173
  5
13A
331
1A0
  5
1A0
331
1E8
  5
1E8
331
119
  5
159
331
168
  5
12F
331
184
  5
14B
331
1B4
  5
1B4
331
19A
  5
19A
331
128
  5
168
331
1B1
  5
1B1
331
162
  5
129
331
174
  5
13B
331
1B3
  5
1B3
331
1BA
  5
1BA
331
1BC
  5
1BC
331
1BE
  5
1BE
331
172
  5
139
331
1B8
  5
1B8
331
139
  5
179
331
131
  5
171
331
19B
  5
19B
331
1E9
  5
1E9
331
177
  5
13E
331
1B5
  5
1B5
331
16C
  5
133
331
194
  5
194
331
18B
  5
18B
331
17F
  5
146
331
180
  5
147
331
130
  5
170
331
13F
  5
17F
331
164
  5
12B
331
138
  5
178
331
11E
  5
15E
331
117
  5
157
331
18D
  5
18D
331
15B
  5
122
331
161
  5
128
331
15E
  5
125
331
157
  5
11E
331
14D
  5
114
331
146
  5
186
331
150
  5
117
331
141
  5
181
331
115
  5
155
331
16F
  5
136
331
175
  5
13C
331
16D
  5
134
331
1C9
  5
1C9
331
1BB
  5
1BB
331
14A
  5
111
331
159
  5
120
331
11A
  5
15A
331
148
  5
10F
331
15D
  5
124
331
13B
  5
17B
331
1B7
  5
1B7
331
1AF
  5
1AF
331
149
  5
110
331
121
  5
161
331
1BD
  5
1BD
331
187
  5
14E
331
167
  5
12E
331
179
  5
140
331
120
  5
160
331
13A
  5
17A
331
133
  5
173
331
19D
  5
19D
331
1C5
  5
1C5
331
14B
  5
112
331
197
  5
197
331
16A
  5
131
331
153
  5
11A
331
11F
  5
15F
331
1C6
  5
1C6
331
192
  5
192
331
178
  5
13F
331
189
  5
189
331
11C
  5
15C
331
14F
  5
116
331
1C7
  5
1C7
331
1C4
  5
1C4
331
126
  5
166
331
193
  5
193
331
188
  5
14F
331
160
  5
127
331
11D
  5
15D
331
1A6
  5
1A6
331
16B
  5
132
331
114
  5
154
331
134
  5
174
331
11B
  5
15B
331
169
  5
130
331
15F
  5
126
331
1AE
  5
1AE
331
144
  5
184
331
1AA
  5
1AA
331
18E
  5
18E
331
15A
  5
121
331
151
  5
118
331
124
  5
164
331
111
  5
151
331
165
  5
12C
331
1C3
  5
1C3
331
1C1
  5
1C1
331
1A2
  5
1A2
331
1C2
  5
1C2
331
12A
  5
16A
331
19F
  5
19F
331
14E
  5
115
331
156
  5
11D
331
166
  5
12D
331
1B6
  5
1B6
331
191
  5
191
331
155
  5
11C
331
135
  5
175
331
199
  5
199
331
17C
  5
143
331
112
  5
152
331
17D
  5
144
331
18F
  5
18F
331
196
  5
196
331
181
  5
148
331
183
  5
14A
331
15C
  5
123
331
140
  5
180
331
127
  5
167
331
1AC
  5
1AC
331
125
  5
165
331
171
  5
138
331
122
  5
162
331
17E
  5
145
331
170
  5
137
331
1C0
  5
1C0
331
198
  5
198
331
145
  5
185
331
182
  5
149
331
116
  5
156
331
12E
  5
16E
331
1A8
  5
1A8
331
12B
  5
16B
331
132
  5
172
331
13D
  5
17D
331
19E
  5
19E
331
1C8
  5
1C8
331
137
  5
177
331
1BF
  5
1BF
  0
LAYOUT
  5
13
102
{ACAD_REACTORS
330
D
102
}
102
{ACAD_XDICTIONARY
360
20F
102
}
330
D
100
AcDbPlotSettings
  1

  2
hp psc 2100 series
  4

  6

 40
0.0
 41
0.0
 42
0.0
 43
0.0
 44
0.0
 45
0.0
 46
0.0
 47
0.0
 48
0.0
 49
0.0
140
0.0
141
0.0
142
1.0
143
1.0
 70
   688
 72
     0
 73
     0
 74
     5
  7

 75
    16
147
1.0
148
0.0
149
0.0
100
AcDbLayout
  1
Layout1
 70
     0
 71
     1
 10
0.0
 20
0.0
 11
12.0
 21
9.0
 12
0.0
 22
0.0
 32
0.0
 14
1.000000000000000E+20
 24
1.000000000000000E+20
 34
1.000000000000000E+20
 15
-1.000000000000000E+20
 25
-1.000000000000000E+20
 35
-1.000000000000000E+20
146
0.0
 13
0.0
 23
0.0
 33
0.0
 16
1.0
 26
0.0
 36
0.0
 17
0.0
 27
1.0
 37
0.0
 76
     0
330
E
  0
LAYOUT
  5
C
102
{ACAD_REACTORS
330
D
102
}
102
{ACAD_XDICTIONARY
360
211
102
}
330
D
100
AcDbPlotSettings
  1

  2
HP LaserJet 2100 Series PS
  4
Letter
  6

 40
5.365749835968018
 41
5.408073902130127
 42
5.132904052734375
 43
5.090576171875
 44
215.8999938964844
 45
279.3999938964844
 46
0.0
 47
0.0
 48
0.0
 49
0.0
140
0.0
141
0.0
142
1.0
143
3.895300780266023
 70
 28336
 72
     0
 73
     1
 74
     2
  7

 75
     0
147
0.2567195850615948
148
0.0
149
0.0
100
AcDbLayout
  1
Model
 70
     1
 71
     0
 10
0.0
 20
0.0
 11
12.0
 21
9.0
 12
0.0
 22
0.0
 32
0.0
 14
0.0
 24
0.0
 34
0.0
 15
0.0
 25
0.0
 35
0.0
146
0.0
 13
0.0
 23
0.0
 33
0.0
 16
1.0
 26
0.0
 36
0.0
 17
0.0
 27
1.0
 37
0.0
 76
     0
330
2
  0
MLINESTYLE
  5
27
102
{ACAD_REACTORS
330
24
102
}
330
24
100
AcDbMlineStyle
  2
STANDARD
 70
     0
  3

 62
   256
 51
90.0
 52
90.0
 71
     2
 49
0.5
 62
   256
  6
BYLAYER
 49
-0.5
 62
   256
  6
BYLAYER
  0
ACDBPLACEHOLDER
  5
7
102
{ACAD_REACTORS
330
8
102
}
330
8
  0
ACAD_PROXY_OBJECT
  5
106
102
{ACAD_REACTORS
330
105
102
}
330
105
100
AcDbProxyObject
 90
      499
 91
      520
 95
   983063
 70
     0
 93
     1841
310
4214DD185B99185C9928B81E85EB51B8AE3F2E07A17AD46E2B8FC02B5E8DC0F42B1CFD028000000C1008070000C3001FDFF8000000C1003FBFF000000182007F7FE00000030400FEFFC00000060801FDFF8000000C1003FBFF00000018200000000000000681FA0B0000001820100E000186003FBFF000000182007F7FE000
310
00030400FEFFC00000060801FDFF8000000C1003FBFF000000182007F7FE000000304000AD7A3703D0AC73F4160000003040201C00030C007F7FE00000030400FEFFC00000060801FDFF8000000C1003FBFF000000182007F7FE00000030400FEFFC000000608000
340
16
340
16
340
16
 94
        0
  0
XRECORD
  5
20D
102
{ACAD_REACTORS
330
20C
102
}
330
20C
100
AcDbXrecord
340
104
  0
XRECORD
  5
20E
102
{ACAD_REACTORS
330
20C
102
}
330
20C
100
AcDbXrecord
340
103
  0
DICTIONARYVAR
  5
1D0
102
{ACAD_REACTORS
330
FF
102
}
330
FF
100
DictionaryVariables
280
     0
  1
STANDARD
  0
DICTIONARYVAR
  5
101
102
{ACAD_REACTORS
330
FF
102
}
330
FF
100
DictionaryVariables
280
     0
  1
2
  0
DICTIONARYVAR
  5
100
102
{ACAD_REACTORS
330
FF
102
}
330
FF
100
DictionaryVariables
280
     0
  1
1
  0
DICTIONARY
  5
20F
330
13
100
AcDbDictionary
280
     1
281
     1
  3
ACAD_XREC_ROUNDTRIP
360
210
  0
DICTIONARY
  5
211
330
C
100
AcDbDictionary
280
     1
281
     1
  3
ACAD_XREC_ROUNDTRIP
360
212
  0
XRECORD
  5
210
102
{ACAD_REACTORS
330
20F
102
}
330
20F
100
AcDbXrecord
102
SHADEPLOT
 70
     0
102
SHADEPLOTRESLEVEL
 70
     2
102
SHADEPLOTCUSTOMDPI
 70
   300
  0
XRECORD
  5
212
102
{ACAD_REACTORS
330
211
102
}
330
211
100
AcDbXrecord
102
SHADEPLOT
 70
     0
102
SHADEPLOTRESLEVEL
 70
     2
102
SHADEPLOTCUSTOMDPI
 70
   300
  0
ENDSEC
  0
EOF
