  0
SECTION
  2
HEADER
  9
$ACADVER
  1
AC1015
  9
$ACADMAINTVER
 70
     6
  9
$DWGCODEPAGE
  3
ANSI_1252
  9
$INSBASE
 10
0.0
 20
0.0
 30
0.0
  9
$EXTMIN
 10
-0.1979882699214235
 20
-0.000000000000002
 30
0.0
  9
$EXTMAX
 10
14.50277594469743
 20
14.50000000000002
 30
0.0
  9
$LIMMIN
 10
0.0
 20
0.0
  9
$LIMMAX
 10
31.5
 20
24.0
  9
$ORTHOMODE
 70
     1
  9
$REGENMODE
 70
     1
  9
$FILLMODE
 70
     1
  9
$QTEXTMODE
 70
     0
  9
$MIRRTEXT
 70
     1
  9
$LTSCALE
 40
1.5
  9
$ATTMODE
 70
     1
  9
$TEXTSIZE
 40
0.270000000000005
  9
$TRACEWID
 40
0.05
  9
$TEXTSTYLE
  7
STANDARD
  9
$CLAYER
  8
0
  9
$CELTYPE
  6
ByLayer
  9
$CECOLOR
 62
   256
  9
$CELTSCALE
 40
1.0
  9
$DISPSILH
 70
     0
  9
$DIMSCALE
 40
3.00000000000005
  9
$DIMASZ
 40
0.125
  9
$DIMEXO
 40
0.062
  9
$DIMDLI
 40
0.375
  9
$DIMRND
 40
0.0
  9
$DIMDLE
 40
0.0
  9
$DIMEXE
 40
0.08
  9
$DIMTP
 40
0.0
  9
$DIMTM
 40
0.0
  9
$DIMTXT
 40
0.09
  9
$DIMCEN
 40
-0.03125
  9
$DIMTSZ
 40
0.0
  9
$DIMTOL
 70
     0
  9
$DIMLIM
 70
     0
  9
$DIMTIH
 70
     1
  9
$DIMTOH
 70
     1
  9
$DIMSE1
 70
     0
  9
$DIMSE2
 70
     0
  9
$DIMTAD
 70
     0
  9
$DIMZIN
 70
     0
  9
$DIMBLK
  1

  9
$DIMASO
 70
     0
  9
$DIMSHO
 70
     0
  9
$DIMPOST
  1

  9
$DIMAPOST
  1

  9
$DIMALT
 70
     0
  9
$DIMALTD
 70
     2
  9
$DIMALTF
 40
25.4
  9
$DIMLFAC
 40
1.0
  9
$DIMTOFL
 70
     0
  9
$DIMTVP
 40
0.0
  9
$DIMTIX
 70
     0
  9
$DIMSOXD
 70
     0
  9
$DIMSAH
 70
     0
  9
$DIMBLK1
  1

  9
$DIMBLK2
  1

  9
$DIMSTYLE
  2
Standard
  9
$DIMCLRD
 70
     0
  9
$DIMCLRE
 70
     0
  9
$DIMCLRT
 70
     0
  9
$DIMTFAC
 40
1.0
  9
$DIMGAP
 40
0.09
  9
$DIMJUST
 70
     0
  9
$DIMSD1
 70
     0
  9
$DIMSD2
 70
     0
  9
$DIMTOLJ
 70
     1
  9
$DIMTZIN
 70
     0
  9
$DIMALTZ
 70
     0
  9
$DIMALTTZ
 70
     0
  9
$DIMUPT
 70
     0
  9
$DIMDEC
 70
     5
  9
$DIMTDEC
 70
     5
  9
$DIMALTU
 70
     5
  9
$DIMALTTD
 70
     2
  9
$DIMTXSTY
  7
STANDARD
  9
$DIMAUNIT
 70
     0
  9
$DIMADEC
 70
     0
  9
$DIMALTRND
 40
0.0
  9
$DIMAZIN
 70
     0
  9
$DIMDSEP
 70
    46
  9
$DIMATFIT
 70
     3
  9
$DIMFRAC
 70
     0
  9
$DIMLDRBLK
  1

  9
$DIMLUNIT
 70
     5
  9
$DIMLWD
 70
    -2
  9
$DIMLWE
 70
    -2
  9
$DIMTMOVE
 70
     2
  9
$LUNITS
 70
     5
  9
$LUPREC
 70
     5
  9
$SKETCHINC
 40
0.1
  9
$FILLETRAD
 40
0.25
  9
$AUNITS
 70
     0
  9
$AUPREC
 70
     0
  9
$MENU
  1
acad
  9
$ELEVATION
 40
0.0
  9
$PELEVATION
 40
0.0
  9
$THICKNESS
 40
0.0
  9
$LIMCHECK
 70
     0
  9
$CHAMFERA
 40
0.0
  9
$CHAMFERB
 40
0.0
  9
$CHAMFERC
 40
0.0
  9
$CHAMFERD
 40
0.0
  9
$SKPOLY
 70
     0
  9
$TDCREATE
 40
2449219.797856945
  9
$TDUCREATE
 40
2449220.131190278
  9
$TDUPDATE
 40
2454162.880245116
  9
$TDUUPDATE
 40
2454163.213578449
  9
$TDINDWG
 40
0.0168955671
  9
$TDUSRTIMER
 40
0.0168955671
  9
$USRTIMER
 70
     1
  9
$ANGBASE
 50
0.0
  9
$ANGDIR
 70
     0
  9
$PDMODE
 70
     0
  9
$PDSIZE
 40
0.0
  9
$PLINEWID
 40
0.0
  9
$SPLFRAME
 70
     0
  9
$SPLINETYPE
 70
     6
  9
$SPLINESEGS
 70
     8
  9
$HANDSEED
  5
3B9
  9
$SURFTAB1
 70
     6
  9
$SURFTAB2
 70
     6
  9
$SURFTYPE
 70
     6
  9
$SURFU
 70
     6
  9
$SURFV
 70
     6
  9
$UCSBASE
  2

  9
$UCSNAME
  2

  9
$UCSORG
 10
0.0
 20
0.0
 30
0.0
  9
$UCSXDIR
 10
1.0
 20
0.0
 30
0.0
  9
$UCSYDIR
 10
0.0
 20
1.0
 30
0.0
  9
$UCSORTHOREF
  2

  9
$UCSORTHOVIEW
 70
     0
  9
$UCSORGTOP
 10
0.0
 20
0.0
 30
0.0
  9
$UCSORGBOTTOM
 10
0.0
 20
0.0
 30
0.0
  9
$UCSORGLEFT
 10
0.0
 20
0.0
 30
0.0
  9
$UCSORGRIGHT
 10
0.0
 20
0.0
 30
0.0
  9
$UCSORGFRONT
 10
0.0
 20
0.0
 30
0.0
  9
$UCSORGBACK
 10
0.0
 20
0.0
 30
0.0
  9
$PUCSBASE
  2

  9
$PUCSNAME
  2

  9
$PUCSORG
 10
0.0
 20
0.0
 30
0.0
  9
$PUCSXDIR
 10
1.0
 20
0.0
 30
0.0
  9
$PUCSYDIR
 10
0.0
 20
1.0
 30
0.0
  9
$PUCSORTHOREF
  2

  9
$PUCSORTHOVIEW
 70
     0
  9
$PUCSORGTOP
 10
0.0
 20
0.0
 30
0.0
  9
$PUCSORGBOTTOM
 10
0.0
 20
0.0
 30
0.0
  9
$PUCSORGLEFT
 10
0.0
 20
0.0
 30
0.0
  9
$PUCSORGRIGHT
 10
0.0
 20
0.0
 30
0.0
  9
$PUCSORGFRONT
 10
0.0
 20
0.0
 30
0.0
  9
$PUCSORGBACK
 10
0.0
 20
0.0
 30
0.0
  9
$USERI1
 70
     0
  9
$USERI2
 70
     0
  9
$USERI3
 70
     0
  9
$USERI4
 70
     0
  9
$USERI5
 70
     0
  9
$USERR1
 40
0.0
  9
$USERR2
 40
0.0
  9
$USERR3
 40
0.0
  9
$USERR4
 40
0.0
  9
$USERR5
 40
0.0
  9
$WORLDVIEW
 70
     1
  9
$SHADEDGE
 70
     3
  9
$SHADEDIF
 70
    70
  9
$TILEMODE
 70
     1
  9
$MAXACTVP
 70
    16
  9
$PINSBASE
 10
0.0
 20
0.0
 30
0.0
  9
$PLIMCHECK
 70
     0
  9
$PEXTMIN
 10
1.000000000000000E+20
 20
1.000000000000000E+20
 30
1.000000000000000E+20
  9
$PEXTMAX
 10
-1.000000000000000E+20
 20
-1.000000000000000E+20
 30
-1.000000000000000E+20
  9
$PLIMMIN
 10
0.0
 20
0.0
  9
$PLIMMAX
 10
12.0
 20
9.0
  9
$UNITMODE
 70
     0
  9
$VISRETAIN
 70
     0
  9
$PLINEGEN
 70
     0
  9
$PSLTSCALE
 70
     0
  9
$TREEDEPTH
 70
  3020
  9
$CMLSTYLE
  2
Standard
  9
$CMLJUST
 70
     0
  9
$CMLSCALE
 40
1.0
  9
$PROXYGRAPHICS
 70
     1
  9
$MEASUREMENT
 70
     0
  9
$CELWEIGHT
370
    -1
  9
$ENDCAPS
280
     0
  9
$JOINSTYLE
280
     0
  9
$LWDISPLAY
290
     0
  9
$INSUNITS
 70
     0
  9
$HYPERLINKBASE
  1

  9
$STYLESHEET
  1

  9
$XEDIT
290
     1
  9
$CEPSNTYPE
380
     0
  9
$PSTYLEMODE
290
     1
  9
$FINGERPRINTGUID
  2
{B72A41E0-CD8B-42DB-B16B-907DB5B893C2}
  9
$VERSIONGUID
  2
{9A9D5CEC-B043-473D-BDB9-72FBFE80F753}
  9
$EXTNAMES
290
     1
  9
$PSVPSCALE
 40
0.0
  9
$OLESTARTUP
290
     0
  0
ENDSEC
  0
SECTION
  2
CLASSES
  0
CLASS
  1
ACDBDICTIONARYWDFLT
  2
AcDbDictionaryWithDefault
  3
AutoCAD 2000
 90
        0
280
     0
281
     0
  0
CLASS
  1
ACDBPLACEHOLDER
  2
AcDbPlaceHolder
  3
ObjectDBX Classes
 90
        0
280
     0
281
     0
  0
CLASS
  1
LAYOUT
  2
AcDbLayout
  3
ObjectDBX Classes
 90
        0
280
     0
281
     0
  0
CLASS
  1
DICTIONARYVAR
  2
AcDbDictionaryVar
  3
AutoCAD 2000
 90
        0
280
     0
281
     0
  0
CLASS
  1
TABLESTYLE
  2
AcDbTableStyle
  3
ObjectDBX Classes
 90
     2047
280
     1
281
     0
  0
CLASS
  1
SORTENTSTABLE
  2
AcDbSortentsTable
  3
AutoCAD 2000
 90
        0
280
     0
281
     0
  0
ENDSEC
  0
SECTION
  2
TABLES
  0
TABLE
  2
VPORT
  5
19
330
0
100
AcDbSymbolTable
 70
     2
  0
VPORT
  5
3AC
330
19
100
AcDbSymbolTableRecord
100
AcDbViewportTableRecord
  2
*Active
 70
     0
 10
0.0
 20
0.0
 11
1.0
 21
1.0
 12
15.65001846631141
 22
11.99981700070318
 13
0.0
 23
0.0
 14
0.03125
 24
0.03125
 15
0.25
 25
0.25
 16
0.0
 26
0.0
 36
1.0
 17
0.0
 27
0.0
 37
0.0
 40
24.29974686344097
 41
1.814583333333333
 42
50.0
 43
0.0
 44
0.0
 50
0.0
 51
0.0
 71
     0
 72
   100
 73
     1
 74
     1
 75
     0
 76
     0
 77
     0
 78
     0
281
     0
 65
     1
110
0.0
120
0.0
130
0.0
111
1.0
121
0.0
131
0.0
112
0.0
122
1.0
132
0.0
 79
     0
146
0.0
  0
ENDTAB
  0
TABLE
  2
LTYPE
  5
14
330
0
100
AcDbSymbolTable
 70
     2
  0
LTYPE
  5
15
330
14
100
AcDbSymbolTableRecord
100
AcDbLinetypeTableRecord
  2
ByBlock
 70
     0
  3

 72
    65
 73
     0
 40
0.0
  0
LTYPE
  5
16
330
14
100
AcDbSymbolTableRecord
100
AcDbLinetypeTableRecord
  2
ByLayer
 70
     0
  3

 72
    65
 73
     0
 40
0.0
  0
LTYPE
  5
8
330
14
100
AcDbSymbolTableRecord
100
AcDbLinetypeTableRecord
  2
CONTINUOUS
 70
     0
  3
Solid line
 72
    65
 73
     0
 40
0.0
  0
LTYPE
  5
1F8
330
14
100
AcDbSymbolTableRecord
100
AcDbLinetypeTableRecord
  2
HIDDEN
 70
     0
  3
Hidden __ __ __ __ __ __ __ __ __ __ __ __ __ _
 72
    65
 73
     2
 40
0.375
 49
0.25
 74
     0
 49
-0.125
 74
     0
  0
ENDTAB
  0
TABLE
  2
LAYER
  5
10
330
0
100
AcDbSymbolTable
 70
     1
  0
LAYER
  5
4
330
10
100
AcDbSymbolTableRecord
100
AcDbLayerTableRecord
  2
0
 70
     0
 62
     7
  6
CONTINUOUS
370
    -3
390
5
  0
ENDTAB
  0
TABLE
  2
STYLE
  5
11
330
0
100
AcDbSymbolTable
 70
     1
  0
STYLE
  5
12
330
11
100
AcDbSymbolTableRecord
100
AcDbTextStyleTableRecord
  2
STANDARD
 70
     0
 40
0.0
 41
1.0
 50
0.0
 71
     0
 42
0.270000000000005
  3
TXT
  4

  0
ENDTAB
  0
TABLE
  2
VIEW
  5
17
330
0
100
AcDbSymbolTable
 70
     0
  0
ENDTAB
  0
TABLE
  2
UCS
  5
18
330
0
100
AcDbSymbolTable
 70
     0
  0
ENDTAB
  0
TABLE
  2
APPID
  5
1B
330
0
100
AcDbSymbolTable
 70
     1
  0
APPID
  5
1C
330
1B
100
AcDbSymbolTableRecord
100
AcDbRegAppTableRecord
  2
ACAD
 70
     0
  0
ENDTAB
  0
TABLE
  2
DIMSTYLE
  5
1D
330
0
100
AcDbSymbolTable
 70
     1
100
AcDbDimStyleTable
  0
DIMSTYLE
105
24
330
1D
100
AcDbSymbolTableRecord
100
AcDbDimStyleTableRecord
  2
Standard
 70
     0
  3

  4

340
12
  0
ENDTAB
  0
TABLE
  2
BLOCK_RECORD
  5
1
330
0
100
AcDbSymbolTable
 70
     0
  0
BLOCK_RECORD
  5
2
102
{ACAD_XDICTIONARY
360
119
102
}
330
1
100
AcDbSymbolTableRecord
100
AcDbBlockTableRecord
  2
*Model_Space
340
A
  0
BLOCK_RECORD
  5
C
330
1
100
AcDbSymbolTableRecord
100
AcDbBlockTableRecord
  2
*Paper_Space
340
F
  0
ENDTAB
  0
ENDSEC
  0
SECTION
  2
BLOCKS
  0
BLOCK
  5
3
330
2
100
AcDbEntity
  8
0
100
AcDbBlockBegin
  2
*Model_Space
 70
     0
 10
0.0
 20
0.0
 30
0.0
  3
*Model_Space
  1

  4

  0
ENDBLK
  5
9
330
2
100
AcDbEntity
  8
0
100
AcDbBlockEnd
  0
BLOCK
  5
D
330
C
100
AcDbEntity
 67
     1
  8
0
100
AcDbBlockBegin
  2
*Paper_Space
 70
     0
 10
0.0
 20
0.0
 30
0.0
  3
*Paper_Space
  1

  4

  0
ENDBLK
  5
E
330
C
100
AcDbEntity
 67
     1
  8
0
100
AcDbBlockEnd
  0
ENDSEC
  0
SECTION
  2
ENTITIES
  0
LINE
  5
11E
330
2
100
AcDbEntity
  8
0
100
AcDbLine
 10
-0.0625
 20
11.25
 30
0.0
 11
5.683913793981548
 21
11.25
 31
0.0
  0
LINE
  5
11F
330
2
100
AcDbEntity
  8
0
100
AcDbLine
 10
-0.0625000000000071
 20
14.5
 30
0.0
 11
5.683913793981548
 21
14.50000000000001
 31
0.0
  0
LINE
  5
120
330
2
100
AcDbEntity
  8
0
100
AcDbLine
 10
0.0000000000000018
 20
12.25
 30
0.0
 11
0.0000000000000018
 21
13.5
 31
0.0
  0
ARC
  5
121
330
2
100
AcDbEntity
  8
0
100
AcDbCircle
 10
-0.2083333333332202
 20
12.87500000000005
 30
0.0
 40
0.3020833333332104
100
AcDbArc
 50
315.9513743258718
 51
44.04862567412731
  0
LINE
  5
122
330
2
100
AcDbEntity
  8
0
100
AcDbLine
 10
0.0034612768611186
 20
13.09246112082922
 30
0.0
 11
0.4505122655100653
 21
12.91892828170635
 31
0.0
  0
LINE
  5
123
330
2
100
AcDbEntity
  8
0
100
AcDbLine
 10
0.0625
 20
11.76822357755799
 30
0.0
 11
0.0624999999999982
 21
12.25
 31
0.0
  0
LINE
  5
124
330
2
100
AcDbEntity
  8
0
100
AcDbLine
 10
-0.0625
 20
11.81357305740081
 30
0.0
 11
-0.0625000000000018
 21
12.25
 31
0.0
  0
LINE
  5
125
330
2
100
AcDbEntity
  8
0
100
AcDbLine
 10
0.6875000000000018
 20
11.87504999999998
 30
0.0
 11
0.0625
 21
11.87504999999998
 31
0.0
  0
LINE
  5
126
330
2
100
AcDbEntity
  8
0
100
AcDbLine
 10
0.6875000000000018
 20
11.62505
 30
0.0
 11
0.0625
 21
11.62505
 31
0.0
  0
ARC
  5
127
330
2
100
AcDbEntity
  8
0
100
AcDbCircle
 10
-0.1249999999999965
 20
11.65093834764829
 30
0.0
 40
0.0625
100
AcDbArc
 50
180.0000000000001
 51
225.0000000000009
  0
LINE
  5
128
330
2
100
AcDbEntity
  8
0
100
AcDbLine
 10
0.0625
 20
11.24999999999999
 30
0.0
 11
0.0625
 21
11.76822357755799
 31
0.0
  0
LINE
  5
129
330
2
100
AcDbEntity
  8
0
100
AcDbLine
 10
-0.0625
 20
11.25
 30
0.0
 11
-0.0625
 21
11.81357305740081
 31
0.0
  0
LINE
  5
12A
330
2
100
AcDbEntity
  8
0
100
AcDbLine
 10
-0.169194173824156
 20
11.60674417382413
 30
0.0
 11
-0.0716529130879167
 21
11.5092029130879
 31
0.0
  0
ARC
  5
12B
330
2
100
AcDbEntity
  8
0
100
AcDbCircle
 10
-0.0937499999999964
 20
11.48710582617582
 30
0.0
 40
0.03125
100
AcDbArc
 50
0.0
 51
45.0
  0
LINE
  5
12C
330
2
100
AcDbEntity
  8
0
100
AcDbLine
 10
-0.1874999999999965
 20
11.84916165235165
 30
0.0
 11
-0.1874999999999965
 21
11.65093834764829
 31
0.0
  0
LINE
  5
12D
330
2
100
AcDbEntity
  8
0
100
AcDbLine
 10
-0.169194173824156
 20
11.89335582617581
 30
0.0
 11
-0.0716529130879167
 21
11.99089708691206
 31
0.0
  0
ARC
  5
12E
330
2
100
AcDbEntity
  8
0
100
AcDbCircle
 10
-0.0937499999999964
 20
12.01299417382413
 30
0.0
 40
0.03125
100
AcDbArc
 50
315.0000000000001
 51
0.0
  0
ARC
  5
12F
330
2
100
AcDbEntity
  8
0
100
AcDbCircle
 10
-0.1249999999999965
 20
11.84916165235165
 30
0.0
 40
0.0625
100
AcDbArc
 50
135.0000000000001
 51
180.0
  0
ARC
  5
130
330
2
100
AcDbEntity
  8
0
100
AcDbCircle
 10
0.6875000000000071
 20
11.75004999999999
 30
0.0
 40
0.1249999999999929
100
AcDbArc
 50
269.9999999999973
 51
90.00000000000244
  0
LINE
  5
131
330
2
100
AcDbEntity
  8
0
100
AcDbLine
 10
0.0034612768611542
 20
12.65753887917078
 30
0.0
 11
0.4505122655100653
 21
12.83107171829364
 31
0.0
  0
LINE
  5
132
330
2
100
AcDbEntity
  8
0
100
AcDbLine
 10
0.3750000000000746
 20
12.25
 30
0.0
 11
-0.0625000000000018
 21
12.25
 31
0.0
  0
LINE
  5
133
330
2
100
AcDbEntity
  8
0
100
AcDbLine
 10
-0.0000000000000018
 20
12.24999999999999
 30
0.0
 11
0.0000000000000018
 21
12.65753887916866
 31
0.0
  0
ARC
  5
134
330
2
100
AcDbEntity
  8
0
100
AcDbCircle
 10
0.0312499999999982
 20
12.64324379727806
 30
0.0
 40
0.03125
100
AcDbArc
 50
135.9513743258694
 51
180.0000000000001
  0
CIRCLE
  5
135
330
2
100
AcDbEntity
  8
0
100
AcDbCircle
 10
0.5000000000000036
 20
12.25
 30
0.0
 40
0.125
  0
ARC
  5
136
330
2
100
AcDbEntity
  8
0
100
AcDbCircle
 10
0.4341546467552728
 20
12.87499999999999
 30
0.0
 40
0.046875
100
AcDbArc
 50
290.4238721544559
 51
69.57612784554416
  0
ARC
  5
137
330
2
100
AcDbEntity
  8
0
100
AcDbCircle
 10
0.6875000000000071
 20
13.99995000000001
 30
0.0
 40
0.1249999999999929
100
AcDbArc
 50
269.9999999999976
 51
90.00000000000276
  0
LINE
  5
138
330
2
100
AcDbEntity
  8
0
100
AcDbLine
 10
-0.1874999999999965
 20
13.90083834764835
 30
0.0
 11
-0.1874999999999965
 21
14.09906165235171
 31
0.0
  0
LINE
  5
139
330
2
100
AcDbEntity
  8
0
100
AcDbLine
 10
0.0624999999999929
 20
14.5
 30
0.0
 11
0.0624999999999947
 21
13.5
 31
0.0
  0
LINE
  5
13A
330
2
100
AcDbEntity
  8
0
100
AcDbLine
 10
-0.0625000000000071
 20
14.5
 30
0.0
 11
-0.0625000000000053
 21
13.5
 31
0.0
  0
LINE
  5
13B
330
2
100
AcDbEntity
  8
0
100
AcDbLine
 10
0.6875000000000018
 20
13.87495000000002
 30
0.0
 11
0.0625
 21
13.87495000000002
 31
0.0
  0
LINE
  5
13C
330
2
100
AcDbEntity
  8
0
100
AcDbLine
 10
0.375
 20
13.5
 30
0.0
 11
-0.0625000000000053
 21
13.5
 31
0.0
  0
LINE
  5
13D
330
2
100
AcDbEntity
  8
0
100
AcDbLine
 10
-0.0000000000000018
 20
13.5
 30
0.0
 11
0.0000000000000018
 21
13.0924611208294
 31
0.0
  0
ARC
  5
13E
330
2
100
AcDbEntity
  8
0
100
AcDbCircle
 10
0.0312500000000018
 20
13.10675620272204
 30
0.0
 40
0.03125
100
AcDbArc
 50
180.0000000000001
 51
224.0486256741307
  0
ARC
  5
13F
330
2
100
AcDbEntity
  8
0
100
AcDbCircle
 10
-0.1249999999999965
 20
13.90083834764835
 30
0.0
 40
0.0625
100
AcDbArc
 50
180.0000000000001
 51
225.0
  0
ARC
  5
140
330
2
100
AcDbEntity
  8
0
100
AcDbCircle
 10
-0.0937499999999964
 20
13.73700582617587
 30
0.0
 40
0.03125
100
AcDbArc
 50
0.0000000000000254
 51
44.99999999999997
  0
LINE
  5
141
330
2
100
AcDbEntity
  8
0
100
AcDbLine
 10
-0.169194173824156
 20
13.85664417382419
 30
0.0
 11
-0.0716529130879167
 21
13.75910291308794
 31
0.0
  0
CIRCLE
  5
142
330
2
100
AcDbEntity
  8
0
100
AcDbCircle
 10
0.5
 20
13.5
 30
0.0
 40
0.125
  0
LINE
  5
143
330
2
100
AcDbEntity
  8
0
100
AcDbLine
 10
0.6875000000000018
 20
14.12495000000001
 30
0.0
 11
0.0625
 21
14.12495000000001
 31
0.0
  0
ARC
  5
144
330
2
100
AcDbEntity
  8
0
100
AcDbCircle
 10
-0.1249999999999965
 20
14.09906165235171
 30
0.0
 40
0.0625
100
AcDbArc
 50
134.9999999999992
 51
180.0
  0
ARC
  5
145
330
2
100
AcDbEntity
  8
0
100
AcDbCircle
 10
-0.0937499999999964
 20
14.26289417382418
 30
0.0
 40
0.03125
100
AcDbArc
 50
315.0000000000001
 51
0.0000000000000254
  0
LINE
  5
146
330
2
100
AcDbEntity
  8
0
100
AcDbLine
 10
-0.169194173824156
 20
14.14325582617587
 30
0.0
 11
-0.0716529130879167
 21
14.2407970869121
 31
0.0
  0
LINE
  5
147
330
2
100
AcDbEntity
  8
0
100
AcDbLine
 10
5.621538723138881
 20
13.09246112082923
 30
0.0
 11
5.174487734489935
 21
12.91892828170635
 31
0.0
  0
ARC
  5
148
330
2
100
AcDbEntity
  8
0
100
AcDbCircle
 10
5.83333333333322
 20
12.87500000000006
 30
0.0
 40
0.3020833333332104
100
AcDbArc
 50
135.9513743258727
 51
224.0486256741283
  0
LINE
  5
149
330
2
100
AcDbEntity
  8
0
100
AcDbLine
 10
5.625
 20
12.25
 30
0.0
 11
5.625
 21
13.5
 31
0.0
  0
LINE
  5
14A
330
2
100
AcDbEntity
  8
0
100
AcDbLine
 10
5.683913793981548
 20
11.81357305740081
 30
0.0
 11
5.683913793981549
 21
12.25
 31
0.0
  0
LINE
  5
14B
330
2
100
AcDbEntity
  8
0
100
AcDbLine
 10
5.558913793981548
 20
11.76822357755799
 30
0.0
 11
5.558913793981548
 21
12.25
 31
0.0
  0
LINE
  5
14C
330
2
100
AcDbEntity
  8
0
100
AcDbLine
 10
4.933913793981546
 20
11.62505
 30
0.0
 11
5.558913793981548
 21
11.62505
 31
0.0
  0
LINE
  5
14D
330
2
100
AcDbEntity
  8
0
100
AcDbLine
 10
4.933913793981546
 20
11.87504999999998
 30
0.0
 11
5.558913793981548
 21
11.87504999999998
 31
0.0
  0
ARC
  5
14E
330
2
100
AcDbEntity
  8
0
100
AcDbCircle
 10
4.933913793981541
 20
11.75004999999999
 30
0.0
 40
0.1249999999999929
100
AcDbArc
 50
89.99999999999757
 51
270.0000000000028
  0
ARC
  5
14F
330
2
100
AcDbEntity
  8
0
100
AcDbCircle
 10
5.746413793981544
 20
11.65093834764829
 30
0.0
 40
0.0625
100
AcDbArc
 50
314.9999999999992
 51
0.0
  0
LINE
  5
150
330
2
100
AcDbEntity
  8
0
100
AcDbLine
 10
5.683913793981548
 20
11.25
 30
0.0
 11
5.683913793981548
 21
11.81357305740081
 31
0.0
  0
LINE
  5
151
330
2
100
AcDbEntity
  8
0
100
AcDbLine
 10
5.558913793981548
 20
11.25
 30
0.0
 11
5.558913793981548
 21
11.76822357755799
 31
0.0
  0
ARC
  5
152
330
2
100
AcDbEntity
  8
0
100
AcDbCircle
 10
5.715163793981544
 20
11.48710582617582
 30
0.0
 40
0.03125
100
AcDbArc
 50
135.0
 51
180.0000000000001
  0
LINE
  5
153
330
2
100
AcDbEntity
  8
0
100
AcDbLine
 10
5.790607967805704
 20
11.60674417382413
 30
0.0
 11
5.693066707069464
 21
11.5092029130879
 31
0.0
  0
ARC
  5
154
330
2
100
AcDbEntity
  8
0
100
AcDbCircle
 10
5.746413793981544
 20
11.84916165235165
 30
0.0
 40
0.0625
100
AcDbArc
 50
0.000000000000014
 51
44.99999999999996
  0
ARC
  5
155
330
2
100
AcDbEntity
  8
0
100
AcDbCircle
 10
5.715163793981544
 20
12.01299417382413
 30
0.0
 40
0.03125
100
AcDbArc
 50
180.0000000000001
 51
224.9999999999999
  0
LINE
  5
156
330
2
100
AcDbEntity
  8
0
100
AcDbLine
 10
5.790607967805704
 20
11.89335582617581
 30
0.0
 11
5.693066707069464
 21
11.99089708691206
 31
0.0
  0
LINE
  5
157
330
2
100
AcDbEntity
  8
0
100
AcDbLine
 10
5.808913793981544
 20
11.84916165235165
 30
0.0
 11
5.808913793981544
 21
11.65093834764829
 31
0.0
  0
LINE
  5
158
330
2
100
AcDbEntity
  8
0
100
AcDbLine
 10
5.621538723138846
 20
12.65753887917078
 30
0.0
 11
5.174487734489935
 21
12.83107171829364
 31
0.0
  0
LINE
  5
159
330
2
100
AcDbEntity
  8
0
100
AcDbLine
 10
5.25
 20
12.25
 30
0.0
 11
5.683913793981549
 21
12.25
 31
0.0
  0
CIRCLE
  5
15A
330
2
100
AcDbEntity
  8
0
100
AcDbCircle
 10
5.125
 20
12.25
 30
0.0
 40
0.125
  0
ARC
  5
15B
330
2
100
AcDbEntity
  8
0
100
AcDbCircle
 10
5.190845353244727
 20
12.87499999999999
 30
0.0
 40
0.046875
100
AcDbArc
 50
110.4238721544558
 51
249.5761278455441
  0
LINE
  5
15C
330
2
100
AcDbEntity
  8
0
100
AcDbLine
 10
5.625000000000002
 20
12.25
 30
0.0
 11
5.624999999999998
 21
12.65753887916866
 31
0.0
  0
ARC
  5
15D
330
2
100
AcDbEntity
  8
0
100
AcDbCircle
 10
5.593750000000002
 20
12.64324379727807
 30
0.0
 40
0.03125
100
AcDbArc
 50
0.0
 51
44.04862567413066
  0
LINE
  5
15E
330
2
100
AcDbEntity
  8
0
100
AcDbLine
 10
5.808913793981544
 20
13.90083834764835
 30
0.0
 11
5.808913793981544
 21
14.09906165235171
 31
0.0
  0
ARC
  5
15F
330
2
100
AcDbEntity
  8
0
100
AcDbCircle
 10
4.933913793981541
 20
13.99995000000001
 30
0.0
 40
0.1249999999999929
100
AcDbArc
 50
89.99999999999724
 51
270.0000000000024
  0
LINE
  5
160
330
2
100
AcDbEntity
  8
0
100
AcDbLine
 10
5.558913793981548
 20
14.50000000000001
 30
0.0
 11
5.558913793981546
 21
13.5
 31
0.0
  0
LINE
  5
161
330
2
100
AcDbEntity
  8
0
100
AcDbLine
 10
5.683913793981548
 20
14.50000000000001
 30
0.0
 11
5.683913793981546
 21
13.5
 31
0.0
  0
LINE
  5
162
330
2
100
AcDbEntity
  8
0
100
AcDbLine
 10
4.933913793981546
 20
13.87495000000002
 30
0.0
 11
5.558913793981548
 21
13.87495000000002
 31
0.0
  0
LINE
  5
163
330
2
100
AcDbEntity
  8
0
100
AcDbLine
 10
5.250000000000227
 20
13.49999999999999
 30
0.0
 11
5.683913793981546
 21
13.5
 31
0.0
  0
CIRCLE
  5
164
330
2
100
AcDbEntity
  8
0
100
AcDbCircle
 10
5.125
 20
13.5
 30
0.0
 40
0.125
  0
LINE
  5
165
330
2
100
AcDbEntity
  8
0
100
AcDbLine
 10
5.683913793981548
 20
13.74995000000003
 30
0.0
 11
5.683913793981548
 21
13.49990000000002
 31
0.0
  0
LINE
  5
166
330
2
100
AcDbEntity
  8
0
100
AcDbLine
 10
5.625000000000002
 20
13.5
 30
0.0
 11
5.624999999999998
 21
13.09246112082941
 31
0.0
  0
ARC
  5
167
330
2
100
AcDbEntity
  8
0
100
AcDbCircle
 10
5.593749999999998
 20
13.10675620272204
 30
0.0
 40
0.03125
100
AcDbArc
 50
315.9513743258693
 51
0.0
  0
LINE
  5
168
330
2
100
AcDbEntity
  8
0
100
AcDbLine
 10
5.790607967805704
 20
13.85664417382419
 30
0.0
 11
5.693066707069464
 21
13.75910291308794
 31
0.0
  0
ARC
  5
169
330
2
100
AcDbEntity
  8
0
100
AcDbCircle
 10
5.715163793981544
 20
13.73700582617587
 30
0.0
 40
0.03125
100
AcDbArc
 50
135.0000000000001
 51
180.0
  0
ARC
  5
16A
330
2
100
AcDbEntity
  8
0
100
AcDbCircle
 10
5.746413793981544
 20
13.90083834764835
 30
0.0
 40
0.0625
100
AcDbArc
 50
315.0000000000001
 51
0.0
  0
LINE
  5
16B
330
2
100
AcDbEntity
  8
0
100
AcDbLine
 10
4.933913793981546
 20
14.12495000000001
 30
0.0
 11
5.558913793981548
 21
14.12495000000001
 31
0.0
  0
LINE
  5
16C
330
2
100
AcDbEntity
  8
0
100
AcDbLine
 10
5.683913793981548
 20
14.50000000000002
 30
0.0
 11
5.683913793981548
 21
14.24995000000002
 31
0.0
  0
LINE
  5
16D
330
2
100
AcDbEntity
  8
0
100
AcDbLine
 10
5.790607967805704
 20
14.14325582617587
 30
0.0
 11
5.693066707069464
 21
14.2407970869121
 31
0.0
  0
ARC
  5
16E
330
2
100
AcDbEntity
  8
0
100
AcDbCircle
 10
5.715163793981544
 20
14.26289417382418
 30
0.0
 40
0.03125
100
AcDbArc
 50
180.0
 51
225.0
  0
ARC
  5
16F
330
2
100
AcDbEntity
  8
0
100
AcDbCircle
 10
5.746413793981544
 20
14.09906165235171
 30
0.0
 40
0.0625
100
AcDbArc
 50
0.0000000000000368
 51
45.00000000000085
  0
LINE
  5
170
330
2
100
AcDbEntity
  8
0
100
AcDbLine
 10
5.6875
 20
3.750000000000004
 30
0.0
 11
5.6875
 21
8.25
 31
0.0
  0
LINE
  5
171
330
2
100
AcDbEntity
  8
0
100
AcDbLine
 10
-0.0625000000000053
 20
3.750000000000004
 30
0.0
 11
-0.0625
 21
8.249999999999996
 31
0.0
  0
LINE
  5
172
330
2
100
AcDbEntity
  8
0
100
AcDbLine
 10
5.5625
 20
3.750000000000004
 30
0.0
 11
5.5625
 21
8.25
 31
0.0
  0
LINE
  5
173
330
2
100
AcDbEntity
  8
0
100
AcDbLine
 10
0.0624999999999947
 20
3.750000000000004
 30
0.0
 11
0.0625
 21
8.249999999999996
 31
0.0
  0
ARC
  5
174
330
2
100
AcDbEntity
  8
0
100
AcDbCircle
 10
0.7362604065287197
 20
3.475031734378952
 30
0.0
 40
0.2247303314272199
100
AcDbArc
 50
267.3994323320044
 51
333.5690491108126
  0
LINE
  5
175
330
2
100
AcDbEntity
  8
0
100
AcDbLine
 10
0.3125000596046395
 20
3.375000000000004
 30
0.0
 11
5.3125
 21
3.375000000000004
 31
0.0
  0
LINE
  5
176
330
2
100
AcDbEntity
  8
0
100
AcDbLine
 10
0.3125001332800323
 20
3.500000000000004
 30
0.0
 11
5.3125
 21
3.500000000000004
 31
0.0
  0
LINE
  5
177
330
2
100
AcDbEntity
  8
0
100
AcDbLine
 10
0.1098349570550461
 20
2.088388347648323
 30
0.0
 11
0.5214466094067252
 21
1.676776695296642
 31
0.0
  0
LINE
  5
178
330
2
100
AcDbEntity
  8
0
100
AcDbLine
 10
0.1982233047033617
 20
2.176776695296642
 30
0.0
 11
0.6098349570550408
 21
1.765165042944958
 31
0.0
  0
ARC
  5
179
330
2
100
AcDbEntity
  8
0
100
AcDbCircle
 10
0.375
 20
0.646446609406734
 30
0.0
 40
0.375
100
AcDbArc
 50
135.0000000000001
 51
179.9999999999999
  0
LINE
  5
17A
330
2
100
AcDbEntity
  8
0
100
AcDbLine
 10
0.1982233047033652
 20
0.8232233047033724
 30
0.0
 11
0.6098349570550408
 21
1.23483495705505
 31
0.0
  0
LINE
  5
17B
330
2
100
AcDbEntity
  8
0
100
AcDbLine
 10
0.125
 20
0.0
 30
0.0
 11
0.1250000000000018
 21
0.646446609406734
 31
0.0
  0
LINE
  5
17C
330
2
100
AcDbEntity
  8
0
100
AcDbLine
 10
0.0
 20
0.0
 30
0.0
 11
0.0
 21
0.646446609406734
 31
0.0
  0
LINE
  5
17D
330
2
100
AcDbEntity
  8
0
100
AcDbLine
 10
0.0
 20
0.0
 30
0.0
 11
0.125
 21
0.0
 31
0.0
  0
ARC
  5
17E
330
2
100
AcDbEntity
  8
0
100
AcDbCircle
 10
0.3750000000000018
 20
0.646446609406734
 30
0.0
 40
0.25
100
AcDbArc
 50
135.0000000000001
 51
179.9999999999999
  0
LINE
  5
17F
330
2
100
AcDbEntity
  8
0
100
AcDbLine
 10
0.1098349570550443
 20
0.911611652351688
 30
0.0
 11
0.5214466094067234
 21
1.323223304703372
 31
0.0
  0
ARC
  5
180
330
2
100
AcDbEntity
  8
0
100
AcDbCircle
 10
0.3446699141100851
 20
1.500000000000004
 30
0.0
 40
0.375
100
AcDbArc
 50
315.0000000000001
 51
44.99999999999992
  0
ARC
  5
181
330
2
100
AcDbEntity
  8
0
100
AcDbCircle
 10
0.3446699141100869
 20
1.500000000000007
 30
0.0
 40
0.25
100
AcDbArc
 50
315.0000000000001
 51
44.99999999999962
  0
ARC
  5
182
330
2
100
AcDbEntity
  8
0
100
AcDbCircle
 10
0.1442637493579184
 20
3.648099760330897
 30
0.0
 40
0.3069771437915365
100
AcDbArc
 50
132.3414721198747
 51
196.7223905398125
  0
ARC
  5
183
330
2
100
AcDbEntity
  8
0
100
AcDbCircle
 10
0.3124999999999947
 20
3.750000000000004
 30
0.0
 40
0.375
100
AcDbArc
 50
179.9999999999999
 51
269.9999999999999
  0
ARC
  5
184
330
2
100
AcDbEntity
  8
0
100
AcDbCircle
 10
0.3124999999999947
 20
3.750000000000004
 30
0.0
 40
0.25
100
AcDbArc
 50
179.9999999999999
 51
269.9999999999999
  0
LINE
  5
185
330
2
100
AcDbEntity
  8
0
100
AcDbLine
 10
0.1249999999999982
 20
2.35355339059328
 30
0.0
 11
0.1249999999999982
 21
3.125000000000004
 31
0.0
  0
LINE
  5
186
330
2
100
AcDbEntity
  8
0
100
AcDbLine
 10
0.0000000000000018
 20
2.353553390593277
 30
0.0
 11
0.0
 21
3.125000000000004
 31
0.0
  0
ARC
  5
187
330
2
100
AcDbEntity
  8
0
100
AcDbCircle
 10
0.3749999999999982
 20
2.35355339059328
 30
0.0
 40
0.25
100
AcDbArc
 50
180.0
 51
224.9999999999999
  0
ARC
  5
188
330
2
100
AcDbEntity
  8
0
100
AcDbCircle
 10
0.3750000000000018
 20
2.353553390593277
 30
0.0
 40
0.375
100
AcDbArc
 50
180.0
 51
224.9999999999999
  0
LINE
  5
189
330
2
100
AcDbEntity
  8
0
100
AcDbLine
 10
0.1250000000000018
 20
2.963388347648323
 30
0.0
 11
0.4128289354580996
 21
3.251217283106421
 31
0.0
  0
LINE
  5
18A
330
2
100
AcDbEntity
  8
0
100
AcDbLine
 10
0.3124999999999947
 20
3.250000000000004
 30
0.0
 11
0.7260637429092682
 21
3.250000000000007
 31
0.0
  0
ARC
  5
18B
330
2
100
AcDbEntity
  8
0
100
AcDbCircle
 10
0.3749999999999982
 20
3.125000000000004
 30
0.0
 40
0.25
100
AcDbArc
 50
144.4707794925266
 51
179.9999999999999
  0
ARC
  5
18C
330
2
100
AcDbEntity
  8
0
100
AcDbCircle
 10
0.375
 20
3.125000000000004
 30
0.0
 40
0.375
100
AcDbArc
 50
148.4591317486128
 51
179.9999999999999
  0
ARC
  5
18D
330
2
100
AcDbEntity
  8
0
100
AcDbCircle
 10
0.3124999999999947
 20
3.750000000000004
 30
0.0
 40
0.5
100
AcDbArc
 50
202.1718978476876
 51
269.9999999999999
  0
LINE
  5
18E
330
2
100
AcDbEntity
  8
0
100
AcDbLine
 10
5.426776695296638
 20
2.176776695296642
 30
0.0
 11
5.015165042944959
 21
1.765165042944958
 31
0.0
  0
LINE
  5
18F
330
2
100
AcDbEntity
  8
0
100
AcDbLine
 10
5.515165042944954
 20
2.088388347648323
 30
0.0
 11
5.103553390593275
 21
1.676776695296642
 31
0.0
  0
LINE
  5
190
330
2
100
AcDbEntity
  8
0
100
AcDbLine
 10
5.426776695296635
 20
0.8232233047033724
 30
0.0
 11
5.015165042944959
 21
1.23483495705505
 31
0.0
  0
ARC
  5
191
330
2
100
AcDbEntity
  8
0
100
AcDbCircle
 10
5.25
 20
0.646446609406734
 30
0.0
 40
0.375
100
AcDbArc
 50
0.0000000000000509
 51
44.99999999999992
  0
LINE
  5
192
330
2
100
AcDbEntity
  8
0
100
AcDbLine
 10
5.625
 20
0.0
 30
0.0
 11
5.625
 21
0.646446609406734
 31
0.0
  0
LINE
  5
193
330
2
100
AcDbEntity
  8
0
100
AcDbLine
 10
5.5
 20
0.0
 30
0.0
 11
5.499999999999998
 21
0.646446609406734
 31
0.0
  0
LINE
  5
194
330
2
100
AcDbEntity
  8
0
100
AcDbLine
 10
5.625
 20
0.0
 30
0.0
 11
5.5
 21
0.0
 31
0.0
  0
ARC
  5
195
330
2
100
AcDbEntity
  8
0
100
AcDbCircle
 10
5.249999999999998
 20
0.646446609406734
 30
0.0
 40
0.25
100
AcDbArc
 50
0.0000000000000509
 51
44.9999999999999
  0
LINE
  5
196
330
2
100
AcDbEntity
  8
0
100
AcDbLine
 10
5.515165042944956
 20
0.911611652351688
 30
0.0
 11
5.103553390593277
 21
1.323223304703372
 31
0.0
  0
ARC
  5
197
330
2
100
AcDbEntity
  8
0
100
AcDbCircle
 10
5.280330085889915
 20
1.500000000000004
 30
0.0
 40
0.375
100
AcDbArc
 50
135.0000000000001
 51
224.9999999999999
  0
ARC
  5
198
330
2
100
AcDbEntity
  8
0
100
AcDbCircle
 10
5.28125
 20
1.500000000000007
 30
0.0
 40
0.25
100
AcDbArc
 50
135.0000000000004
 51
224.9999999999999
  0
ARC
  5
199
330
2
100
AcDbEntity
  8
0
100
AcDbCircle
 10
5.49336214785003
 20
3.648099760330897
 30
0.0
 40
0.3069771437915365
100
AcDbArc
 50
343.2776094601875
 51
47.6585278801253
  0
ARC
  5
19A
330
2
100
AcDbEntity
  8
0
100
AcDbCircle
 10
5.3125
 20
3.750000000000004
 30
0.0
 40
0.375
100
AcDbArc
 50
270.0
 51
0.0
  0
ARC
  5
19B
330
2
100
AcDbEntity
  8
0
100
AcDbCircle
 10
5.3125
 20
3.750000000000004
 30
0.0
 40
0.25
100
AcDbArc
 50
270.0
 51
0.0
  0
LINE
  5
19C
330
2
100
AcDbEntity
  8
0
100
AcDbLine
 10
5.624999999999998
 20
2.353553390593277
 30
0.0
 11
5.625
 21
3.125000000000004
 31
0.0
  0
LINE
  5
19D
330
2
100
AcDbEntity
  8
0
100
AcDbLine
 10
5.500000000000002
 20
2.35355339059328
 30
0.0
 11
5.500000000000002
 21
3.125000000000004
 31
0.0
  0
ARC
  5
19E
330
2
100
AcDbEntity
  8
0
100
AcDbCircle
 10
5.249999999999998
 20
2.353553390593277
 30
0.0
 40
0.375
100
AcDbArc
 50
315.0000000000002
 51
0.0
  0
ARC
  5
19F
330
2
100
AcDbEntity
  8
0
100
AcDbCircle
 10
5.250000000000002
 20
2.35355339059328
 30
0.0
 40
0.25
100
AcDbArc
 50
315.0000000000002
 51
0.0
  0
LINE
  5
1A0
330
2
100
AcDbEntity
  8
0
100
AcDbLine
 10
5.499999999999998
 20
2.963388347648323
 30
0.0
 11
5.2121710645419
 21
3.251217283106421
 31
0.0
  0
LINE
  5
1A1
330
2
100
AcDbEntity
  8
0
100
AcDbLine
 10
5.325125897207956
 20
3.250000000000004
 30
0.0
 11
4.911562154298682
 21
3.250000000000007
 31
0.0
  0
ARC
  5
1A2
330
2
100
AcDbEntity
  8
0
100
AcDbCircle
 10
4.901365490679231
 20
3.475031734378952
 30
0.0
 40
0.2247303314272199
100
AcDbArc
 50
206.4309508891875
 51
272.6005676679956
  0
ARC
  5
1A3
330
2
100
AcDbEntity
  8
0
100
AcDbCircle
 10
5.25
 20
3.125000000000004
 30
0.0
 40
0.375
100
AcDbArc
 50
0.0000000000000509
 51
30.56679154915583
  0
ARC
  5
1A4
330
2
100
AcDbEntity
  8
0
100
AcDbCircle
 10
5.250000000000002
 20
3.125000000000004
 30
0.0
 40
0.25
100
AcDbArc
 50
0.0000000000000509
 51
34.69681219854274
  0
ARC
  5
1A5
330
2
100
AcDbEntity
  8
0
100
AcDbCircle
 10
5.325125897207956
 20
3.750000000000004
 30
0.0
 40
0.5
100
AcDbArc
 50
270.0000000000001
 51
337.8281021523124
  0
LINE
  5
1A6
330
2
100
AcDbEntity
  8
0
100
AcDbLine
 10
-0.0625
 20
8.249999999999996
 30
0.0
 11
0.0625
 21
8.249999999999996
 31
0.0
  0
LINE
  5
1A7
330
2
100
AcDbEntity
  8
0
100
AcDbLine
 10
5.5625
 20
8.25
 30
0.0
 11
5.6875
 21
8.25
 31
0.0
  0
LINE
  5
1DD
330
2
100
AcDbEntity
  8
0
100
AcDbLine
 10
11.25277594469742
 20
8.249999999999998
 30
0.0
 11
14.50277594469743
 21
8.25
 31
0.0
  0
LINE
  5
35A
330
2
100
AcDbEntity
  8
0
100
AcDbLine
 10
12.25287594469741
 20
0.625
 30
0.0
 11
12.25287594469742
 21
6.499949999999991
 31
0.0
  0
LINE
  5
35B
330
2
100
AcDbEntity
  8
0
100
AcDbLine
 10
13.50287594469743
 20
0.6250000000000089
 30
0.0
 11
13.50287594469743
 21
6.508296181851138
 31
0.0
  0
LINE
  5
35C
330
2
100
AcDbEntity
  8
0
100
AcDbLine
 10
11.25277594469742
 20
3.375000000000009
 30
0.0
 11
11.25277594469742
 21
8.249999999999998
 31
0.0
  0
LINE
  5
35D
330
2
100
AcDbEntity
  8
0
100
AcDbLine
 10
14.50277594469742
 20
3.375000000000009
 30
0.0
 11
14.50277594469743
 21
8.25
 31
0.0
  0
LINE
  5
35E
330
2
100
AcDbEntity
  8
0
100
AcDbLine
 10
12.69027594469742
 20
0.7499999999999982
 30
0.0
 11
13.15902594469742
 21
0.7499999999999982
 31
0.0
  0
LINE
  5
35F
330
2
100
AcDbEntity
  8
0
100
AcDbLine
 10
12.69027594469742
 20
0.9999999999999982
 30
0.0
 11
13.15902594469742
 21
0.9999999999999982
 31
0.0
  0
LINE
  5
360
330
2
100
AcDbEntity
  8
0
100
AcDbLine
 10
12.50277594469742
 20
0.8749999999999982
 30
0.0
 11
13.37777594469742
 21
0.8749999999999982
 31
0.0
  0
ARC
  5
361
330
2
100
AcDbEntity
  8
0
100
AcDbCircle
 10
12.50287594469741
 20
0.625
 30
0.0
 40
0.25
100
AcDbArc
 50
179.9999999999999
 51
224.9999999999998
  0
ARC
  5
362
330
2
100
AcDbEntity
  8
0
100
AcDbCircle
 10
13.25287594469743
 20
0.6250000000000089
 30
0.0
 40
0.25
100
AcDbArc
 50
315.0000000000002
 51
0.0000000000000763
  0
LINE
  5
363
330
2
100
AcDbEntity
  8
0
100
AcDbLine
 10
12.69027594469742
 20
1.624999999999998
 30
0.0
 11
13.15902594469742
 21
1.624999999999998
 31
0.0
  0
LINE
  5
364
330
2
100
AcDbEntity
  8
0
100
AcDbLine
 10
12.47152594469742
 20
1.499999999999998
 30
0.0
 11
13.34652594469742
 21
1.499999999999998
 31
0.0
  0
LINE
  5
365
330
2
100
AcDbEntity
  8
0
100
AcDbLine
 10
12.47152594469742
 20
1.749999999999998
 30
0.0
 11
13.34652594469742
 21
1.749999999999998
 31
0.0
  0
LINE
  5
366
330
2
100
AcDbEntity
  8
0
100
AcDbLine
 10
13.75272594469744
 20
3.375000000000011
 30
0.0
 11
13.50267594469743
 21
3.375000000000011
 31
0.0
  0
LINE
  5
367
330
2
100
AcDbEntity
  8
0
100
AcDbLine
 10
12.00282594469741
 20
3.375000000000011
 30
0.0
 11
12.25287594469742
 21
3.375000000000011
 31
0.0
  0
ARC
  5
368
330
2
100
AcDbEntity
  8
0
100
AcDbCircle
 10
11.48988177087326
 20
3.343750000000012
 30
0.0
 40
0.03125
100
AcDbArc
 50
45.00000000000005
 51
90.0
  0
ARC
  5
369
330
2
100
AcDbEntity
  8
0
100
AcDbCircle
 10
12.01577011852157
 20
3.343750000000012
 30
0.0
 40
0.03125
100
AcDbArc
 50
90.0
 51
134.9999999999999
  0
ARC
  5
36A
330
2
100
AcDbEntity
  8
0
100
AcDbCircle
 10
11.75282594469742
 20
3.500000000000062
 30
0.0
 40
0.2499999999999929
100
AcDbArc
 50
359.9999999999973
 51
180.0000000000028
  0
ARC
  5
36B
330
2
100
AcDbEntity
  8
0
100
AcDbCircle
 10
11.65371429234573
 20
3.312500000000012
 30
0.0
 40
0.0625
100
AcDbArc
 50
224.999999999999
 51
270.0
  0
LINE
  5
36C
330
2
100
AcDbEntity
  8
0
100
AcDbLine
 10
11.60952011852157
 20
3.268305826175853
 30
0.0
 11
11.51197885778534
 21
3.365847086912092
 31
0.0
  0
LINE
  5
36D
330
2
100
AcDbEntity
  8
0
100
AcDbLine
 10
11.85193759704909
 20
3.250000000000012
 30
0.0
 11
11.65371429234573
 21
3.250000000000012
 31
0.0
  0
LINE
  5
36E
330
2
100
AcDbEntity
  8
0
100
AcDbLine
 10
11.89613177087325
 20
3.268305826175853
 30
0.0
 11
11.99367303160949
 21
3.365847086912092
 31
0.0
  0
ARC
  5
36F
330
2
100
AcDbEntity
  8
0
100
AcDbCircle
 10
11.85193759704909
 20
3.312500000000012
 30
0.0
 40
0.0625
100
AcDbArc
 50
270.0
 51
314.9999999999999
  0
LINE
  5
370
330
2
100
AcDbEntity
  8
0
100
AcDbLine
 10
11.50282594469741
 20
3.500000000000052
 30
0.0
 11
11.50282594469742
 21
3.37500000000002
 31
0.0
  0
LINE
  5
371
330
2
100
AcDbEntity
  8
0
100
AcDbLine
 10
11.25277594469742
 20
3.375000000000009
 30
0.0
 11
11.50282594469742
 21
3.375000000000009
 31
0.0
  0
LINE
  5
372
330
2
100
AcDbEntity
  8
0
100
AcDbLine
 10
12.00282594469742
 20
3.500000000000052
 30
0.0
 11
12.00282594469741
 21
3.37500000000002
 31
0.0
  0
LINE
  5
373
330
2
100
AcDbEntity
  8
0
100
AcDbLine
 10
12.65902594469742
 20
2.187499999999998
 30
0.0
 11
13.15902594469742
 21
2.187499999999998
 31
0.0
  0
LINE
  5
374
330
2
100
AcDbEntity
  8
0
100
AcDbLine
 10
12.65902594469742
 20
2.437499999999998
 30
0.0
 11
13.15902594469742
 21
2.437499999999998
 31
0.0
  0
LINE
  5
375
330
2
100
AcDbEntity
  8
0
100
AcDbLine
 10
12.47152594469742
 20
2.312499999999998
 30
0.0
 11
13.34652594469742
 21
2.312499999999998
 31
0.0
  0
LINE
  5
376
330
2
100
AcDbEntity
  8
0
100
AcDbLine
 10
13.09533706552876
 20
3.500000000000007
 30
0.0
 11
12.66041482386801
 21
3.500000000000007
 31
0.0
  0
ARC
  5
377
330
2
100
AcDbEntity
  8
0
100
AcDbCircle
 10
12.87787594469736
 20
3.708333333333229
 30
0.0
 40
0.3020833333332104
100
AcDbArc
 50
225.9513743258727
 51
314.0486256741282
  0
ARC
  5
378
330
2
100
AcDbEntity
  8
0
100
AcDbCircle
 10
12.87787594469743
 20
3.065845353244736
 30
0.0
 40
0.046875
100
AcDbArc
 50
200.4238721544558
 51
339.5761278455441
  0
LINE
  5
379
330
2
100
AcDbEntity
  8
0
100
AcDbLine
 10
12.66041482386819
 20
3.49653872313889
 30
0.0
 11
12.83394766299107
 21
3.049487734489944
 31
0.0
  0
LINE
  5
37A
330
2
100
AcDbEntity
  8
0
100
AcDbLine
 10
12.25287594469742
 20
3.500000000000011
 30
0.0
 11
12.66041482386801
 21
3.500000000000007
 31
0.0
  0
ARC
  5
37B
330
2
100
AcDbEntity
  8
0
100
AcDbCircle
 10
12.64611974197538
 20
3.468750000000007
 30
0.0
 40
0.03125
100
AcDbArc
 50
45.9513743258693
 51
90.0
  0
LINE
  5
37C
330
2
100
AcDbEntity
  8
0
100
AcDbLine
 10
13.09533706552664
 20
3.496538723138855
 30
0.0
 11
12.92180422640378
 21
3.049487734489944
 31
0.0
  0
LINE
  5
37D
330
2
100
AcDbEntity
  8
0
100
AcDbLine
 10
13.50287594469742
 20
3.500000000000009
 30
0.0
 11
13.09533706552876
 21
3.500000000000007
 31
0.0
  0
ARC
  5
37E
330
2
100
AcDbEntity
  8
0
100
AcDbCircle
 10
13.10963214741935
 20
3.468750000000011
 30
0.0
 40
0.03125
100
AcDbArc
 50
90.0
 51
134.0486256741307
  0
CIRCLE
  5
37F
330
2
100
AcDbEntity
  8
0
100
AcDbCircle
 10
11.75277594469742
 20
4.4375
 30
0.0
 40
0.0859375
  0
ARC
  5
380
330
2
100
AcDbEntity
  8
0
100
AcDbCircle
 10
14.00272594469742
 20
3.500000000000062
 30
0.0
 40
0.2499999999999929
100
AcDbArc
 50
359.9999999999973
 51
180.0000000000027
  0
ARC
  5
381
330
2
100
AcDbEntity
  8
0
100
AcDbCircle
 10
13.73978177087328
 20
3.343750000000012
 30
0.0
 40
0.03125
100
AcDbArc
 50
45.00000000000007
 51
90.0
  0
ARC
  5
382
330
2
100
AcDbEntity
  8
0
100
AcDbCircle
 10
14.26567011852159
 20
3.343750000000012
 30
0.0
 40
0.03125
100
AcDbArc
 50
90.0
 51
134.9999999999999
  0
ARC
  5
383
330
2
100
AcDbEntity
  8
0
100
AcDbCircle
 10
14.10183759704912
 20
3.312500000000012
 30
0.0
 40
0.0625
100
AcDbArc
 50
270.0
 51
315.0000000000008
  0
ARC
  5
384
330
2
100
AcDbEntity
  8
0
100
AcDbCircle
 10
13.90361429234575
 20
3.312500000000012
 30
0.0
 40
0.0625
100
AcDbArc
 50
225.0000000000001
 51
270.0
  0
LINE
  5
385
330
2
100
AcDbEntity
  8
0
100
AcDbLine
 10
13.85942011852159
 20
3.268305826175853
 30
0.0
 11
13.76187885778535
 21
3.365847086912092
 31
0.0
  0
LINE
  5
386
330
2
100
AcDbEntity
  8
0
100
AcDbLine
 10
13.90361429234575
 20
3.250000000000012
 30
0.0
 11
14.10183759704912
 21
3.250000000000012
 31
0.0
  0
LINE
  5
387
330
2
100
AcDbEntity
  8
0
100
AcDbLine
 10
14.14603177087328
 20
3.268305826175853
 30
0.0
 11
14.2435730316095
 21
3.365847086912092
 31
0.0
  0
LINE
  5
388
330
2
100
AcDbEntity
  8
0
100
AcDbLine
 10
13.75272594469743
 20
3.500000000000052
 30
0.0
 11
13.75272594469744
 21
3.37500000000002
 31
0.0
  0
LINE
  5
389
330
2
100
AcDbEntity
  8
0
100
AcDbLine
 10
14.50277594469743
 20
3.375000000000009
 30
0.0
 11
14.25272594469743
 21
3.375000000000009
 31
0.0
  0
LINE
  5
38A
330
2
100
AcDbEntity
  8
0
100
AcDbLine
 10
14.25272594469744
 20
3.500000000000052
 30
0.0
 11
14.25272594469743
 21
3.37500000000002
 31
0.0
  0
CIRCLE
  5
38B
330
2
100
AcDbEntity
  8
0
100
AcDbCircle
 10
13.87777594469742
 20
4.4375
 30
0.0
 40
0.0859375
  0
CIRCLE
  5
38D
330
2
100
AcDbEntity
  8
0
100
AcDbCircle
 10
13.75277594469742
 20
7.374949999999988
 30
0.0
 40
0.28125
  0
CIRCLE
  5
38E
330
2
100
AcDbEntity
  8
0
100
AcDbCircle
 10
12.00277594469742
 20
7.374949999999988
 30
0.0
 40
0.28125
  0
CIRCLE
  5
38F
330
2
100
AcDbEntity
  8
0
100
AcDbCircle
 10
11.87777594469742
 20
6.1875
 30
0.0
 40
0.0859375
  0
ARC
  5
390
330
2
100
AcDbEntity
  8
0
100
AcDbCircle
 10
13.25287594469742
 20
6.499949999999982
 30
0.0
 40
0.25
100
AcDbArc
 50
0.0000000000000509
 51
44.99999999999975
  0
ARC
  5
391
330
2
100
AcDbEntity
  8
0
100
AcDbCircle
 10
12.50287594469742
 20
6.499949999999991
 30
0.0
 40
0.25
100
AcDbArc
 50
134.9999999999999
 51
179.9999999999999
  0
ARC
  5
392
330
2
100
AcDbEntity
  8
0
100
AcDbCircle
 10
12.87787594469742
 20
6.874949999999988
 30
0.0
 40
0.25
100
AcDbArc
 50
44.99999999999987
 51
134.9999999999999
  0
LINE
  5
393
330
2
100
AcDbEntity
  8
0
100
AcDbLine
 10
12.32609924940078
 20
6.676726695296628
 30
0.0
 11
12.70109924940079
 21
7.051726695296626
 31
0.0
  0
LINE
  5
394
330
2
100
AcDbEntity
  8
0
100
AcDbLine
 10
13.42965297716885
 20
6.676726358121833
 30
0.0
 11
13.05465263999406
 21
7.051726695296626
 31
0.0
  0
CIRCLE
  5
395
330
2
100
AcDbEntity
  8
0
100
AcDbCircle
 10
12.00277594469742
 20
7.9375
 30
0.0
 40
0.0859375
  0
CIRCLE
  5
396
330
2
100
AcDbEntity
  8
0
100
AcDbCircle
 10
13.62777594469742
 20
7.9375
 30
0.0
 40
0.0859375
  0
CIRCLE
  5
397
330
2
100
AcDbEntity
  8
0
100
AcDbCircle
 10
14.00277594469742
 20
6.1875
 30
0.0
 40
0.0859375
  0
LINE
  5
398
330
2
100
AcDbEntity
  8
0
100
AcDbLine
 10
13.42965263999407
 20
0.4482233047033724
 30
0.0
 11
13.05465263999406
 21
0.0732233047033599
 31
0.0
  0
LINE
  5
399
330
2
100
AcDbEntity
  8
0
100
AcDbLine
 10
12.32609924940077
 20
0.4482233047033635
 30
0.0
 11
12.70109924940078
 21
0.0732233047033599
 31
0.0
  0
ARC
  5
39A
330
2
100
AcDbEntity
  8
0
100
AcDbCircle
 10
12.87787594469742
 20
0.2499999999999982
 30
0.0
 40
0.25
100
AcDbArc
 50
225.0000000000001
 51
315.0000000000001
  0
LINE
  5
39B
330
2
100
AcDbEntity
  8
0
  6
HIDDEN
100
AcDbLine
 10
11.31667441824641
 20
3.500000000000002
 30
0.0
 11
12.1701459772307
 21
3.500000000000002
 31
0.0
  0
LINE
  5
39C
330
2
100
AcDbEntity
  8
0
  6
HIDDEN
100
AcDbLine
 10
13.58199678602446
 20
3.500000000000003
 30
0.0
 11
14.42822770844626
 21
3.500000000000002
 31
0.0
  0
ENDSEC
  0
SECTION
  2
OBJECTS
  0
DICTIONARY
  5
7
330
0
100
AcDbDictionary
281
     1
  3
ACAD_COLOR
350
111
  3
ACAD_GROUP
350
1F
  3
ACAD_LAYOUT
350
B
  3
ACAD_MATERIAL
350
110
  3
ACAD_MLINESTYLE
350
20
  3
ACAD_PLOTSETTINGS
350
21
  3
ACAD_PLOTSTYLENAME
350
6
  3
ACAD_TABLESTYLE
350
112
  3
ACDBHEADERROUNDTRIPXREC
350
3B2
  3
AcDbVariableDictionary
350
10C
  0
DICTIONARY
  5
119
330
2
100
AcDbDictionary
280
     1
281
     1
  3
ACAD_SORTENTS
360
11A
  0
DICTIONARY
  5
111
102
{ACAD_REACTORS
330
7
102
}
330
7
100
AcDbDictionary
281
     1
  0
DICTIONARY
  5
1F
102
{ACAD_REACTORS
330
7
102
}
330
7
100
AcDbDictionary
281
     1
  0
DICTIONARY
  5
B
102
{ACAD_REACTORS
330
7
102
}
330
7
100
AcDbDictionary
281
     1
  3
Layout1
350
F
  3
Model
350
A
  0
DICTIONARY
  5
110
102
{ACAD_REACTORS
330
7
102
}
330
7
100
AcDbDictionary
281
     1
  0
DICTIONARY
  5
20
102
{ACAD_REACTORS
330
7
102
}
330
7
100
AcDbDictionary
281
     1
  3
Standard
350
23
  0
DICTIONARY
  5
21
102
{ACAD_REACTORS
330
7
102
}
330
7
100
AcDbDictionary
281
     1
  0
ACDBDICTIONARYWDFLT
  5
6
102
{ACAD_REACTORS
330
7
102
}
330
7
100
AcDbDictionary
281
     1
  3
Normal
350
5
100
AcDbDictionaryWithDefault
340
5
  0
DICTIONARY
  5
112
102
{ACAD_REACTORS
330
7
102
}
330
7
100
AcDbDictionary
281
     1
  3
Standard
350
113
  0
DICTIONARY
  5
3B2
102
{ACAD_REACTORS
330
7
102
}
330
7
100
AcDbDictionary
281
     1
  3
COLORDICT
350
3B3
  3
MATERIALDICT
350
3B4
  0
DICTIONARY
  5
10C
102
{ACAD_REACTORS
330
7
102
}
330
7
100
AcDbDictionary
281
     1
  3
CTABLESTYLE
350
1EF
  3
DIMASSOC
350
10E
  3
HIDETEXT
350
10D
  0
SORTENTSTABLE
  5
11A
102
{ACAD_REACTORS
330
119
102
}
330
119
100
AcDbSortentsTable
330
2
331
152
  5
1CB
331
16F
  5
1E8
331
15C
  5
1D5
331
137
  5
1B0
331
12D
  5
1A6
331
17D
  5
16C
331
17A
  5
169
331
193
  5
182
331
123
  5
19C
331
164
  5
1DD
331
18D
  5
17C
331
132
  5
1AB
331
197
  5
186
331
199
  5
188
331
146
  5
1BF
331
14F
  5
1C8
331
16D
  5
1E6
331
161
  5
1DA
331
12B
  5
1A4
331
149
  5
1C2
331
151
  5
1CA
331
196
  5
185
331
1DD
  5
153
331
12C
  5
1A5
331
12A
  5
1A3
331
139
  5
1B2
331
13C
  5
1B5
331
16A
  5
1E3
331
182
  5
171
331
165
  5
1DE
331
175
  5
164
331
1A6
  5
195
331
15A
  5
1D3
331
1A0
  5
18F
331
174
  5
163
331
183
  5
172
331
141
  5
1BA
331
15E
  5
1D7
331
11E
  5
197
331
162
  5
1DB
331
192
  5
181
331
176
  5
165
331
148
  5
1C1
331
179
  5
168
331
150
  5
1C9
331
138
  5
1B1
331
170
  5
15F
331
16B
  5
1E4
331
1A3
  5
192
331
19B
  5
18A
331
128
  5
1A1
331
124
  5
19D
331
13B
  5
1B4
331
157
  5
1D0
331
19A
  5
189
331
14B
  5
1C4
331
140
  5
1B9
331
1A2
  5
191
331
188
  5
177
331
181
  5
170
331
131
  5
1AA
331
173
  5
162
331
125
  5
19E
331
142
  5
1BB
331
147
  5
1C0
331
144
  5
1BD
331
17F
  5
16E
331
163
  5
1DC
331
160
  5
1D9
331
15D
  5
1D6
331
184
  5
173
331
15B
  5
1D4
331
166
  5
1DF
331
1A5
  5
194
331
167
  5
1E0
331
18B
  5
17A
331
18A
  5
179
331
1A4
  5
193
331
19D
  5
18C
331
12F
  5
1A8
331
121
  5
19A
331
129
  5
1A2
331
133
  5
1AC
331
177
  5
166
331
189
  5
178
331
136
  5
1AF
331
12E
  5
1A7
331
186
  5
175
331
143
  5
1BC
331
190
  5
17F
331
13A
  5
1B3
331
15F
  5
1D8
331
187
  5
176
331
16C
  5
1E5
331
130
  5
1A9
331
17E
  5
16D
331
169
  5
1E2
331
19E
  5
18D
331
185
  5
174
331
168
  5
1E1
331
159
  5
1D2
331
135
  5
1AE
331
13F
  5
1B8
331
13D
  5
1B6
331
18E
  5
17D
331
17B
  5
16A
331
178
  5
167
331
194
  5
183
331
172
  5
161
331
14A
  5
1C3
331
14E
  5
1C7
331
127
  5
1A0
331
13E
  5
1B7
331
126
  5
19F
331
19F
  5
18E
331
11F
  5
198
331
17C
  5
16B
331
153
  5
1CC
331
134
  5
1AD
331
122
  5
19B
331
156
  5
1CF
331
145
  5
1BE
331
14D
  5
1C6
331
171
  5
160
331
191
  5
180
331
158
  5
1D1
331
18F
  5
17E
331
18C
  5
17B
331
154
  5
1CD
331
14C
  5
1C5
331
120
  5
199
331
155
  5
1CE
331
180
  5
16F
331
198
  5
187
331
195
  5
184
331
16E
  5
1E7
331
19C
  5
18B
331
1A7
  5
196
331
1A1
  5
190
  0
LAYOUT
  5
F
102
{ACAD_REACTORS
330
B
102
}
102
{ACAD_XDICTIONARY
360
3B5
102
}
330
B
100
AcDbPlotSettings
  1

  2
X:\Program Files\AutoCAD2002\plotters\DWF ePlot (optimized for plotting).pc3
  4

  6

 40
0.0
 41
0.0
 42
0.0
 43
0.0
 44
0.0
 45
0.0
 46
0.0
 47
0.0
 48
0.0
 49
0.0
140
0.0
141
0.0
142
1.0
143
1.0
 70
   688
 72
     0
 73
     0
 74
     5
  7

 75
    16
147
1.0
148
0.0
149
0.0
100
AcDbLayout
  1
Layout1
 70
     0
 71
     1
 10
0.0
 20
0.0
 11
12.0
 21
9.0
 12
0.0
 22
0.0
 32
0.0
 14
1.000000000000000E+20
 24
1.000000000000000E+20
 34
1.000000000000000E+20
 15
-1.000000000000000E+20
 25
-1.000000000000000E+20
 35
-1.000000000000000E+20
146
0.0
 13
0.0
 23
0.0
 33
0.0
 16
1.0
 26
0.0
 36
0.0
 17
0.0
 27
1.0
 37
0.0
 76
     0
330
C
  0
LAYOUT
  5
A
102
{ACAD_REACTORS
330
B
102
}
102
{ACAD_XDICTIONARY
360
3B7
102
}
330
B
100
AcDbPlotSettings
  1

  2
X:\Program Files\AutoCAD2002\plotters\DWF ePlot (optimized for plotting).pc3
  4

  6

 40
0.0
 41
0.0
 42
0.0
 43
0.0
 44
0.0
 45
0.0
 46
0.0
 47
0.0
 48
0.0
 49
0.0
140
0.0
141
0.0
142
1.0
143
1.0
 70
  1712
 72
     0
 73
     0
 74
     0
  7

 75
     0
147
1.0
148
0.0
149
0.0
100
AcDbLayout
  1
Model
 70
     1
 71
     0
 10
0.0
 20
0.0
 11
12.0
 21
9.0
 12
0.0
 22
0.0
 32
0.0
 14
0.0
 24
0.0
 34
0.0
 15
0.0
 25
0.0
 35
0.0
146
0.0
 13
0.0
 23
0.0
 33
0.0
 16
1.0
 26
0.0
 36
0.0
 17
0.0
 27
1.0
 37
0.0
 76
     0
330
2
  0
MLINESTYLE
  5
23
102
{ACAD_REACTORS
330
20
102
}
330
20
100
AcDbMlineStyle
  2
STANDARD
 70
     0
  3

 62
   256
 51
90.0
 52
90.0
 71
     2
 49
0.5
 62
   256
  6
BYLAYER
 49
-0.5
 62
   256
  6
BYLAYER
  0
ACDBPLACEHOLDER
  5
5
102
{ACAD_REACTORS
330
6
102
}
330
6
  0
ACAD_PROXY_OBJECT
  5
113
102
{ACAD_REACTORS
330
112
102
}
330
112
100
AcDbProxyObject
 90
      499
 91
      504
 95
   983063
 70
     0
 93
     1841
310
4214DD185B99185C9928B81E85EB51B8AE3F2E07A17AD46E2B8FC02B5E8DC0F42B1CFD028000000C1008070000C3001FDFF8000000C1003FBFF000000182007F7FE00000030400FEFFC00000060801FDFF8000000C1003FBFF00000018200000000000000681FA0B0000001820100E000186003FBFF000000182007F7FE000
310
00030400FEFFC00000060801FDFF8000000C1003FBFF000000182007F7FE000000304000AD7A3703D0AC73F4160000003040201C00030C007F7FE00000030400FEFFC00000060801FDFF8000000C1003FBFF000000182007F7FE00000030400FEFFC000000608000
340
12
340
12
340
12
 94
        0
  0
XRECORD
  5
3B3
102
{ACAD_REACTORS
330
3B2
102
}
330
3B2
100
AcDbXrecord
340
111
  0
XRECORD
  5
3B4
102
{ACAD_REACTORS
330
3B2
102
}
330
3B2
100
AcDbXrecord
340
110
  0
DICTIONARYVAR
  5
1EF
102
{ACAD_REACTORS
330
10C
102
}
330
10C
100
DictionaryVariables
280
     0
  1
STANDARD
  0
DICTIONARYVAR
  5
10E
102
{ACAD_REACTORS
330
10C
102
}
330
10C
100
DictionaryVariables
280
     0
  1
2
  0
DICTIONARYVAR
  5
10D
102
{ACAD_REACTORS
330
10C
102
}
330
10C
100
DictionaryVariables
280
     0
  1
1
  0
DICTIONARY
  5
3B5
330
F
100
AcDbDictionary
280
     1
281
     1
  3
ACAD_XREC_ROUNDTRIP
360
3B6
  0
DICTIONARY
  5
3B7
330
A
100
AcDbDictionary
280
     1
281
     1
  3
ACAD_XREC_ROUNDTRIP
360
3B8
  0
XRECORD
  5
3B6
102
{ACAD_REACTORS
330
3B5
102
}
330
3B5
100
AcDbXrecord
102
SHADEPLOT
 70
     0
102
SHADEPLOTRESLEVEL
 70
     2
102
SHADEPLOTCUSTOMDPI
 70
   300
  0
XRECORD
  5
3B8
102
{ACAD_REACTORS
330
3B7
102
}
330
3B7
100
AcDbXrecord
102
SHADEPLOT
 70
     0
102
SHADEPLOTRESLEVEL
 70
     2
102
SHADEPLOTCUSTOMDPI
 70
   300
  0
ENDSEC
  0
EOF
