  0
SECTION
  2
HEADER
  9
$ACADVER
  1
AC1015
  9
$ACADMAINTVER
 70
     6
  9
$DWGCODEPAGE
  3
ANSI_1252
  9
$INSBASE
 10
0.0
 20
0.0
 30
0.0
  9
$EXTMIN
 10
-0.2338610360379829
 20
-0.0000000000000001
 30
0.0
  9
$EXTMAX
 10
14.76449201639433
 20
14.875
 30
0.0
  9
$LIMMIN
 10
0.0
 20
0.0
  9
$LIMMAX
 10
31.5
 20
24.0
  9
$ORTHOMODE
 70
     1
  9
$REGENMODE
 70
     1
  9
$FILLMODE
 70
     1
  9
$QTEXTMODE
 70
     0
  9
$MIRRTEXT
 70
     1
  9
$LTSCALE
 40
1.5
  9
$ATTMODE
 70
     1
  9
$TEXTSIZE
 40
0.270000000000005
  9
$TRACEWID
 40
0.05
  9
$TEXTSTYLE
  7
STANDARD
  9
$CLAYER
  8
0
  9
$CELTYPE
  6
ByLayer
  9
$CECOLOR
 62
   256
  9
$CELTSCALE
 40
1.0
  9
$DISPSILH
 70
     0
  9
$DIMSCALE
 40
3.00000000000005
  9
$DIMASZ
 40
0.125
  9
$DIMEXO
 40
0.062
  9
$DIMDLI
 40
0.375
  9
$DIMRND
 40
0.0
  9
$DIMDLE
 40
0.0
  9
$DIMEXE
 40
0.08
  9
$DIMTP
 40
0.0
  9
$DIMTM
 40
0.0
  9
$DIMTXT
 40
0.09
  9
$DIMCEN
 40
-0.03125
  9
$DIMTSZ
 40
0.0
  9
$DIMTOL
 70
     0
  9
$DIMLIM
 70
     0
  9
$DIMTIH
 70
     1
  9
$DIMTOH
 70
     1
  9
$DIMSE1
 70
     0
  9
$DIMSE2
 70
     0
  9
$DIMTAD
 70
     0
  9
$DIMZIN
 70
     0
  9
$DIMBLK
  1

  9
$DIMASO
 70
     0
  9
$DIMSHO
 70
     0
  9
$DIMPOST
  1

  9
$DIMAPOST
  1

  9
$DIMALT
 70
     0
  9
$DIMALTD
 70
     2
  9
$DIMALTF
 40
25.4
  9
$DIMLFAC
 40
1.0
  9
$DIMTOFL
 70
     0
  9
$DIMTVP
 40
0.0
  9
$DIMTIX
 70
     0
  9
$DIMSOXD
 70
     0
  9
$DIMSAH
 70
     0
  9
$DIMBLK1
  1

  9
$DIMBLK2
  1

  9
$DIMSTYLE
  2
Standard
  9
$DIMCLRD
 70
     0
  9
$DIMCLRE
 70
     0
  9
$DIMCLRT
 70
     0
  9
$DIMTFAC
 40
1.0
  9
$DIMGAP
 40
0.09
  9
$DIMJUST
 70
     0
  9
$DIMSD1
 70
     0
  9
$DIMSD2
 70
     0
  9
$DIMTOLJ
 70
     1
  9
$DIMTZIN
 70
     0
  9
$DIMALTZ
 70
     0
  9
$DIMALTTZ
 70
     0
  9
$DIMUPT
 70
     0
  9
$DIMDEC
 70
     5
  9
$DIMTDEC
 70
     5
  9
$DIMALTU
 70
     5
  9
$DIMALTTD
 70
     2
  9
$DIMTXSTY
  7
STANDARD
  9
$DIMAUNIT
 70
     0
  9
$DIMADEC
 70
     0
  9
$DIMALTRND
 40
0.0
  9
$DIMAZIN
 70
     0
  9
$DIMDSEP
 70
    46
  9
$DIMATFIT
 70
     3
  9
$DIMFRAC
 70
     0
  9
$DIMLDRBLK
  1

  9
$DIMLUNIT
 70
     5
  9
$DIMLWD
 70
    -2
  9
$DIMLWE
 70
    -2
  9
$DIMTMOVE
 70
     2
  9
$LUNITS
 70
     5
  9
$LUPREC
 70
     5
  9
$SKETCHINC
 40
0.1
  9
$FILLETRAD
 40
0.03125
  9
$AUNITS
 70
     0
  9
$AUPREC
 70
     0
  9
$MENU
  1
acad
  9
$ELEVATION
 40
0.0
  9
$PELEVATION
 40
0.0
  9
$THICKNESS
 40
0.0
  9
$LIMCHECK
 70
     0
  9
$CHAMFERA
 40
0.0
  9
$CHAMFERB
 40
0.0
  9
$CHAMFERC
 40
0.0
  9
$CHAMFERD
 40
0.0
  9
$SKPOLY
 70
     0
  9
$TDCREATE
 40
2449219.812805092
  9
$TDUCREATE
 40
2449220.146138426
  9
$TDUPDATE
 40
2454162.883279352
  9
$TDUUPDATE
 40
2454163.216612685
  9
$TDINDWG
 40
0.0281715856
  9
$TDUSRTIMER
 40
0.0281715856
  9
$USRTIMER
 70
     1
  9
$ANGBASE
 50
0.0
  9
$ANGDIR
 70
     0
  9
$PDMODE
 70
     0
  9
$PDSIZE
 40
0.0
  9
$PLINEWID
 40
0.0
  9
$SPLFRAME
 70
     0
  9
$SPLINETYPE
 70
     6
  9
$SPLINESEGS
 70
     8
  9
$HANDSEED
  5
23E
  9
$SURFTAB1
 70
     6
  9
$SURFTAB2
 70
     6
  9
$SURFTYPE
 70
     6
  9
$SURFU
 70
     6
  9
$SURFV
 70
     6
  9
$UCSBASE
  2

  9
$UCSNAME
  2

  9
$UCSORG
 10
0.0
 20
0.0
 30
0.0
  9
$UCSXDIR
 10
1.0
 20
0.0
 30
0.0
  9
$UCSYDIR
 10
0.0
 20
1.0
 30
0.0
  9
$UCSORTHOREF
  2

  9
$UCSORTHOVIEW
 70
     0
  9
$UCSORGTOP
 10
0.0
 20
0.0
 30
0.0
  9
$UCSORGBOTTOM
 10
0.0
 20
0.0
 30
0.0
  9
$UCSORGLEFT
 10
0.0
 20
0.0
 30
0.0
  9
$UCSORGRIGHT
 10
0.0
 20
0.0
 30
0.0
  9
$UCSORGFRONT
 10
0.0
 20
0.0
 30
0.0
  9
$UCSORGBACK
 10
0.0
 20
0.0
 30
0.0
  9
$PUCSBASE
  2

  9
$PUCSNAME
  2

  9
$PUCSORG
 10
0.0
 20
0.0
 30
0.0
  9
$PUCSXDIR
 10
1.0
 20
0.0
 30
0.0
  9
$PUCSYDIR
 10
0.0
 20
1.0
 30
0.0
  9
$PUCSORTHOREF
  2

  9
$PUCSORTHOVIEW
 70
     0
  9
$PUCSORGTOP
 10
0.0
 20
0.0
 30
0.0
  9
$PUCSORGBOTTOM
 10
0.0
 20
0.0
 30
0.0
  9
$PUCSORGLEFT
 10
0.0
 20
0.0
 30
0.0
  9
$PUCSORGRIGHT
 10
0.0
 20
0.0
 30
0.0
  9
$PUCSORGFRONT
 10
0.0
 20
0.0
 30
0.0
  9
$PUCSORGBACK
 10
0.0
 20
0.0
 30
0.0
  9
$USERI1
 70
     0
  9
$USERI2
 70
     0
  9
$USERI3
 70
     0
  9
$USERI4
 70
     0
  9
$USERI5
 70
     0
  9
$USERR1
 40
0.0
  9
$USERR2
 40
0.0
  9
$USERR3
 40
0.0
  9
$USERR4
 40
0.0
  9
$USERR5
 40
0.0
  9
$WORLDVIEW
 70
     1
  9
$SHADEDGE
 70
     3
  9
$SHADEDIF
 70
    70
  9
$TILEMODE
 70
     1
  9
$MAXACTVP
 70
    16
  9
$PINSBASE
 10
0.0
 20
0.0
 30
0.0
  9
$PLIMCHECK
 70
     0
  9
$PEXTMIN
 10
1.000000000000000E+20
 20
1.000000000000000E+20
 30
1.000000000000000E+20
  9
$PEXTMAX
 10
-1.000000000000000E+20
 20
-1.000000000000000E+20
 30
-1.000000000000000E+20
  9
$PLIMMIN
 10
0.0
 20
0.0
  9
$PLIMMAX
 10
12.0
 20
9.0
  9
$UNITMODE
 70
     0
  9
$VISRETAIN
 70
     0
  9
$PLINEGEN
 70
     0
  9
$PSLTSCALE
 70
     0
  9
$TREEDEPTH
 70
  3020
  9
$CMLSTYLE
  2
Standard
  9
$CMLJUST
 70
     0
  9
$CMLSCALE
 40
1.0
  9
$PROXYGRAPHICS
 70
     1
  9
$MEASUREMENT
 70
     0
  9
$CELWEIGHT
370
    -1
  9
$ENDCAPS
280
     0
  9
$JOINSTYLE
280
     0
  9
$LWDISPLAY
290
     0
  9
$INSUNITS
 70
     0
  9
$HYPERLINKBASE
  1

  9
$STYLESHEET
  1

  9
$XEDIT
290
     1
  9
$CEPSNTYPE
380
     0
  9
$PSTYLEMODE
290
     1
  9
$FINGERPRINTGUID
  2
{EC8B2B39-904B-4C0F-92DB-345FC95C40FD}
  9
$VERSIONGUID
  2
{275E7C99-51F6-4BA5-B2F0-7A2B08BDFC31}
  9
$EXTNAMES
290
     1
  9
$PSVPSCALE
 40
0.0
  9
$OLESTARTUP
290
     0
  0
ENDSEC
  0
SECTION
  2
CLASSES
  0
CLASS
  1
ACDBDICTIONARYWDFLT
  2
AcDbDictionaryWithDefault
  3
AutoCAD 2000
 90
        0
280
     0
281
     0
  0
CLASS
  1
ACDBPLACEHOLDER
  2
AcDbPlaceHolder
  3
ObjectDBX Classes
 90
        0
280
     0
281
     0
  0
CLASS
  1
LAYOUT
  2
AcDbLayout
  3
ObjectDBX Classes
 90
        0
280
     0
281
     0
  0
CLASS
  1
DICTIONARYVAR
  2
AcDbDictionaryVar
  3
AutoCAD 2000
 90
        0
280
     0
281
     0
  0
CLASS
  1
LONG_TRANSACTION
  2
AcDbLongTransaction
  3
ObjectDBX Classes
 90
   -65536
280
     1
281
     0
  0
CLASS
  1
LWPOLYLINE
  2
AcDbPolyline
  3
AutoCAD 2000
 90
        0
280
     0
281
     1
  0
CLASS
  1
HATCH
  2
AcDbHatch
  3
AutoCAD 2000
 90
        0
280
     0
281
     1
  0
CLASS
  1
XRECORD
  2
AcDbXrecord
  3
AutoCAD 2000
 90
        0
280
     0
281
     0
  0
CLASS
  1
LONG_TRANSACTION
  2
AcDbLongTransaction
  3
ObjectDBX Classes
 90
   -65536
280
     1
281
     0
  0
CLASS
  1
LWPOLYLINE
  2
AcDbPolyline
  3
AutoCAD 2000
 90
        0
280
     0
281
     1
  0
CLASS
  1
HATCH
  2
AcDbHatch
  3
AutoCAD 2000
 90
        0
280
     0
281
     1
  0
CLASS
  1
XRECORD
  2
AcDbXrecord
  3
AutoCAD 2000
 90
        0
280
     0
281
     0
  0
CLASS
  1
LONG_TRANSACTION
  2
AcDbLongTransaction
  3
ObjectDBX Classes
 90
   -65536
280
     1
281
     0
  0
CLASS
  1
LWPOLYLINE
  2
AcDbPolyline
  3
AutoCAD 2000
 90
        0
280
     0
281
     1
  0
CLASS
  1
HATCH
  2
AcDbHatch
  3
AutoCAD 2000
 90
        0
280
     0
281
     1
  0
CLASS
  1
XRECORD
  2
AcDbXrecord
  3
AutoCAD 2000
 90
        0
280
     0
281
     0
  0
CLASS
  1
LONG_TRANSACTION
  2
AcDbLongTransaction
  3
ObjectDBX Classes
 90
   -65536
280
     1
281
     0
  0
CLASS
  1
LWPOLYLINE
  2
AcDbPolyline
  3
AutoCAD 2000
 90
        0
280
     0
281
     1
  0
CLASS
  1
HATCH
  2
AcDbHatch
  3
AutoCAD 2000
 90
        0
280
     0
281
     1
  0
CLASS
  1
XRECORD
  2
AcDbXrecord
  3
AutoCAD 2000
 90
        0
280
     0
281
     0
  0
CLASS
  1
TABLESTYLE
  2
AcDbTableStyle
  3
ObjectDBX Classes
 90
     2047
280
     1
281
     0
  0
CLASS
  1
SORTENTSTABLE
  2
AcDbSortentsTable
  3
AutoCAD 2000
 90
        0
280
     0
281
     0
  0
ENDSEC
  0
SECTION
  2
TABLES
  0
TABLE
  2
VPORT
  5
1D
330
0
100
AcDbSymbolTable
 70
     3
  0
VPORT
  5
231
330
1D
100
AcDbSymbolTableRecord
100
AcDbViewportTableRecord
  2
*Active
 70
     0
 10
0.0
 20
0.0
 11
1.0
 21
1.0
 12
14.01268673397522
 22
9.366897923360526
 13
0.0
 23
0.0
 14
0.03125
 24
0.03125
 15
0.25
 25
0.25
 16
0.0
 26
0.0
 36
1.0
 17
0.0
 27
0.0
 37
0.0
 40
24.30048836497218
 41
1.814583333333333
 42
50.0
 43
0.0
 44
0.0
 50
0.0
 51
0.0
 71
     0
 72
   100
 73
     1
 74
     1
 75
     0
 76
     0
 77
     0
 78
     0
281
     0
 65
     1
110
0.0
120
0.0
130
0.0
111
1.0
121
0.0
131
0.0
112
0.0
122
1.0
132
0.0
 79
     0
146
0.0
  0
ENDTAB
  0
TABLE
  2
LTYPE
  5
18
330
0
100
AcDbSymbolTable
 70
     2
  0
LTYPE
  5
19
330
18
100
AcDbSymbolTableRecord
100
AcDbLinetypeTableRecord
  2
ByBlock
 70
     0
  3

 72
    65
 73
     0
 40
0.0
  0
LTYPE
  5
1A
330
18
100
AcDbSymbolTableRecord
100
AcDbLinetypeTableRecord
  2
ByLayer
 70
     0
  3

 72
    65
 73
     0
 40
0.0
  0
LTYPE
  5
A
330
18
100
AcDbSymbolTableRecord
100
AcDbLinetypeTableRecord
  2
CONTINUOUS
 70
     0
  3
Solid line
 72
    65
 73
     0
 40
0.0
  0
LTYPE
  5
210
330
18
100
AcDbSymbolTableRecord
100
AcDbLinetypeTableRecord
  2
HIDDEN
 70
     0
  3
Hidden __ __ __ __ __ __ __ __ __ __ __ __ __ _
 72
    65
 73
     2
 40
0.375
 49
0.25
 74
     0
 49
-0.125
 74
     0
  0
ENDTAB
  0
TABLE
  2
LAYER
  5
14
330
0
100
AcDbSymbolTable
 70
     1
  0
LAYER
  5
6
330
14
100
AcDbSymbolTableRecord
100
AcDbLayerTableRecord
  2
0
 70
     0
 62
     7
  6
CONTINUOUS
370
    -3
390
7
  0
ENDTAB
  0
TABLE
  2
STYLE
  5
15
330
0
100
AcDbSymbolTable
 70
     1
  0
STYLE
  5
16
330
15
100
AcDbSymbolTableRecord
100
AcDbTextStyleTableRecord
  2
STANDARD
 70
     0
 40
0.0
 41
1.0
 50
0.0
 71
     0
 42
0.270000000000005
  3
TXT
  4

  0
ENDTAB
  0
TABLE
  2
VIEW
  5
1B
330
0
100
AcDbSymbolTable
 70
     0
  0
ENDTAB
  0
TABLE
  2
UCS
  5
1C
330
0
100
AcDbSymbolTable
 70
     0
  0
ENDTAB
  0
TABLE
  2
APPID
  5
1F
330
0
100
AcDbSymbolTable
 70
     1
  0
APPID
  5
20
330
1F
100
AcDbSymbolTableRecord
100
AcDbRegAppTableRecord
  2
ACAD
 70
     0
  0
ENDTAB
  0
TABLE
  2
DIMSTYLE
  5
21
330
0
100
AcDbSymbolTable
 70
     1
100
AcDbDimStyleTable
  0
DIMSTYLE
105
28
330
21
100
AcDbSymbolTableRecord
100
AcDbDimStyleTableRecord
  2
Standard
 70
     0
  3

  4

340
16
  0
ENDTAB
  0
TABLE
  2
BLOCK_RECORD
  5
1
330
0
100
AcDbSymbolTable
 70
     0
  0
BLOCK_RECORD
  5
2
102
{ACAD_XDICTIONARY
360
3
102
}
330
1
100
AcDbSymbolTableRecord
100
AcDbBlockTableRecord
  2
*Model_Space
340
C
  0
BLOCK_RECORD
  5
E
330
1
100
AcDbSymbolTableRecord
100
AcDbBlockTableRecord
  2
*Paper_Space
340
13
  0
ENDTAB
  0
ENDSEC
  0
SECTION
  2
BLOCKS
  0
BLOCK
  5
5
330
2
100
AcDbEntity
  8
0
100
AcDbBlockBegin
  2
*Model_Space
 70
     0
 10
0.0
 20
0.0
 30
0.0
  3
*Model_Space
  1

  4

  0
ENDBLK
  5
B
330
2
100
AcDbEntity
  8
0
100
AcDbBlockEnd
  0
BLOCK
  5
11
330
E
100
AcDbEntity
 67
     1
  8
0
100
AcDbBlockBegin
  2
*Paper_Space
 70
     0
 10
0.0
 20
0.0
 30
0.0
  3
*Paper_Space
  1

  4

  0
ENDBLK
  5
12
330
E
100
AcDbEntity
 67
     1
  8
0
100
AcDbBlockEnd
  0
ENDSEC
  0
SECTION
  2
ENTITIES
  0
LINE
  5
198
330
2
100
AcDbEntity
  8
0
100
AcDbLine
 10
0.1594194322648228
 20
3.250000000000007
 30
0.0
 11
0.1594194322648228
 21
7.249999999999996
 31
0.0
  0
LINE
  5
199
330
2
100
AcDbEntity
  8
0
100
AcDbLine
 10
1.659419432264823
 20
1.125000238418586
 30
0.0
 11
1.659419432264823
 21
5.625000412953082
 31
0.0
  0
LINE
  5
19A
330
2
100
AcDbEntity
  8
0
100
AcDbLine
 10
3.90941943226483
 20
1.125000238418586
 30
0.0
 11
3.909419432264826
 21
5.624999999999995
 31
0.0
  0
LINE
  5
19B
330
2
100
AcDbEntity
  8
0
100
AcDbLine
 10
5.409419432264823
 20
3.250000000000007
 30
0.0
 11
5.40941943226483
 21
7.249999999999996
 31
0.0
  0
LINE
  5
19C
330
2
100
AcDbEntity
  8
0
100
AcDbLine
 10
2.315569432264823
 20
0.8125
 30
0.0
 11
3.253069432264823
 21
0.8125
 31
0.0
  0
LINE
  5
19D
330
2
100
AcDbEntity
  8
0
100
AcDbLine
 10
2.315569432264823
 20
1.0625
 30
0.0
 11
3.253069432264823
 21
1.0625
 31
0.0
  0
LINE
  5
19E
330
2
100
AcDbEntity
  8
0
100
AcDbLine
 10
2.159319432264823
 20
1.6875
 30
0.0
 11
3.440569432264823
 21
1.6875
 31
0.0
  0
LINE
  5
19F
330
2
100
AcDbEntity
  8
0
100
AcDbLine
 10
2.096919432264816
 20
0.9375
 30
0.0
 11
3.471919432264816
 21
0.9375
 31
0.0
  0
LINE
  5
1A0
330
2
100
AcDbEntity
  8
0
100
AcDbLine
 10
1.846919432264816
 20
1.5625
 30
0.0
 11
3.784419432264816
 21
1.5625
 31
0.0
  0
LINE
  5
1A1
330
2
100
AcDbEntity
  8
0
100
AcDbLine
 10
1.846919432264816
 20
1.8125
 30
0.0
 11
3.784419432264816
 21
1.8125
 31
0.0
  0
ARC
  5
1A2
330
2
100
AcDbEntity
  8
0
100
AcDbCircle
 10
2.784419432264823
 20
0.25
 30
0.0
 40
0.25
100
AcDbArc
 50
225.0
 51
315.0000000000001
  0
LINE
  5
1A3
330
2
100
AcDbEntity
  8
0
100
AcDbLine
 10
1.732642736968185
 20
0.9482233047033688
 30
0.0
 11
2.607642736968185
 21
0.0732233047033617
 31
0.0
  0
ARC
  5
1A4
330
2
100
AcDbEntity
  8
0
100
AcDbCircle
 10
1.909419432264816
 20
1.125000000000007
 30
0.0
 40
0.25
100
AcDbArc
 50
180.0000000000001
 51
224.9999999999999
  0
LINE
  5
1A5
330
2
100
AcDbEntity
  8
0
100
AcDbLine
 10
3.836196127561461
 20
0.9482233047033688
 30
0.0
 11
2.961196127561461
 21
0.0732233047033617
 31
0.0
  0
ARC
  5
1A6
330
2
100
AcDbEntity
  8
0
100
AcDbCircle
 10
3.659419432264823
 20
1.125000000000007
 30
0.0
 40
0.25
100
AcDbArc
 50
315.0000000000002
 51
0.0
  0
LINE
  5
1A7
330
2
100
AcDbEntity
  8
0
100
AcDbLine
 10
2.159319432264823
 20
2.25
 30
0.0
 11
3.440569432264823
 21
2.25
 31
0.0
  0
LINE
  5
1A8
330
2
100
AcDbEntity
  8
0
100
AcDbLine
 10
2.159319432264823
 20
2.5
 30
0.0
 11
3.440569432264823
 21
2.5
 31
0.0
  0
LINE
  5
1A9
330
2
100
AcDbEntity
  8
0
100
AcDbLine
 10
3.909419432264826
 20
3.375000000000007
 30
0.0
 11
2.784419432264816
 21
3.375000000000007
 31
0.0
  0
LINE
  5
1AA
330
2
100
AcDbEntity
  8
0
100
AcDbLine
 10
1.846919432264816
 20
2.375
 30
0.0
 11
3.784419432264816
 21
2.375
 31
0.0
  0
ARC
  5
1AB
330
2
100
AcDbEntity
  8
0
100
AcDbCircle
 10
0.9094194322648086
 20
3.375000000000057
 30
0.0
 40
0.3749999999999929
100
AcDbArc
 50
359.9999999999973
 51
180.0000000000027
  0
LINE
  5
1AC
330
2
100
AcDbEntity
  8
0
100
AcDbLine
 10
1.177725258440656
 20
3.143305826175848
 30
0.0
 11
1.275266519176892
 21
3.240847086912087
 31
0.0
  0
LINE
  5
1AD
330
2
100
AcDbEntity
  8
0
100
AcDbLine
 10
0.1594194322648228
 20
3.250000000000007
 30
0.0
 11
0.5214752584406561
 21
3.250000000000007
 31
0.0
  0
LINE
  5
1AE
330
2
100
AcDbEntity
  8
0
100
AcDbLine
 10
0.5344194322648157
 20
3.375000000000039
 30
0.0
 11
0.5344194322648157
 21
3.250000000000007
 31
0.0
  0
LINE
  5
1AF
330
2
100
AcDbEntity
  8
0
100
AcDbLine
 10
0.6853077799131349
 20
3.125000000000007
 30
0.0
 11
1.133531084616497
 21
3.125000000000007
 31
0.0
  0
LINE
  5
1B0
330
2
100
AcDbEntity
  8
0
100
AcDbLine
 10
0.6411136060889753
 20
3.143305826175848
 30
0.0
 11
0.5435723453527395
 21
3.240847086912087
 31
0.0
  0
ARC
  5
1B1
330
2
100
AcDbEntity
  8
0
100
AcDbCircle
 10
0.5214752584406561
 20
3.218750000000007
 30
0.0
 40
0.03125
100
AcDbArc
 50
45.00000000000005
 51
90.0
  0
ARC
  5
1B2
330
2
100
AcDbEntity
  8
0
100
AcDbCircle
 10
0.6853077799131349
 20
3.187500000000007
 30
0.0
 40
0.0625
100
AcDbArc
 50
225.0000000000001
 51
270.0
  0
ARC
  5
1B3
330
2
100
AcDbEntity
  8
0
100
AcDbCircle
 10
1.133531084616497
 20
3.187500000000007
 30
0.0
 40
0.0625
100
AcDbArc
 50
270.0000000000001
 51
315.0000000000009
  0
ARC
  5
1B4
330
2
100
AcDbEntity
  8
0
100
AcDbCircle
 10
2.159419432264873
 20
3.583333333333226
 30
0.0
 40
0.3020833333332104
100
AcDbArc
 50
225.9513743258718
 51
314.0486256741273
  0
LINE
  5
1B5
330
2
100
AcDbEntity
  8
0
100
AcDbLine
 10
1.941958311435602
 20
3.371538723138851
 30
0.0
 11
2.115491150558459
 21
2.92448773448994
 31
0.0
  0
LINE
  5
1B6
330
2
100
AcDbEntity
  8
0
100
AcDbLine
 10
1.659419432264819
 20
3.375000000000007
 30
0.0
 11
2.784419432264823
 21
3.375000000000007
 31
0.0
  0
LINE
  5
1B7
330
2
100
AcDbEntity
  8
0
100
AcDbLine
 10
1.284419432264816
 20
3.375000000000039
 30
0.0
 11
1.284419432264816
 21
3.250000000000007
 31
0.0
  0
LINE
  5
1B8
330
2
100
AcDbEntity
  8
0
100
AcDbLine
 10
1.297363606088968
 20
3.250000000000007
 30
0.0
 11
1.659419432264809
 21
3.250000000000007
 31
0.0
  0
ARC
  5
1B9
330
2
100
AcDbEntity
  8
0
100
AcDbCircle
 10
1.297363606088968
 20
3.218750000000007
 30
0.0
 40
0.03125
100
AcDbArc
 50
90.0
 51
135.0
  0
ARC
  5
1BA
330
2
100
AcDbEntity
  8
0
100
AcDbCircle
 10
1.92766322954289
 20
3.343750000000007
 30
0.0
 40
0.03125
100
AcDbArc
 50
45.95137432586936
 51
90.00000000000003
  0
LINE
  5
1BB
330
2
100
AcDbEntity
  8
0
100
AcDbLine
 10
2.376880553094043
 20
3.371538723138887
 30
0.0
 11
2.203347713971166
 21
2.92448773448994
 31
0.0
  0
ARC
  5
1BC
330
2
100
AcDbEntity
  8
0
100
AcDbCircle
 10
2.159419432264816
 20
2.940845353244733
 30
0.0
 40
0.046875
100
AcDbArc
 50
200.4238721544559
 51
339.5761278455441
  0
ARC
  5
1BD
330
2
100
AcDbEntity
  8
0
100
AcDbCircle
 10
2.391175634986855
 20
3.343750000000004
 30
0.0
 40
0.03125
100
AcDbArc
 50
90.00000000000003
 51
134.0486256741307
  0
CIRCLE
  5
1BE
330
2
100
AcDbEntity
  8
0
100
AcDbCircle
 10
1.159419432264823
 20
4.124999999999996
 30
0.0
 40
0.0859375
  0
ARC
  5
1BF
330
2
100
AcDbEntity
  8
0
100
AcDbCircle
 10
4.659419432264837
 20
3.375000000000057
 30
0.0
 40
0.3749999999999929
100
AcDbArc
 50
359.9999999999973
 51
180.0000000000028
  0
LINE
  5
1C0
330
2
100
AcDbEntity
  8
0
100
AcDbLine
 10
4.883531084616504
 20
3.125000000000007
 30
0.0
 11
4.435307779913142
 21
3.125000000000007
 31
0.0
  0
LINE
  5
1C1
330
2
100
AcDbEntity
  8
0
100
AcDbLine
 10
3.191958311435595
 20
3.371538723138887
 30
0.0
 11
3.365491150558473
 21
2.92448773448994
 31
0.0
  0
LINE
  5
1C2
330
2
100
AcDbEntity
  8
0
100
AcDbLine
 10
3.626880553094043
 20
3.371538723138851
 30
0.0
 11
3.45334771397118
 21
2.92448773448994
 31
0.0
  0
ARC
  5
1C3
330
2
100
AcDbEntity
  8
0
100
AcDbCircle
 10
3.40941943226483
 20
2.940845353244733
 30
0.0
 40
0.046875
100
AcDbArc
 50
200.4238721544559
 51
339.5761278455441
  0
ARC
  5
1C4
330
2
100
AcDbEntity
  8
0
100
AcDbCircle
 10
3.409419432264766
 20
3.583333333333226
 30
0.0
 40
0.3020833333332104
100
AcDbArc
 50
225.9513743258727
 51
314.0486256741283
  0
ARC
  5
1C5
330
2
100
AcDbEntity
  8
0
100
AcDbCircle
 10
3.177663229542784
 20
3.343750000000004
 30
0.0
 40
0.03125
100
AcDbArc
 50
45.95137432586935
 51
90.0
  0
ARC
  5
1C6
330
2
100
AcDbEntity
  8
0
100
AcDbCircle
 10
3.641175634986755
 20
3.343750000000007
 30
0.0
 40
0.03125
100
AcDbArc
 50
90.0
 51
134.0486256741307
  0
LINE
  5
1C7
330
2
100
AcDbEntity
  8
0
100
AcDbLine
 10
4.284419432264823
 20
3.375000000000039
 30
0.0
 11
4.28441943226483
 21
3.250000000000007
 31
0.0
  0
LINE
  5
1C8
330
2
100
AcDbEntity
  8
0
100
AcDbLine
 10
4.27147525844067
 20
3.250000000000007
 30
0.0
 11
3.90941943226483
 21
3.250000000000007
 31
0.0
  0
ARC
  5
1C9
330
2
100
AcDbEntity
  8
0
100
AcDbCircle
 10
4.435307779913142
 20
3.187500000000007
 30
0.0
 40
0.0625
100
AcDbArc
 50
224.9999999999991
 51
269.9999999999999
  0
ARC
  5
1CA
330
2
100
AcDbEntity
  8
0
100
AcDbCircle
 10
4.27147525844067
 20
3.218750000000007
 30
0.0
 40
0.03125
100
AcDbArc
 50
45.0
 51
90.0
  0
LINE
  5
1CB
330
2
100
AcDbEntity
  8
0
100
AcDbLine
 10
4.391113606088982
 20
3.143305826175848
 30
0.0
 11
4.293572345352754
 21
3.240847086912087
 31
0.0
  0
LINE
  5
1CC
330
2
100
AcDbEntity
  8
0
100
AcDbLine
 10
5.409419432264823
 20
3.250000000000007
 30
0.0
 11
5.047363606088982
 21
3.250000000000007
 31
0.0
  0
LINE
  5
1CD
330
2
100
AcDbEntity
  8
0
100
AcDbLine
 10
5.03441943226483
 20
3.375000000000039
 30
0.0
 11
5.034419432264823
 21
3.250000000000007
 31
0.0
  0
LINE
  5
1CE
330
2
100
AcDbEntity
  8
0
100
AcDbLine
 10
4.927725258440663
 20
3.143305826175848
 30
0.0
 11
5.025266519176906
 21
3.240847086912087
 31
0.0
  0
ARC
  5
1CF
330
2
100
AcDbEntity
  8
0
100
AcDbCircle
 10
4.883531084616504
 20
3.187500000000007
 30
0.0
 40
0.0625
100
AcDbArc
 50
270.0
 51
314.9999999999999
  0
ARC
  5
1D0
330
2
100
AcDbEntity
  8
0
100
AcDbCircle
 10
5.047363606088982
 20
3.218750000000007
 30
0.0
 40
0.03125
100
AcDbArc
 50
90.0
 51
134.9999999999999
  0
CIRCLE
  5
1D1
330
2
100
AcDbEntity
  8
0
100
AcDbCircle
 10
4.40941943226483
 20
4.124999999999996
 30
0.0
 40
0.0859375
  0
LINE
  5
1D2
330
2
100
AcDbEntity
  8
0
100
AcDbLine
 10
0.7844194322648228
 20
7.874999999999996
 30
0.0
 11
4.78441943226483
 21
7.874999999999996
 31
0.0
  0
ARC
  5
1D3
330
2
100
AcDbEntity
  8
0
100
AcDbCircle
 10
2.784419432264823
 20
6.499999999999996
 30
0.0
 40
0.25
100
AcDbArc
 50
44.99999999999994
 51
135.0
  0
LINE
  5
1D4
330
2
100
AcDbEntity
  8
0
100
AcDbLine
 10
0.1594194322648228
 20
7.249999999999996
 30
0.0
 11
0.7844194322648228
 21
7.874999999999996
 31
0.0
  0
LINE
  5
1D5
330
2
100
AcDbEntity
  8
0
100
AcDbLine
 10
1.732642736968185
 20
5.801776695296628
 30
0.0
 11
2.607642736968192
 21
6.676776695296635
 31
0.0
  0
CIRCLE
  5
1D6
330
2
100
AcDbEntity
  8
0
100
AcDbCircle
 10
1.409419432264823
 20
5.812499999999996
 30
0.0
 40
0.0859375
  0
ARC
  5
1D7
330
2
100
AcDbEntity
  8
0
100
AcDbCircle
 10
1.909419432264823
 20
5.624999999999989
 30
0.0
 40
0.25
100
AcDbArc
 50
135.0000000000001
 51
180.0
  0
CIRCLE
  5
1D8
330
2
100
AcDbEntity
  8
0
100
AcDbCircle
 10
1.784419432264823
 20
6.999999999999996
 30
0.0
 40
0.28125
  0
CIRCLE
  5
1D9
330
2
100
AcDbEntity
  8
0
100
AcDbCircle
 10
1.159419432264823
 20
7.624999999999996
 30
0.0
 40
0.0859375
  0
LINE
  5
1DA
330
2
100
AcDbEntity
  8
0
100
AcDbLine
 10
5.40941943226483
 20
7.249999999999996
 30
0.0
 11
4.78441943226483
 21
7.874999999999996
 31
0.0
  0
LINE
  5
1DB
330
2
100
AcDbEntity
  8
0
100
AcDbLine
 10
3.836196127561465
 20
5.801776695296622
 30
0.0
 11
2.961196127561461
 21
6.676776695296635
 31
0.0
  0
CIRCLE
  5
1DC
330
2
100
AcDbEntity
  8
0
100
AcDbCircle
 10
4.15941943226483
 20
5.812499999999996
 30
0.0
 40
0.0859375
  0
ARC
  5
1DD
330
2
100
AcDbEntity
  8
0
100
AcDbCircle
 10
3.65941943226483
 20
5.624999999999989
 30
0.0
 40
0.25
100
AcDbArc
 50
0.0
 51
44.99999999999984
  0
CIRCLE
  5
1DE
330
2
100
AcDbEntity
  8
0
100
AcDbCircle
 10
3.78441943226483
 20
6.999999999999996
 30
0.0
 40
0.28125
  0
CIRCLE
  5
1DF
330
2
100
AcDbEntity
  8
0
100
AcDbCircle
 10
4.40941943226483
 20
7.624999999999996
 30
0.0
 40
0.0859375
  0
LINE
  5
20D
330
2
100
AcDbEntity
  8
0
  6
HIDDEN
100
AcDbLine
 10
0.2254964652177449
 20
3.375
 30
0.0
 11
1.510632081511343
 21
3.375
 31
0.0
  0
LINE
  5
211
330
2
100
AcDbEntity
  8
0
  6
HIDDEN
100
AcDbLine
 10
5.343342399311911
 20
3.375
 30
0.0
 11
4.058206783018312
 21
3.375
 31
0.0
  0
ENDSEC
  0
SECTION
  2
OBJECTS
  0
DICTIONARY
  5
9
330
0
100
AcDbDictionary
281
     1
  3
ACAD_COLOR
350
10F
  3
ACAD_GROUP
350
23
  3
ACAD_LAYOUT
350
D
  3
ACAD_MATERIAL
350
10E
  3
ACAD_MLINESTYLE
350
24
  3
ACAD_PLOTSETTINGS
350
25
  3
ACAD_PLOTSTYLENAME
350
8
  3
ACAD_TABLESTYLE
350
110
  3
ACDBHEADERROUNDTRIPXREC
350
237
  3
AcDbVariableDictionary
350
10A
  0
DICTIONARY
  5
3
330
2
100
AcDbDictionary
280
     1
281
     1
  3
ACAD_SORTENTS
360
117
  0
DICTIONARY
  5
10F
102
{ACAD_REACTORS
330
9
102
}
330
9
100
AcDbDictionary
281
     1
  0
DICTIONARY
  5
23
102
{ACAD_REACTORS
330
9
102
}
330
9
100
AcDbDictionary
281
     1
  0
DICTIONARY
  5
D
102
{ACAD_REACTORS
330
9
102
}
330
9
100
AcDbDictionary
281
     1
  3
Layout1
350
13
  3
Model
350
C
  0
DICTIONARY
  5
10E
102
{ACAD_REACTORS
330
9
102
}
330
9
100
AcDbDictionary
281
     1
  0
DICTIONARY
  5
24
102
{ACAD_REACTORS
330
9
102
}
330
9
100
AcDbDictionary
281
     1
  3
Standard
350
27
  0
DICTIONARY
  5
25
102
{ACAD_REACTORS
330
9
102
}
330
9
100
AcDbDictionary
281
     1
  0
ACDBDICTIONARYWDFLT
  5
8
102
{ACAD_REACTORS
330
9
102
}
330
9
100
AcDbDictionary
281
     1
  3
Normal
350
7
100
AcDbDictionaryWithDefault
340
7
  0
DICTIONARY
  5
110
102
{ACAD_REACTORS
330
9
102
}
330
9
100
AcDbDictionary
281
     1
  3
Standard
350
111
  0
DICTIONARY
  5
237
102
{ACAD_REACTORS
330
9
102
}
330
9
100
AcDbDictionary
281
     1
  3
COLORDICT
350
238
  3
MATERIALDICT
350
239
  0
DICTIONARY
  5
10A
102
{ACAD_REACTORS
330
9
102
}
330
9
100
AcDbDictionary
281
     1
  3
CTABLESTYLE
350
1E6
  3
DIMASSOC
350
10C
  3
HIDETEXT
350
10B
  0
SORTENTSTABLE
  5
117
102
{ACAD_REACTORS
330
3
102
}
330
3
100
AcDbSortentsTable
330
2
331
0
  5
19B
331
19C
  5
11F
331
1DC
  5
15F
331
1C7
  5
14A
331
1B9
  5
13C
331
19B
  5
11E
331
1AB
  5
12E
331
1C2
  5
145
331
1B6
  5
139
331
1A3
  5
126
331
19D
  5
120
331
1DD
  5
160
331
1BA
  5
13D
331
1D8
  5
15B
331
1B8
  5
13B
331
1B0
  5
133
331
1BB
  5
13E
331
1C9
  5
14C
331
1CC
  5
14F
331
199
  5
11C
331
1BE
  5
141
331
1D1
  5
154
331
1DB
  5
15E
331
1A0
  5
123
331
1BC
  5
13F
331
1AD
  5
130
331
1DF
  5
162
331
1C8
  5
14B
331
1A4
  5
127
331
1AF
  5
132
331
1B4
  5
137
331
1A8
  5
12B
331
1CB
  5
14E
331
1DA
  5
15D
331
1D0
  5
153
331
1C1
  5
144
331
1AA
  5
12D
331
19E
  5
121
331
1AC
  5
12F
331
1D2
  5
155
331
1D7
  5
15A
331
1D4
  5
157
331
19F
  5
122
331
1D6
  5
159
331
1A6
  5
129
331
1BF
  5
142
331
1B3
  5
136
331
1C3
  5
146
331
1C6
  5
149
331
1B2
  5
135
331
1D3
  5
156
331
1CA
  5
14D
331
1A9
  5
12C
331
1C0
  5
143
331
198
  5
11B
331
1C5
  5
148
331
1AE
  5
131
331
1CF
  5
152
331
1CD
  5
150
331
1DE
  5
161
331
1BD
  5
140
331
1A1
  5
124
331
1A5
  5
128
331
1D9
  5
15C
331
1B5
  5
138
331
1CE
  5
151
331
1B1
  5
134
331
1C4
  5
147
331
1A7
  5
12A
331
1D5
  5
158
331
1A2
  5
125
331
19A
  5
11D
331
1B7
  5
13A
  0
LAYOUT
  5
13
102
{ACAD_REACTORS
330
D
102
}
102
{ACAD_XDICTIONARY
360
23A
102
}
330
D
100
AcDbPlotSettings
  1

  2
hp psc 2100 series
  4

  6

 40
0.0
 41
0.0
 42
0.0
 43
0.0
 44
0.0
 45
0.0
 46
0.0
 47
0.0
 48
0.0
 49
0.0
140
0.0
141
0.0
142
1.0
143
1.0
 70
   688
 72
     0
 73
     0
 74
     5
  7

 75
    16
147
1.0
148
0.0
149
0.0
100
AcDbLayout
  1
Layout1
 70
     0
 71
     1
 10
0.0
 20
0.0
 11
12.0
 21
9.0
 12
0.0
 22
0.0
 32
0.0
 14
1.000000000000000E+20
 24
1.000000000000000E+20
 34
1.000000000000000E+20
 15
-1.000000000000000E+20
 25
-1.000000000000000E+20
 35
-1.000000000000000E+20
146
0.0
 13
0.0
 23
0.0
 33
0.0
 16
1.0
 26
0.0
 36
0.0
 17
0.0
 27
1.0
 37
0.0
 76
     0
330
E
  0
LAYOUT
  5
C
102
{ACAD_REACTORS
330
D
102
}
102
{ACAD_XDICTIONARY
360
23C
102
}
330
D
100
AcDbPlotSettings
  1

  2
HP LaserJet 2100 Series PS
  4
Letter
  6

 40
5.365749835968018
 41
5.408073902130127
 42
5.132904052734375
 43
5.090576171875
 44
215.8999938964844
 45
279.3999938964844
 46
0.0
 47
0.0
 48
0.0
 49
0.0
140
0.0
141
0.0
142
1.0
143
3.895300780266023
 70
 28336
 72
     0
 73
     1
 74
     2
  7

 75
     0
147
0.2567195850615948
148
0.0
149
0.0
100
AcDbLayout
  1
Model
 70
     1
 71
     0
 10
0.0
 20
0.0
 11
12.0
 21
9.0
 12
0.0
 22
0.0
 32
0.0
 14
0.0
 24
0.0
 34
0.0
 15
0.0
 25
0.0
 35
0.0
146
0.0
 13
0.0
 23
0.0
 33
0.0
 16
1.0
 26
0.0
 36
0.0
 17
0.0
 27
1.0
 37
0.0
 76
     0
330
2
  0
MLINESTYLE
  5
27
102
{ACAD_REACTORS
330
24
102
}
330
24
100
AcDbMlineStyle
  2
STANDARD
 70
     0
  3

 62
   256
 51
90.0
 52
90.0
 71
     2
 49
0.5
 62
   256
  6
BYLAYER
 49
-0.5
 62
   256
  6
BYLAYER
  0
ACDBPLACEHOLDER
  5
7
102
{ACAD_REACTORS
330
8
102
}
330
8
  0
ACAD_PROXY_OBJECT
  5
111
102
{ACAD_REACTORS
330
110
102
}
330
110
100
AcDbProxyObject
 90
      499
 91
      520
 95
   983063
 70
     0
 93
     1841
310
4214DD185B99185C9928B81E85EB51B8AE3F2E07A17AD46E2B8FC02B5E8DC0F42B1CFD028000000C1008070000C3001FDFF8000000C1003FBFF000000182007F7FE00000030400FEFFC00000060801FDFF8000000C1003FBFF00000018200000000000000681FA0B0000001820100E000186003FBFF000000182007F7FE000
310
00030400FEFFC00000060801FDFF8000000C1003FBFF000000182007F7FE000000304000AD7A3703D0AC73F4160000003040201C00030C007F7FE00000030400FEFFC00000060801FDFF8000000C1003FBFF000000182007F7FE00000030400FEFFC000000608000
340
16
340
16
340
16
 94
        0
  0
XRECORD
  5
238
102
{ACAD_REACTORS
330
237
102
}
330
237
100
AcDbXrecord
340
10F
  0
XRECORD
  5
239
102
{ACAD_REACTORS
330
237
102
}
330
237
100
AcDbXrecord
340
10E
  0
DICTIONARYVAR
  5
1E6
102
{ACAD_REACTORS
330
10A
102
}
330
10A
100
DictionaryVariables
280
     0
  1
STANDARD
  0
DICTIONARYVAR
  5
10C
102
{ACAD_REACTORS
330
10A
102
}
330
10A
100
DictionaryVariables
280
     0
  1
2
  0
DICTIONARYVAR
  5
10B
102
{ACAD_REACTORS
330
10A
102
}
330
10A
100
DictionaryVariables
280
     0
  1
1
  0
DICTIONARY
  5
23A
330
13
100
AcDbDictionary
280
     1
281
     1
  3
ACAD_XREC_ROUNDTRIP
360
23B
  0
DICTIONARY
  5
23C
330
C
100
AcDbDictionary
280
     1
281
     1
  3
ACAD_XREC_ROUNDTRIP
360
23D
  0
XRECORD
  5
23B
102
{ACAD_REACTORS
330
23A
102
}
330
23A
100
AcDbXrecord
102
SHADEPLOT
 70
     0
102
SHADEPLOTRESLEVEL
 70
     2
102
SHADEPLOTCUSTOMDPI
 70
   300
  0
XRECORD
  5
23D
102
{ACAD_REACTORS
330
23C
102
}
330
23C
100
AcDbXrecord
102
SHADEPLOT
 70
     0
102
SHADEPLOTRESLEVEL
 70
     2
102
SHADEPLOTCUSTOMDPI
 70
   300
  0
ENDSEC
  0
EOF
