  0
SECTION
  2
HEADER
  9
$ACADVER
  1
AC1015
  9
$ACADMAINTVER
 70
     6
  9
$DWGCODEPAGE
  3
ANSI_1252
  9
$INSBASE
 10
0.0
 20
0.0
 30
0.0
  9
$EXTMIN
 10
-0.0938000000000507
 20
0.3796998771765843
 30
0.0
  9
$EXTMAX
 10
5.843800000000044
 20
5.629699877176595
 30
0.0
  9
$LIMMIN
 10
0.0
 20
0.0
  9
$LIMMAX
 10
31.5
 20
24.0
  9
$ORTHOMODE
 70
     1
  9
$REGENMODE
 70
     1
  9
$FILLMODE
 70
     1
  9
$QTEXTMODE
 70
     0
  9
$MIRRTEXT
 70
     1
  9
$LTSCALE
 40
1.5
  9
$ATTMODE
 70
     1
  9
$TEXTSIZE
 40
0.270000000000005
  9
$TRACEWID
 40
0.05
  9
$TEXTSTYLE
  7
STANDARD
  9
$CLAYER
  8
0
  9
$CELTYPE
  6
ByLayer
  9
$CECOLOR
 62
   256
  9
$CELTSCALE
 40
1.0
  9
$DISPSILH
 70
     0
  9
$DIMSCALE
 40
3.00000000000005
  9
$DIMASZ
 40
0.125
  9
$DIMEXO
 40
0.062
  9
$DIMDLI
 40
0.375
  9
$DIMRND
 40
0.0
  9
$DIMDLE
 40
0.0
  9
$DIMEXE
 40
0.08
  9
$DIMTP
 40
0.0
  9
$DIMTM
 40
0.0
  9
$DIMTXT
 40
0.09
  9
$DIMCEN
 40
-0.03125
  9
$DIMTSZ
 40
0.0
  9
$DIMTOL
 70
     0
  9
$DIMLIM
 70
     0
  9
$DIMTIH
 70
     1
  9
$DIMTOH
 70
     1
  9
$DIMSE1
 70
     0
  9
$DIMSE2
 70
     0
  9
$DIMTAD
 70
     0
  9
$DIMZIN
 70
     0
  9
$DIMBLK
  1

  9
$DIMASO
 70
     0
  9
$DIMSHO
 70
     0
  9
$DIMPOST
  1

  9
$DIMAPOST
  1

  9
$DIMALT
 70
     0
  9
$DIMALTD
 70
     2
  9
$DIMALTF
 40
25.4
  9
$DIMLFAC
 40
1.0
  9
$DIMTOFL
 70
     0
  9
$DIMTVP
 40
0.0
  9
$DIMTIX
 70
     0
  9
$DIMSOXD
 70
     0
  9
$DIMSAH
 70
     0
  9
$DIMBLK1
  1

  9
$DIMBLK2
  1

  9
$DIMSTYLE
  2
Standard
  9
$DIMCLRD
 70
     0
  9
$DIMCLRE
 70
     0
  9
$DIMCLRT
 70
     0
  9
$DIMTFAC
 40
1.0
  9
$DIMGAP
 40
0.09
  9
$DIMJUST
 70
     0
  9
$DIMSD1
 70
     0
  9
$DIMSD2
 70
     0
  9
$DIMTOLJ
 70
     1
  9
$DIMTZIN
 70
     0
  9
$DIMALTZ
 70
     0
  9
$DIMALTTZ
 70
     0
  9
$DIMUPT
 70
     0
  9
$DIMDEC
 70
     5
  9
$DIMTDEC
 70
     5
  9
$DIMALTU
 70
     5
  9
$DIMALTTD
 70
     2
  9
$DIMTXSTY
  7
STANDARD
  9
$DIMAUNIT
 70
     0
  9
$DIMADEC
 70
     0
  9
$DIMALTRND
 40
0.0
  9
$DIMAZIN
 70
     0
  9
$DIMDSEP
 70
    46
  9
$DIMATFIT
 70
     3
  9
$DIMFRAC
 70
     0
  9
$DIMLDRBLK
  1

  9
$DIMLUNIT
 70
     5
  9
$DIMLWD
 70
    -2
  9
$DIMLWE
 70
    -2
  9
$DIMTMOVE
 70
     2
  9
$LUNITS
 70
     5
  9
$LUPREC
 70
     5
  9
$SKETCHINC
 40
0.1
  9
$FILLETRAD
 40
0.03125
  9
$AUNITS
 70
     0
  9
$AUPREC
 70
     0
  9
$MENU
  1
acad
  9
$ELEVATION
 40
0.0
  9
$PELEVATION
 40
0.0
  9
$THICKNESS
 40
0.0
  9
$LIMCHECK
 70
     0
  9
$CHAMFERA
 40
0.0
  9
$CHAMFERB
 40
0.0
  9
$CHAMFERC
 40
0.0
  9
$CHAMFERD
 40
0.0
  9
$SKPOLY
 70
     0
  9
$TDCREATE
 40
2449219.812805092
  9
$TDUCREATE
 40
2449220.146138426
  9
$TDUPDATE
 40
2454162.884268576
  9
$TDUUPDATE
 40
2454163.21760191
  9
$TDINDWG
 40
0.0281522338
  9
$TDUSRTIMER
 40
0.0281522338
  9
$USRTIMER
 70
     1
  9
$ANGBASE
 50
0.0
  9
$ANGDIR
 70
     0
  9
$PDMODE
 70
     0
  9
$PDSIZE
 40
0.0
  9
$PLINEWID
 40
0.0
  9
$SPLFRAME
 70
     0
  9
$SPLINETYPE
 70
     6
  9
$SPLINESEGS
 70
     8
  9
$HANDSEED
  5
247
  9
$SURFTAB1
 70
     6
  9
$SURFTAB2
 70
     6
  9
$SURFTYPE
 70
     6
  9
$SURFU
 70
     6
  9
$SURFV
 70
     6
  9
$UCSBASE
  2

  9
$UCSNAME
  2

  9
$UCSORG
 10
0.0
 20
0.0
 30
0.0
  9
$UCSXDIR
 10
1.0
 20
0.0
 30
0.0
  9
$UCSYDIR
 10
0.0
 20
1.0
 30
0.0
  9
$UCSORTHOREF
  2

  9
$UCSORTHOVIEW
 70
     0
  9
$UCSORGTOP
 10
0.0
 20
0.0
 30
0.0
  9
$UCSORGBOTTOM
 10
0.0
 20
0.0
 30
0.0
  9
$UCSORGLEFT
 10
0.0
 20
0.0
 30
0.0
  9
$UCSORGRIGHT
 10
0.0
 20
0.0
 30
0.0
  9
$UCSORGFRONT
 10
0.0
 20
0.0
 30
0.0
  9
$UCSORGBACK
 10
0.0
 20
0.0
 30
0.0
  9
$PUCSBASE
  2

  9
$PUCSNAME
  2

  9
$PUCSORG
 10
0.0
 20
0.0
 30
0.0
  9
$PUCSXDIR
 10
1.0
 20
0.0
 30
0.0
  9
$PUCSYDIR
 10
0.0
 20
1.0
 30
0.0
  9
$PUCSORTHOREF
  2

  9
$PUCSORTHOVIEW
 70
     0
  9
$PUCSORGTOP
 10
0.0
 20
0.0
 30
0.0
  9
$PUCSORGBOTTOM
 10
0.0
 20
0.0
 30
0.0
  9
$PUCSORGLEFT
 10
0.0
 20
0.0
 30
0.0
  9
$PUCSORGRIGHT
 10
0.0
 20
0.0
 30
0.0
  9
$PUCSORGFRONT
 10
0.0
 20
0.0
 30
0.0
  9
$PUCSORGBACK
 10
0.0
 20
0.0
 30
0.0
  9
$USERI1
 70
     0
  9
$USERI2
 70
     0
  9
$USERI3
 70
     0
  9
$USERI4
 70
     0
  9
$USERI5
 70
     0
  9
$USERR1
 40
0.0
  9
$USERR2
 40
0.0
  9
$USERR3
 40
0.0
  9
$USERR4
 40
0.0
  9
$USERR5
 40
0.0
  9
$WORLDVIEW
 70
     1
  9
$SHADEDGE
 70
     3
  9
$SHADEDIF
 70
    70
  9
$TILEMODE
 70
     1
  9
$MAXACTVP
 70
    16
  9
$PINSBASE
 10
0.0
 20
0.0
 30
0.0
  9
$PLIMCHECK
 70
     0
  9
$PEXTMIN
 10
1.000000000000000E+20
 20
1.000000000000000E+20
 30
1.000000000000000E+20
  9
$PEXTMAX
 10
-1.000000000000000E+20
 20
-1.000000000000000E+20
 30
-1.000000000000000E+20
  9
$PLIMMIN
 10
0.0
 20
0.0
  9
$PLIMMAX
 10
12.0
 20
9.0
  9
$UNITMODE
 70
     0
  9
$VISRETAIN
 70
     0
  9
$PLINEGEN
 70
     0
  9
$PSLTSCALE
 70
     0
  9
$TREEDEPTH
 70
  3020
  9
$CMLSTYLE
  2
Standard
  9
$CMLJUST
 70
     0
  9
$CMLSCALE
 40
1.0
  9
$PROXYGRAPHICS
 70
     1
  9
$MEASUREMENT
 70
     0
  9
$CELWEIGHT
370
    -1
  9
$ENDCAPS
280
     0
  9
$JOINSTYLE
280
     0
  9
$LWDISPLAY
290
     0
  9
$INSUNITS
 70
     0
  9
$HYPERLINKBASE
  1

  9
$STYLESHEET
  1

  9
$XEDIT
290
     1
  9
$CEPSNTYPE
380
     0
  9
$PSTYLEMODE
290
     1
  9
$FINGERPRINTGUID
  2
{EC8B2B39-904B-4C0F-92DB-345FC95C40FD}
  9
$VERSIONGUID
  2
{E884980C-6E54-4FD0-AA69-24CCE40A4175}
  9
$EXTNAMES
290
     1
  9
$PSVPSCALE
 40
0.0
  9
$OLESTARTUP
290
     0
  0
ENDSEC
  0
SECTION
  2
CLASSES
  0
CLASS
  1
ACDBDICTIONARYWDFLT
  2
AcDbDictionaryWithDefault
  3
AutoCAD 2000
 90
        0
280
     0
281
     0
  0
CLASS
  1
ACDBPLACEHOLDER
  2
AcDbPlaceHolder
  3
ObjectDBX Classes
 90
        0
280
     0
281
     0
  0
CLASS
  1
LAYOUT
  2
AcDbLayout
  3
ObjectDBX Classes
 90
        0
280
     0
281
     0
  0
CLASS
  1
DICTIONARYVAR
  2
AcDbDictionaryVar
  3
AutoCAD 2000
 90
        0
280
     0
281
     0
  0
CLASS
  1
LONG_TRANSACTION
  2
AcDbLongTransaction
  3
ObjectDBX Classes
 90
   -65536
280
     1
281
     0
  0
CLASS
  1
LWPOLYLINE
  2
AcDbPolyline
  3
AutoCAD 2000
 90
        0
280
     0
281
     1
  0
CLASS
  1
HATCH
  2
AcDbHatch
  3
AutoCAD 2000
 90
        0
280
     0
281
     1
  0
CLASS
  1
XRECORD
  2
AcDbXrecord
  3
AutoCAD 2000
 90
        0
280
     0
281
     0
  0
CLASS
  1
LONG_TRANSACTION
  2
AcDbLongTransaction
  3
ObjectDBX Classes
 90
   -65536
280
     1
281
     0
  0
CLASS
  1
LWPOLYLINE
  2
AcDbPolyline
  3
AutoCAD 2000
 90
        0
280
     0
281
     1
  0
CLASS
  1
HATCH
  2
AcDbHatch
  3
AutoCAD 2000
 90
        0
280
     0
281
     1
  0
CLASS
  1
XRECORD
  2
AcDbXrecord
  3
AutoCAD 2000
 90
        0
280
     0
281
     0
  0
CLASS
  1
LONG_TRANSACTION
  2
AcDbLongTransaction
  3
ObjectDBX Classes
 90
   -65536
280
     1
281
     0
  0
CLASS
  1
LWPOLYLINE
  2
AcDbPolyline
  3
AutoCAD 2000
 90
        0
280
     0
281
     1
  0
CLASS
  1
HATCH
  2
AcDbHatch
  3
AutoCAD 2000
 90
        0
280
     0
281
     1
  0
CLASS
  1
XRECORD
  2
AcDbXrecord
  3
AutoCAD 2000
 90
        0
280
     0
281
     0
  0
CLASS
  1
LONG_TRANSACTION
  2
AcDbLongTransaction
  3
ObjectDBX Classes
 90
   -65536
280
     1
281
     0
  0
CLASS
  1
LWPOLYLINE
  2
AcDbPolyline
  3
AutoCAD 2000
 90
        0
280
     0
281
     1
  0
CLASS
  1
HATCH
  2
AcDbHatch
  3
AutoCAD 2000
 90
        0
280
     0
281
     1
  0
CLASS
  1
XRECORD
  2
AcDbXrecord
  3
AutoCAD 2000
 90
        0
280
     0
281
     0
  0
CLASS
  1
TABLESTYLE
  2
AcDbTableStyle
  3
ObjectDBX Classes
 90
     2047
280
     1
281
     0
  0
CLASS
  1
SORTENTSTABLE
  2
AcDbSortentsTable
  3
AutoCAD 2000
 90
        0
280
     0
281
     0
  0
ENDSEC
  0
SECTION
  2
TABLES
  0
TABLE
  2
VPORT
  5
1D
330
0
100
AcDbSymbolTable
 70
     2
  0
VPORT
  5
23A
330
1D
100
AcDbSymbolTableRecord
100
AcDbViewportTableRecord
  2
*Active
 70
     0
 10
0.0
 20
0.0
 11
1.0
 21
1.0
 12
14.2658169182376
 22
7.797491350000462
 13
0.0
 23
0.0
 14
0.03125
 24
0.03125
 15
0.25
 25
0.25
 16
0.0
 26
0.0
 36
1.0
 17
0.0
 27
0.0
 37
0.0
 40
24.30048836497219
 41
1.814583333333333
 42
50.0
 43
0.0
 44
0.0
 50
0.0
 51
0.0
 71
     0
 72
   100
 73
     1
 74
     1
 75
     0
 76
     0
 77
     0
 78
     0
281
     0
 65
     1
110
0.0
120
0.0
130
0.0
111
1.0
121
0.0
131
0.0
112
0.0
122
1.0
132
0.0
 79
     0
146
0.0
  0
ENDTAB
  0
TABLE
  2
LTYPE
  5
18
330
0
100
AcDbSymbolTable
 70
     1
  0
LTYPE
  5
19
330
18
100
AcDbSymbolTableRecord
100
AcDbLinetypeTableRecord
  2
ByBlock
 70
     0
  3

 72
    65
 73
     0
 40
0.0
  0
LTYPE
  5
1A
330
18
100
AcDbSymbolTableRecord
100
AcDbLinetypeTableRecord
  2
ByLayer
 70
     0
  3

 72
    65
 73
     0
 40
0.0
  0
LTYPE
  5
A
330
18
100
AcDbSymbolTableRecord
100
AcDbLinetypeTableRecord
  2
CONTINUOUS
 70
     0
  3
Solid line
 72
    65
 73
     0
 40
0.0
  0
ENDTAB
  0
TABLE
  2
LAYER
  5
14
330
0
100
AcDbSymbolTable
 70
     1
  0
LAYER
  5
6
330
14
100
AcDbSymbolTableRecord
100
AcDbLayerTableRecord
  2
0
 70
     0
 62
     7
  6
CONTINUOUS
370
    -3
390
7
  0
ENDTAB
  0
TABLE
  2
STYLE
  5
15
330
0
100
AcDbSymbolTable
 70
     1
  0
STYLE
  5
16
330
15
100
AcDbSymbolTableRecord
100
AcDbTextStyleTableRecord
  2
STANDARD
 70
     0
 40
0.0
 41
1.0
 50
0.0
 71
     0
 42
0.270000000000005
  3
TXT
  4

  0
ENDTAB
  0
TABLE
  2
VIEW
  5
1B
330
0
100
AcDbSymbolTable
 70
     0
  0
ENDTAB
  0
TABLE
  2
UCS
  5
1C
330
0
100
AcDbSymbolTable
 70
     0
  0
ENDTAB
  0
TABLE
  2
APPID
  5
1F
330
0
100
AcDbSymbolTable
 70
     1
  0
APPID
  5
20
330
1F
100
AcDbSymbolTableRecord
100
AcDbRegAppTableRecord
  2
ACAD
 70
     0
  0
ENDTAB
  0
TABLE
  2
DIMSTYLE
  5
21
330
0
100
AcDbSymbolTable
 70
     1
100
AcDbDimStyleTable
  0
DIMSTYLE
105
28
330
21
100
AcDbSymbolTableRecord
100
AcDbDimStyleTableRecord
  2
Standard
 70
     0
  3

  4

340
16
  0
ENDTAB
  0
TABLE
  2
BLOCK_RECORD
  5
1
330
0
100
AcDbSymbolTable
 70
     0
  0
BLOCK_RECORD
  5
2
102
{ACAD_XDICTIONARY
360
3
102
}
330
1
100
AcDbSymbolTableRecord
100
AcDbBlockTableRecord
  2
*Model_Space
340
C
  0
BLOCK_RECORD
  5
E
330
1
100
AcDbSymbolTableRecord
100
AcDbBlockTableRecord
  2
*Paper_Space
340
13
  0
ENDTAB
  0
ENDSEC
  0
SECTION
  2
BLOCKS
  0
BLOCK
  5
5
330
2
100
AcDbEntity
  8
0
100
AcDbBlockBegin
  2
*Model_Space
 70
     0
 10
0.0
 20
0.0
 30
0.0
  3
*Model_Space
  1

  4

  0
ENDBLK
  5
B
330
2
100
AcDbEntity
  8
0
100
AcDbBlockEnd
  0
BLOCK
  5
11
330
E
100
AcDbEntity
 67
     1
  8
0
100
AcDbBlockBegin
  2
*Paper_Space
 70
     0
 10
0.0
 20
0.0
 30
0.0
  3
*Paper_Space
  1

  4

  0
ENDBLK
  5
12
330
E
100
AcDbEntity
 67
     1
  8
0
100
AcDbBlockEnd
  0
ENDSEC
  0
SECTION
  2
ENTITIES
  0
LINE
  5
11B
330
2
100
AcDbEntity
  8
0
100
AcDbLine
 10
0.0
 20
0.3796998771765878
 30
0.0
 11
5.75
 21
0.3796998771765914
 31
0.0
  0
LINE
  5
11C
330
2
100
AcDbEntity
  8
0
100
AcDbLine
 10
-0.0000000000000071
 20
5.629699877176588
 30
0.0
 11
5.75
 21
5.629699877176595
 31
0.0
  0
LINE
  5
11D
330
2
100
AcDbEntity
  8
0
100
AcDbLine
 10
-0.0000000000000036
 20
4.129699877176595
 30
0.0
 11
-0.0000000000000036
 21
3.004699877176599
 31
0.0
  0
CIRCLE
  5
11E
330
2
100
AcDbEntity
  8
0
100
AcDbCircle
 10
0.4687500000000036
 20
1.879699877176588
 30
0.0
 40
0.125
  0
LINE
  5
11F
330
2
100
AcDbEntity
  8
0
100
AcDbLine
 10
0.0000000000000036
 20
1.879699877176584
 30
0.0
 11
-0.0000000000000036
 21
3.004699877176606
 31
0.0
  0
ARC
  5
120
330
2
100
AcDbEntity
  8
0
100
AcDbCircle
 10
0.375
 20
1.129699877176588
 30
0.0
 40
0.25
100
AcDbArc
 50
270.0000000000001
 51
89.99996136261612
  0
ARC
  5
121
330
2
100
AcDbEntity
  8
0
100
AcDbCircle
 10
0.375
 20
1.129699877176588
 30
0.0
 40
0.25
100
AcDbArc
 50
270.0000386373841
 51
90.00000000000006
  0
ARC
  5
122
330
2
100
AcDbEntity
  8
0
100
AcDbCircle
 10
0.7027002132192415
 20
1.129699877176588
 30
0.0
 40
0.7965002132192919
100
AcDbArc
 50
151.9131333981258
 51
208.0868666018743
  0
LINE
  5
123
330
2
100
AcDbEntity
  8
0
100
AcDbLine
 10
0.125
 20
0.8979234547345776
 30
0.0
 11
0.1249999999999982
 21
1.879699877176588
 31
0.0
  0
LINE
  5
124
330
2
100
AcDbEntity
  8
0
100
AcDbLine
 10
0.0
 20
0.9432729345773971
 30
0.0
 11
-0.0000000000000018
 21
1.879699877176588
 31
0.0
  0
LINE
  5
125
330
2
100
AcDbEntity
  8
0
100
AcDbLine
 10
0.125
 20
0.3796998771765843
 30
0.0
 11
0.125
 21
0.8979234547345776
 31
0.0
  0
LINE
  5
126
330
2
100
AcDbEntity
  8
0
100
AcDbLine
 10
0.0
 20
0.3796998771765878
 30
0.0
 11
0.0
 21
0.9432729345773971
 31
0.0
  0
LINE
  5
127
330
2
100
AcDbEntity
  8
0
100
AcDbLine
 10
0.375
 20
0.8796998771765878
 30
0.0
 11
0.1249999999999929
 21
0.8796998771765878
 31
0.0
  0
LINE
  5
128
330
2
100
AcDbEntity
  8
0
100
AcDbLine
 10
0.375
 20
1.379699877176588
 30
0.0
 11
0.1249999999999929
 21
1.379699877176588
 31
0.0
  0
LINE
  5
129
330
2
100
AcDbEntity
  8
0
100
AcDbLine
 10
0.3437499999998472
 20
1.879699877176588
 30
0.0
 11
0.0
 21
1.879699877176584
 31
0.0
  0
LINE
  5
12A
330
2
100
AcDbEntity
  8
0
100
AcDbLine
 10
0.0034612768611204
 20
2.597160998005826
 30
0.0
 11
0.4505122655100671
 21
2.423628158882949
 31
0.0
  0
ARC
  5
12B
330
2
100
AcDbEntity
  8
0
100
AcDbCircle
 10
-0.208333333333222
 20
2.379699877176655
 30
0.0
 40
0.3020833333332104
100
AcDbArc
 50
315.9513743258719
 51
44.04862567412739
  0
LINE
  5
12C
330
2
100
AcDbEntity
  8
0
100
AcDbLine
 10
0.0034612768611559
 20
2.162238756347378
 30
0.0
 11
0.4505122655100671
 21
2.335771595470241
 31
0.0
  0
ARC
  5
12D
330
2
100
AcDbEntity
  8
0
100
AcDbCircle
 10
0.03125
 20
2.147943674454666
 30
0.0
 40
0.03125
100
AcDbArc
 50
135.9513743258694
 51
180.0000000000001
  0
ARC
  5
12E
330
2
100
AcDbEntity
  8
0
100
AcDbCircle
 10
0.4341546467552746
 20
2.379699877176591
 30
0.0
 40
0.046875
100
AcDbArc
 50
290.423872154456
 51
69.57612784554424
  0
ARC
  5
12F
330
2
100
AcDbEntity
  8
0
100
AcDbCircle
 10
0.0312500000000036
 20
2.611456079898638
 30
0.0
 40
0.03125
100
AcDbArc
 50
180.0000000000001
 51
224.0486256741308
  0
ARC
  5
130
330
2
100
AcDbEntity
  8
0
100
AcDbCircle
 10
0.03125
 20
3.397943674454567
 30
0.0
 40
0.03125
100
AcDbArc
 50
135.9513743258694
 51
180.0000000000001
  0
LINE
  5
131
330
2
100
AcDbEntity
  8
0
100
AcDbLine
 10
0.0034612768611524
 20
3.847160998005819
 30
0.0
 11
0.4505122655100635
 21
3.673628158882963
 31
0.0
  0
LINE
  5
132
330
2
100
AcDbEntity
  8
0
100
AcDbLine
 10
0.0034612768611169
 20
3.412238756347378
 30
0.0
 11
0.4505122655100635
 21
3.585771595470256
 31
0.0
  0
ARC
  5
133
330
2
100
AcDbEntity
  8
0
100
AcDbCircle
 10
-0.208333333333222
 20
3.629699877176549
 30
0.0
 40
0.3020833333332104
100
AcDbArc
 50
315.9513743258728
 51
44.0486256741283
  0
ARC
  5
134
330
2
100
AcDbEntity
  8
0
100
AcDbCircle
 10
0.0312499999999964
 20
3.861456079898531
 30
0.0
 40
0.03125
100
AcDbArc
 50
180.0000000000001
 51
224.0486256741307
  0
ARC
  5
135
330
2
100
AcDbEntity
  8
0
100
AcDbCircle
 10
0.4341546467552711
 20
3.629699877176606
 30
0.0
 40
0.046875
100
AcDbArc
 50
290.423872154456
 51
69.57612784554424
  0
ARC
  5
136
330
2
100
AcDbEntity
  8
0
100
AcDbCircle
 10
0.3749999999999929
 20
4.879699877176595
 30
0.0
 40
0.25
100
AcDbArc
 50
270.0000000000001
 51
89.99996136261612
  0
ARC
  5
137
330
2
100
AcDbEntity
  8
0
100
AcDbCircle
 10
0.7027002132192735
 20
4.879699877176588
 30
0.0
 40
0.7965002132193202
100
AcDbArc
 50
151.9131333981266
 51
208.086866601873
  0
LINE
  5
138
330
2
100
AcDbEntity
  8
0
100
AcDbLine
 10
-0.0000000000000053
 20
5.066126819775779
 30
0.0
 11
-0.0000000000000053
 21
4.129699877176595
 31
0.0
  0
LINE
  5
139
330
2
100
AcDbEntity
  8
0
100
AcDbLine
 10
0.1249999999999947
 20
5.111476299618605
 30
0.0
 11
0.1249999999999947
 21
4.129699877176595
 31
0.0
  0
LINE
  5
13A
330
2
100
AcDbEntity
  8
0
100
AcDbLine
 10
0.34375
 20
4.129699877176595
 30
0.0
 11
0.0
 21
4.129699877176595
 31
0.0
  0
CIRCLE
  5
13B
330
2
100
AcDbEntity
  8
0
100
AcDbCircle
 10
0.46875
 20
4.129699877176595
 30
0.0
 40
0.125
  0
LINE
  5
13C
330
2
100
AcDbEntity
  8
0
100
AcDbLine
 10
0.3749999999999929
 20
4.629699877176595
 30
0.0
 11
0.1249999999999929
 21
4.629699877176595
 31
0.0
  0
LINE
  5
13D
330
2
100
AcDbEntity
  8
0
100
AcDbLine
 10
-0.0000000000000071
 20
5.629699877176588
 30
0.0
 11
-0.0000000000000053
 21
5.066126819775779
 31
0.0
  0
LINE
  5
13E
330
2
100
AcDbEntity
  8
0
100
AcDbLine
 10
0.1249999999999929
 20
5.629699877176595
 30
0.0
 11
0.1249999999999947
 21
5.111476299618605
 31
0.0
  0
LINE
  5
13F
330
2
100
AcDbEntity
  8
0
100
AcDbLine
 10
0.3749999999999929
 20
5.129699877176595
 30
0.0
 11
0.1249999999999929
 21
5.129699877176599
 31
0.0
  0
LINE
  5
140
330
2
100
AcDbEntity
  8
0
100
AcDbLine
 10
5.750000000000004
 20
4.129699877176595
 30
0.0
 11
5.750000000000002
 21
3.004699877176599
 31
0.0
  0
LINE
  5
141
330
2
100
AcDbEntity
  8
0
100
AcDbLine
 10
5.374999999999996
 20
1.379699877176588
 30
0.0
 11
5.625
 21
1.379699877176588
 31
0.0
  0
LINE
  5
142
330
2
100
AcDbEntity
  8
0
100
AcDbLine
 10
5.374999999999996
 20
0.8796998771765878
 30
0.0
 11
5.625
 21
0.8796998771765878
 31
0.0
  0
LINE
  5
143
330
2
100
AcDbEntity
  8
0
100
AcDbLine
 10
5.746538723138846
 20
2.162238756347385
 30
0.0
 11
5.299487734489935
 21
2.335771595470241
 31
0.0
  0
LINE
  5
144
330
2
100
AcDbEntity
  8
0
100
AcDbLine
 10
5.746538723138881
 20
2.597160998005826
 30
0.0
 11
5.299487734489935
 21
2.423628158882949
 31
0.0
  0
LINE
  5
145
330
2
100
AcDbEntity
  8
0
100
AcDbLine
 10
5.746538723138881
 20
3.412238756347378
 30
0.0
 11
5.299487734489935
 21
3.585771595470256
 31
0.0
  0
LINE
  5
146
330
2
100
AcDbEntity
  8
0
100
AcDbLine
 10
5.746538723138846
 20
3.847160998005826
 30
0.0
 11
5.299487734489935
 21
3.673628158882963
 31
0.0
  0
LINE
  5
147
330
2
100
AcDbEntity
  8
0
100
AcDbLine
 10
5.40625
 20
1.879699877176591
 30
0.0
 11
5.750000000000004
 21
1.879699877176591
 31
0.0
  0
CIRCLE
  5
148
330
2
100
AcDbEntity
  8
0
100
AcDbCircle
 10
5.28125
 20
1.879699877176588
 30
0.0
 40
0.125
  0
ARC
  5
149
330
2
100
AcDbEntity
  8
0
100
AcDbCircle
 10
5.374999999999996
 20
1.129699877176588
 30
0.0
 40
0.25
100
AcDbArc
 50
89.99999999999993
 51
269.999961362616
  0
ARC
  5
14A
330
2
100
AcDbEntity
  8
0
100
AcDbCircle
 10
5.374999999999996
 20
1.129699877176588
 30
0.0
 40
0.25
100
AcDbArc
 50
90.0000386373839
 51
269.9999999999999
  0
ARC
  5
14B
330
2
100
AcDbEntity
  8
0
100
AcDbCircle
 10
5.315845353244727
 20
2.379699877176599
 30
0.0
 40
0.046875
100
AcDbArc
 50
110.4238721544558
 51
249.5761278455441
  0
ARC
  5
14C
330
2
100
AcDbEntity
  8
0
100
AcDbCircle
 10
5.315845353244727
 20
3.629699877176613
 30
0.0
 40
0.046875
100
AcDbArc
 50
110.4238721544558
 51
249.5761278455441
  0
LINE
  5
14D
330
2
100
AcDbEntity
  8
0
100
AcDbLine
 10
5.750000000000002
 20
1.879699877176588
 30
0.0
 11
5.750000000000002
 21
3.004699877176606
 31
0.0
  0
ARC
  5
14E
330
2
100
AcDbEntity
  8
0
100
AcDbCircle
 10
5.047299786780751
 20
1.129699877176588
 30
0.0
 40
0.7965002132192919
100
AcDbArc
 50
331.9131333981257
 51
28.08686660187427
  0
LINE
  5
14F
330
2
100
AcDbEntity
  8
0
100
AcDbLine
 10
5.75
 20
0.9432729345774042
 30
0.0
 11
5.75
 21
1.879699877176588
 31
0.0
  0
LINE
  5
150
330
2
100
AcDbEntity
  8
0
100
AcDbLine
 10
5.625
 20
0.8979234547345776
 30
0.0
 11
5.625
 21
1.879699877176588
 31
0.0
  0
LINE
  5
151
330
2
100
AcDbEntity
  8
0
100
AcDbLine
 10
5.75
 20
0.3796998771765914
 30
0.0
 11
5.75
 21
0.9432729345774042
 31
0.0
  0
LINE
  5
152
330
2
100
AcDbEntity
  8
0
100
AcDbLine
 10
5.625
 20
0.3796998771765878
 30
0.0
 11
5.625
 21
0.8979234547345776
 31
0.0
  0
ARC
  5
153
330
2
100
AcDbEntity
  8
0
100
AcDbCircle
 10
5.958333333333224
 20
2.379699877176655
 30
0.0
 40
0.3020833333332104
100
AcDbArc
 50
135.9513743258727
 51
224.0486256741283
  0
ARC
  5
154
330
2
100
AcDbEntity
  8
0
100
AcDbCircle
 10
5.718750000000002
 20
2.147943674454673
 30
0.0
 40
0.03125
100
AcDbArc
 50
0.0
 51
44.04862567413066
  0
ARC
  5
155
330
2
100
AcDbEntity
  8
0
100
AcDbCircle
 10
5.718749999999998
 20
2.611456079898638
 30
0.0
 40
0.03125
100
AcDbArc
 50
315.9513743258693
 51
0.0
  0
ARC
  5
156
330
2
100
AcDbEntity
  8
0
100
AcDbCircle
 10
5.718749999999998
 20
3.397943674454567
 30
0.0
 40
0.03125
100
AcDbArc
 50
0.0
 51
44.04862567413066
  0
ARC
  5
157
330
2
100
AcDbEntity
  8
0
100
AcDbCircle
 10
5.718750000000002
 20
3.861456079898538
 30
0.0
 40
0.03125
100
AcDbArc
 50
315.9513743258694
 51
0.0
  0
ARC
  5
158
330
2
100
AcDbEntity
  8
0
100
AcDbCircle
 10
5.958333333333224
 20
3.629699877176549
 30
0.0
 40
0.3020833333332104
100
AcDbArc
 50
135.9513743258718
 51
224.0486256741273
  0
LINE
  5
159
330
2
100
AcDbEntity
  8
0
100
AcDbLine
 10
5.375
 20
4.629699877176595
 30
0.0
 11
5.625
 21
4.629699877176595
 31
0.0
  0
LINE
  5
15A
330
2
100
AcDbEntity
  8
0
100
AcDbLine
 10
5.375
 20
5.129699877176595
 30
0.0
 11
5.625
 21
5.129699877176599
 31
0.0
  0
LINE
  5
15B
330
2
100
AcDbEntity
  8
0
100
AcDbLine
 10
5.40625
 20
4.129699877176599
 30
0.0
 11
5.750000000000002
 21
4.129699877176599
 31
0.0
  0
ARC
  5
15C
330
2
100
AcDbEntity
  8
0
100
AcDbCircle
 10
5.375
 20
4.879699877176595
 30
0.0
 40
0.25
100
AcDbArc
 50
90.0000386373839
 51
269.9999999999999
  0
CIRCLE
  5
15D
330
2
100
AcDbEntity
  8
0
100
AcDbCircle
 10
5.28125
 20
4.129699877176595
 30
0.0
 40
0.125
  0
ARC
  5
15E
330
2
100
AcDbEntity
  8
0
100
AcDbCircle
 10
5.047299786780723
 20
4.879699877176588
 30
0.0
 40
0.7965002132193202
100
AcDbArc
 50
331.913133398127
 51
28.08686660187345
  0
LINE
  5
15F
330
2
100
AcDbEntity
  8
0
100
AcDbLine
 10
5.625
 20
5.111476299618605
 30
0.0
 11
5.625
 21
4.129699877176595
 31
0.0
  0
LINE
  5
160
330
2
100
AcDbEntity
  8
0
100
AcDbLine
 10
5.75
 20
5.066126819775786
 30
0.0
 11
5.75
 21
4.129699877176595
 31
0.0
  0
LINE
  5
161
330
2
100
AcDbEntity
  8
0
100
AcDbLine
 10
5.625
 20
5.629699877176595
 30
0.0
 11
5.625
 21
5.111476299618605
 31
0.0
  0
LINE
  5
162
330
2
100
AcDbEntity
  8
0
100
AcDbLine
 10
5.75
 20
5.629699877176595
 30
0.0
 11
5.75
 21
5.066126819775786
 31
0.0
  0
ENDSEC
  0
SECTION
  2
OBJECTS
  0
DICTIONARY
  5
9
330
0
100
AcDbDictionary
281
     1
  3
ACAD_COLOR
350
10F
  3
ACAD_GROUP
350
23
  3
ACAD_LAYOUT
350
D
  3
ACAD_MATERIAL
350
10E
  3
ACAD_MLINESTYLE
350
24
  3
ACAD_PLOTSETTINGS
350
25
  3
ACAD_PLOTSTYLENAME
350
8
  3
ACAD_TABLESTYLE
350
110
  3
ACDBHEADERROUNDTRIPXREC
350
240
  3
AcDbVariableDictionary
350
10A
  0
DICTIONARY
  5
3
330
2
100
AcDbDictionary
280
     1
281
     1
  3
ACAD_SORTENTS
360
117
  0
DICTIONARY
  5
10F
102
{ACAD_REACTORS
330
9
102
}
330
9
100
AcDbDictionary
281
     1
  0
DICTIONARY
  5
23
102
{ACAD_REACTORS
330
9
102
}
330
9
100
AcDbDictionary
281
     1
  0
DICTIONARY
  5
D
102
{ACAD_REACTORS
330
9
102
}
330
9
100
AcDbDictionary
281
     1
  3
Layout1
350
13
  3
Model
350
C
  0
DICTIONARY
  5
10E
102
{ACAD_REACTORS
330
9
102
}
330
9
100
AcDbDictionary
281
     1
  0
DICTIONARY
  5
24
102
{ACAD_REACTORS
330
9
102
}
330
9
100
AcDbDictionary
281
     1
  3
Standard
350
27
  0
DICTIONARY
  5
25
102
{ACAD_REACTORS
330
9
102
}
330
9
100
AcDbDictionary
281
     1
  0
ACDBDICTIONARYWDFLT
  5
8
102
{ACAD_REACTORS
330
9
102
}
330
9
100
AcDbDictionary
281
     1
  3
Normal
350
7
100
AcDbDictionaryWithDefault
340
7
  0
DICTIONARY
  5
110
102
{ACAD_REACTORS
330
9
102
}
330
9
100
AcDbDictionary
281
     1
  3
Standard
350
111
  0
DICTIONARY
  5
240
102
{ACAD_REACTORS
330
9
102
}
330
9
100
AcDbDictionary
281
     1
  3
COLORDICT
350
241
  3
MATERIALDICT
350
242
  0
DICTIONARY
  5
10A
102
{ACAD_REACTORS
330
9
102
}
330
9
100
AcDbDictionary
281
     1
  3
CTABLESTYLE
350
1E6
  3
DIMASSOC
350
10C
  3
HIDETEXT
350
10B
  0
SORTENTSTABLE
  5
117
102
{ACAD_REACTORS
330
3
102
}
330
3
100
AcDbSortentsTable
330
2
331
137
  5
1B4
331
130
  5
1AD
331
131
  5
1AE
331
162
  5
1DF
331
154
  5
1D1
331
136
  5
1B3
331
124
  5
1A1
331
146
  5
1C3
331
15D
  5
1DA
331
151
  5
1CE
331
13E
  5
1BB
331
138
  5
1B5
331
155
  5
1D2
331
12B
  5
1A8
331
153
  5
1D0
331
14B
  5
1C8
331
156
  5
1D3
331
128
  5
1A5
331
134
  5
1B1
331
159
  5
1D6
331
13B
  5
1B8
331
157
  5
1D4
331
148
  5
1C5
331
13F
  5
1BC
331
14A
  5
1C7
331
14F
  5
1CC
331
143
  5
1C0
331
15C
  5
1D9
331
145
  5
1C2
331
139
  5
1B6
331
147
  5
1C4
331
13A
  5
1B7
331
12C
  5
1A9
331
11E
  5
19B
331
141
  5
1BE
331
120
  5
19D
331
126
  5
1A3
331
129
  5
1A6
331
12F
  5
1AC
331
15A
  5
1D7
331
127
  5
1A4
331
14E
  5
1CB
331
15E
  5
1DB
331
125
  5
1A2
331
161
  5
1DE
331
14D
  5
1CA
331
123
  5
1A0
331
144
  5
1C1
331
15B
  5
1D8
331
122
  5
19F
331
11C
  5
199
331
133
  5
1B0
331
160
  5
1DD
331
149
  5
1C6
331
12A
  5
1A7
331
158
  5
1D5
331
13C
  5
1B9
331
140
  5
1BD
331
150
  5
1CD
331
11B
  5
198
331
14C
  5
1C9
331
132
  5
1AF
331
12E
  5
1AB
331
15F
  5
1DC
331
142
  5
1BF
331
11F
  5
19C
331
121
  5
19E
331
13D
  5
1BA
331
11D
  5
19A
331
135
  5
1B2
331
152
  5
1CF
331
12D
  5
1AA
  0
LAYOUT
  5
13
102
{ACAD_REACTORS
330
D
102
}
102
{ACAD_XDICTIONARY
360
243
102
}
330
D
100
AcDbPlotSettings
  1

  2
hp psc 2100 series
  4

  6

 40
0.0
 41
0.0
 42
0.0
 43
0.0
 44
0.0
 45
0.0
 46
0.0
 47
0.0
 48
0.0
 49
0.0
140
0.0
141
0.0
142
1.0
143
1.0
 70
   688
 72
     0
 73
     0
 74
     5
  7

 75
    16
147
1.0
148
0.0
149
0.0
100
AcDbLayout
  1
Layout1
 70
     0
 71
     1
 10
0.0
 20
0.0
 11
12.0
 21
9.0
 12
0.0
 22
0.0
 32
0.0
 14
1.000000000000000E+20
 24
1.000000000000000E+20
 34
1.000000000000000E+20
 15
-1.000000000000000E+20
 25
-1.000000000000000E+20
 35
-1.000000000000000E+20
146
0.0
 13
0.0
 23
0.0
 33
0.0
 16
1.0
 26
0.0
 36
0.0
 17
0.0
 27
1.0
 37
0.0
 76
     0
330
E
  0
LAYOUT
  5
C
102
{ACAD_REACTORS
330
D
102
}
102
{ACAD_XDICTIONARY
360
245
102
}
330
D
100
AcDbPlotSettings
  1

  2
HP LaserJet 2100 Series PS
  4
Letter
  6

 40
5.365749835968018
 41
5.408073902130127
 42
5.132904052734375
 43
5.090576171875
 44
215.8999938964844
 45
279.3999938964844
 46
0.0
 47
0.0
 48
0.0
 49
0.0
140
0.0
141
0.0
142
1.0
143
3.895300780266023
 70
 28336
 72
     0
 73
     1
 74
     2
  7

 75
     0
147
0.2567195850615948
148
0.0
149
0.0
100
AcDbLayout
  1
Model
 70
     1
 71
     0
 10
0.0
 20
0.0
 11
12.0
 21
9.0
 12
0.0
 22
0.0
 32
0.0
 14
0.0
 24
0.0
 34
0.0
 15
0.0
 25
0.0
 35
0.0
146
0.0
 13
0.0
 23
0.0
 33
0.0
 16
1.0
 26
0.0
 36
0.0
 17
0.0
 27
1.0
 37
0.0
 76
     0
330
2
  0
MLINESTYLE
  5
27
102
{ACAD_REACTORS
330
24
102
}
330
24
100
AcDbMlineStyle
  2
STANDARD
 70
     0
  3

 62
   256
 51
90.0
 52
90.0
 71
     2
 49
0.5
 62
   256
  6
BYLAYER
 49
-0.5
 62
   256
  6
BYLAYER
  0
ACDBPLACEHOLDER
  5
7
102
{ACAD_REACTORS
330
8
102
}
330
8
  0
ACAD_PROXY_OBJECT
  5
111
102
{ACAD_REACTORS
330
110
102
}
330
110
100
AcDbProxyObject
 90
      499
 91
      520
 95
   983063
 70
     0
 93
     1841
310
4214DD185B99185C9928B81E85EB51B8AE3F2E07A17AD46E2B8FC02B5E8DC0F42B1CFD028000000C1008070000C3001FDFF8000000C1003FBFF000000182007F7FE00000030400FEFFC00000060801FDFF8000000C1003FBFF00000018200000000000000681FA0B0000001820100E000186003FBFF000000182007F7FE000
310
00030400FEFFC00000060801FDFF8000000C1003FBFF000000182007F7FE000000304000AD7A3703D0AC73F4160000003040201C00030C007F7FE00000030400FEFFC00000060801FDFF8000000C1003FBFF000000182007F7FE00000030400FEFFC000000608000
340
16
340
16
340
16
 94
        0
  0
XRECORD
  5
241
102
{ACAD_REACTORS
330
240
102
}
330
240
100
AcDbXrecord
340
10F
  0
XRECORD
  5
242
102
{ACAD_REACTORS
330
240
102
}
330
240
100
AcDbXrecord
340
10E
  0
DICTIONARYVAR
  5
1E6
102
{ACAD_REACTORS
330
10A
102
}
330
10A
100
DictionaryVariables
280
     0
  1
STANDARD
  0
DICTIONARYVAR
  5
10C
102
{ACAD_REACTORS
330
10A
102
}
330
10A
100
DictionaryVariables
280
     0
  1
2
  0
DICTIONARYVAR
  5
10B
102
{ACAD_REACTORS
330
10A
102
}
330
10A
100
DictionaryVariables
280
     0
  1
1
  0
DICTIONARY
  5
243
330
13
100
AcDbDictionary
280
     1
281
     1
  3
ACAD_XREC_ROUNDTRIP
360
244
  0
DICTIONARY
  5
245
330
C
100
AcDbDictionary
280
     1
281
     1
  3
ACAD_XREC_ROUNDTRIP
360
246
  0
XRECORD
  5
244
102
{ACAD_REACTORS
330
243
102
}
330
243
100
AcDbXrecord
102
SHADEPLOT
 70
     0
102
SHADEPLOTRESLEVEL
 70
     2
102
SHADEPLOTCUSTOMDPI
 70
   300
  0
XRECORD
  5
246
102
{ACAD_REACTORS
330
245
102
}
330
245
100
AcDbXrecord
102
SHADEPLOT
 70
     0
102
SHADEPLOTRESLEVEL
 70
     2
102
SHADEPLOTCUSTOMDPI
 70
   300
  0
ENDSEC
  0
EOF
