  0
SECTION
  2
HEADER
  9
$ACADVER
  1
AC1015
  9
$ACADMAINTVER
 70
     6
  9
$DWGCODEPAGE
  3
ANSI_1252
  9
$INSBASE
 10
0.0
 20
0.0
 30
0.0
  9
$EXTMIN
 10
-0.2338610360379829
 20
-0.0000000000000001
 30
0.0
  9
$EXTMAX
 10
14.76449201639433
 20
14.875
 30
0.0
  9
$LIMMIN
 10
0.0
 20
0.0
  9
$LIMMAX
 10
31.5
 20
24.0
  9
$ORTHOMODE
 70
     1
  9
$REGENMODE
 70
     1
  9
$FILLMODE
 70
     1
  9
$QTEXTMODE
 70
     0
  9
$MIRRTEXT
 70
     1
  9
$LTSCALE
 40
1.5
  9
$ATTMODE
 70
     1
  9
$TEXTSIZE
 40
0.270000000000005
  9
$TRACEWID
 40
0.05
  9
$TEXTSTYLE
  7
STANDARD
  9
$CLAYER
  8
0
  9
$CELTYPE
  6
ByLayer
  9
$CECOLOR
 62
   256
  9
$CELTSCALE
 40
1.0
  9
$DISPSILH
 70
     0
  9
$DIMSCALE
 40
3.00000000000005
  9
$DIMASZ
 40
0.125
  9
$DIMEXO
 40
0.062
  9
$DIMDLI
 40
0.375
  9
$DIMRND
 40
0.0
  9
$DIMDLE
 40
0.0
  9
$DIMEXE
 40
0.08
  9
$DIMTP
 40
0.0
  9
$DIMTM
 40
0.0
  9
$DIMTXT
 40
0.09
  9
$DIMCEN
 40
-0.03125
  9
$DIMTSZ
 40
0.0
  9
$DIMTOL
 70
     0
  9
$DIMLIM
 70
     0
  9
$DIMTIH
 70
     1
  9
$DIMTOH
 70
     1
  9
$DIMSE1
 70
     0
  9
$DIMSE2
 70
     0
  9
$DIMTAD
 70
     0
  9
$DIMZIN
 70
     0
  9
$DIMBLK
  1

  9
$DIMASO
 70
     0
  9
$DIMSHO
 70
     0
  9
$DIMPOST
  1

  9
$DIMAPOST
  1

  9
$DIMALT
 70
     0
  9
$DIMALTD
 70
     2
  9
$DIMALTF
 40
25.4
  9
$DIMLFAC
 40
1.0
  9
$DIMTOFL
 70
     0
  9
$DIMTVP
 40
0.0
  9
$DIMTIX
 70
     0
  9
$DIMSOXD
 70
     0
  9
$DIMSAH
 70
     0
  9
$DIMBLK1
  1

  9
$DIMBLK2
  1

  9
$DIMSTYLE
  2
Standard
  9
$DIMCLRD
 70
     0
  9
$DIMCLRE
 70
     0
  9
$DIMCLRT
 70
     0
  9
$DIMTFAC
 40
1.0
  9
$DIMGAP
 40
0.09
  9
$DIMJUST
 70
     0
  9
$DIMSD1
 70
     0
  9
$DIMSD2
 70
     0
  9
$DIMTOLJ
 70
     1
  9
$DIMTZIN
 70
     0
  9
$DIMALTZ
 70
     0
  9
$DIMALTTZ
 70
     0
  9
$DIMUPT
 70
     0
  9
$DIMDEC
 70
     5
  9
$DIMTDEC
 70
     5
  9
$DIMALTU
 70
     5
  9
$DIMALTTD
 70
     2
  9
$DIMTXSTY
  7
STANDARD
  9
$DIMAUNIT
 70
     0
  9
$DIMADEC
 70
     0
  9
$DIMALTRND
 40
0.0
  9
$DIMAZIN
 70
     0
  9
$DIMDSEP
 70
    46
  9
$DIMATFIT
 70
     3
  9
$DIMFRAC
 70
     0
  9
$DIMLDRBLK
  1

  9
$DIMLUNIT
 70
     5
  9
$DIMLWD
 70
    -2
  9
$DIMLWE
 70
    -2
  9
$DIMTMOVE
 70
     2
  9
$LUNITS
 70
     5
  9
$LUPREC
 70
     5
  9
$SKETCHINC
 40
0.1
  9
$FILLETRAD
 40
0.03125
  9
$AUNITS
 70
     0
  9
$AUPREC
 70
     0
  9
$MENU
  1
acad
  9
$ELEVATION
 40
0.0
  9
$PELEVATION
 40
0.0
  9
$THICKNESS
 40
0.0
  9
$LIMCHECK
 70
     0
  9
$CHAMFERA
 40
0.0
  9
$CHAMFERB
 40
0.0
  9
$CHAMFERC
 40
0.0
  9
$CHAMFERD
 40
0.0
  9
$SKPOLY
 70
     0
  9
$TDCREATE
 40
2449219.812805092
  9
$TDUCREATE
 40
2449220.146138426
  9
$TDUPDATE
 40
2454162.882910243
  9
$TDUUPDATE
 40
2454163.216243576
  9
$TDINDWG
 40
0.0278511227
  9
$TDUSRTIMER
 40
0.0278511227
  9
$USRTIMER
 70
     1
  9
$ANGBASE
 50
0.0
  9
$ANGDIR
 70
     0
  9
$PDMODE
 70
     0
  9
$PDSIZE
 40
0.0
  9
$PLINEWID
 40
0.0
  9
$SPLFRAME
 70
     0
  9
$SPLINETYPE
 70
     6
  9
$SPLINESEGS
 70
     8
  9
$HANDSEED
  5
22F
  9
$SURFTAB1
 70
     6
  9
$SURFTAB2
 70
     6
  9
$SURFTYPE
 70
     6
  9
$SURFU
 70
     6
  9
$SURFV
 70
     6
  9
$UCSBASE
  2

  9
$UCSNAME
  2

  9
$UCSORG
 10
0.0
 20
0.0
 30
0.0
  9
$UCSXDIR
 10
1.0
 20
0.0
 30
0.0
  9
$UCSYDIR
 10
0.0
 20
1.0
 30
0.0
  9
$UCSORTHOREF
  2

  9
$UCSORTHOVIEW
 70
     0
  9
$UCSORGTOP
 10
0.0
 20
0.0
 30
0.0
  9
$UCSORGBOTTOM
 10
0.0
 20
0.0
 30
0.0
  9
$UCSORGLEFT
 10
0.0
 20
0.0
 30
0.0
  9
$UCSORGRIGHT
 10
0.0
 20
0.0
 30
0.0
  9
$UCSORGFRONT
 10
0.0
 20
0.0
 30
0.0
  9
$UCSORGBACK
 10
0.0
 20
0.0
 30
0.0
  9
$PUCSBASE
  2

  9
$PUCSNAME
  2

  9
$PUCSORG
 10
0.0
 20
0.0
 30
0.0
  9
$PUCSXDIR
 10
1.0
 20
0.0
 30
0.0
  9
$PUCSYDIR
 10
0.0
 20
1.0
 30
0.0
  9
$PUCSORTHOREF
  2

  9
$PUCSORTHOVIEW
 70
     0
  9
$PUCSORGTOP
 10
0.0
 20
0.0
 30
0.0
  9
$PUCSORGBOTTOM
 10
0.0
 20
0.0
 30
0.0
  9
$PUCSORGLEFT
 10
0.0
 20
0.0
 30
0.0
  9
$PUCSORGRIGHT
 10
0.0
 20
0.0
 30
0.0
  9
$PUCSORGFRONT
 10
0.0
 20
0.0
 30
0.0
  9
$PUCSORGBACK
 10
0.0
 20
0.0
 30
0.0
  9
$USERI1
 70
     0
  9
$USERI2
 70
     0
  9
$USERI3
 70
     0
  9
$USERI4
 70
     0
  9
$USERI5
 70
     0
  9
$USERR1
 40
0.0
  9
$USERR2
 40
0.0
  9
$USERR3
 40
0.0
  9
$USERR4
 40
0.0
  9
$USERR5
 40
0.0
  9
$WORLDVIEW
 70
     1
  9
$SHADEDGE
 70
     3
  9
$SHADEDIF
 70
    70
  9
$TILEMODE
 70
     1
  9
$MAXACTVP
 70
    16
  9
$PINSBASE
 10
0.0
 20
0.0
 30
0.0
  9
$PLIMCHECK
 70
     0
  9
$PEXTMIN
 10
1.000000000000000E+20
 20
1.000000000000000E+20
 30
1.000000000000000E+20
  9
$PEXTMAX
 10
-1.000000000000000E+20
 20
-1.000000000000000E+20
 30
-1.000000000000000E+20
  9
$PLIMMIN
 10
0.0
 20
0.0
  9
$PLIMMAX
 10
12.0
 20
9.0
  9
$UNITMODE
 70
     0
  9
$VISRETAIN
 70
     0
  9
$PLINEGEN
 70
     0
  9
$PSLTSCALE
 70
     0
  9
$TREEDEPTH
 70
  3020
  9
$CMLSTYLE
  2
Standard
  9
$CMLJUST
 70
     0
  9
$CMLSCALE
 40
1.0
  9
$PROXYGRAPHICS
 70
     1
  9
$MEASUREMENT
 70
     0
  9
$CELWEIGHT
370
    -1
  9
$ENDCAPS
280
     0
  9
$JOINSTYLE
280
     0
  9
$LWDISPLAY
290
     0
  9
$INSUNITS
 70
     0
  9
$HYPERLINKBASE
  1

  9
$STYLESHEET
  1

  9
$XEDIT
290
     1
  9
$CEPSNTYPE
380
     0
  9
$PSTYLEMODE
290
     1
  9
$FINGERPRINTGUID
  2
{EC8B2B39-904B-4C0F-92DB-345FC95C40FD}
  9
$VERSIONGUID
  2
{93654A77-1D5C-446B-9966-F8BEEF01C2B3}
  9
$EXTNAMES
290
     1
  9
$PSVPSCALE
 40
0.0
  9
$OLESTARTUP
290
     0
  0
ENDSEC
  0
SECTION
  2
CLASSES
  0
CLASS
  1
ACDBDICTIONARYWDFLT
  2
AcDbDictionaryWithDefault
  3
AutoCAD 2000
 90
        0
280
     0
281
     0
  0
CLASS
  1
ACDBPLACEHOLDER
  2
AcDbPlaceHolder
  3
ObjectDBX Classes
 90
        0
280
     0
281
     0
  0
CLASS
  1
LAYOUT
  2
AcDbLayout
  3
ObjectDBX Classes
 90
        0
280
     0
281
     0
  0
CLASS
  1
DICTIONARYVAR
  2
AcDbDictionaryVar
  3
AutoCAD 2000
 90
        0
280
     0
281
     0
  0
CLASS
  1
LONG_TRANSACTION
  2
AcDbLongTransaction
  3
ObjectDBX Classes
 90
   -65536
280
     1
281
     0
  0
CLASS
  1
LWPOLYLINE
  2
AcDbPolyline
  3
AutoCAD 2000
 90
        0
280
     0
281
     1
  0
CLASS
  1
HATCH
  2
AcDbHatch
  3
AutoCAD 2000
 90
        0
280
     0
281
     1
  0
CLASS
  1
XRECORD
  2
AcDbXrecord
  3
AutoCAD 2000
 90
        0
280
     0
281
     0
  0
CLASS
  1
LONG_TRANSACTION
  2
AcDbLongTransaction
  3
ObjectDBX Classes
 90
   -65536
280
     1
281
     0
  0
CLASS
  1
LWPOLYLINE
  2
AcDbPolyline
  3
AutoCAD 2000
 90
        0
280
     0
281
     1
  0
CLASS
  1
HATCH
  2
AcDbHatch
  3
AutoCAD 2000
 90
        0
280
     0
281
     1
  0
CLASS
  1
XRECORD
  2
AcDbXrecord
  3
AutoCAD 2000
 90
        0
280
     0
281
     0
  0
CLASS
  1
LONG_TRANSACTION
  2
AcDbLongTransaction
  3
ObjectDBX Classes
 90
   -65536
280
     1
281
     0
  0
CLASS
  1
LWPOLYLINE
  2
AcDbPolyline
  3
AutoCAD 2000
 90
        0
280
     0
281
     1
  0
CLASS
  1
HATCH
  2
AcDbHatch
  3
AutoCAD 2000
 90
        0
280
     0
281
     1
  0
CLASS
  1
XRECORD
  2
AcDbXrecord
  3
AutoCAD 2000
 90
        0
280
     0
281
     0
  0
CLASS
  1
LONG_TRANSACTION
  2
AcDbLongTransaction
  3
ObjectDBX Classes
 90
   -65536
280
     1
281
     0
  0
CLASS
  1
LWPOLYLINE
  2
AcDbPolyline
  3
AutoCAD 2000
 90
        0
280
     0
281
     1
  0
CLASS
  1
HATCH
  2
AcDbHatch
  3
AutoCAD 2000
 90
        0
280
     0
281
     1
  0
CLASS
  1
XRECORD
  2
AcDbXrecord
  3
AutoCAD 2000
 90
        0
280
     0
281
     0
  0
CLASS
  1
TABLESTYLE
  2
AcDbTableStyle
  3
ObjectDBX Classes
 90
     2047
280
     1
281
     0
  0
CLASS
  1
SORTENTSTABLE
  2
AcDbSortentsTable
  3
AutoCAD 2000
 90
        0
280
     0
281
     0
  0
ENDSEC
  0
SECTION
  2
TABLES
  0
TABLE
  2
VPORT
  5
1D
330
0
100
AcDbSymbolTable
 70
     2
  0
VPORT
  5
222
330
1D
100
AcDbSymbolTableRecord
100
AcDbViewportTableRecord
  2
*Active
 70
     0
 10
0.0
 20
0.0
 11
1.0
 21
1.0
 12
15.63271933831768
 22
11.99945081212066
 13
0.0
 23
0.0
 14
0.03125
 24
0.03125
 15
0.25
 25
0.25
 16
0.0
 26
0.0
 36
1.0
 17
0.0
 27
0.0
 37
0.0
 40
24.3004883762879
 41
1.814583333333333
 42
50.0
 43
0.0
 44
0.0
 50
0.0
 51
0.0
 71
     0
 72
   100
 73
     1
 74
     1
 75
     0
 76
     0
 77
     0
 78
     0
281
     0
 65
     1
110
0.0
120
0.0
130
0.0
111
1.0
121
0.0
131
0.0
112
0.0
122
1.0
132
0.0
 79
     0
146
0.0
  0
ENDTAB
  0
TABLE
  2
LTYPE
  5
18
330
0
100
AcDbSymbolTable
 70
     2
  0
LTYPE
  5
19
330
18
100
AcDbSymbolTableRecord
100
AcDbLinetypeTableRecord
  2
ByBlock
 70
     0
  3

 72
    65
 73
     0
 40
0.0
  0
LTYPE
  5
1A
330
18
100
AcDbSymbolTableRecord
100
AcDbLinetypeTableRecord
  2
ByLayer
 70
     0
  3

 72
    65
 73
     0
 40
0.0
  0
LTYPE
  5
A
330
18
100
AcDbSymbolTableRecord
100
AcDbLinetypeTableRecord
  2
CONTINUOUS
 70
     0
  3
Solid line
 72
    65
 73
     0
 40
0.0
  0
LTYPE
  5
210
330
18
100
AcDbSymbolTableRecord
100
AcDbLinetypeTableRecord
  2
HIDDEN
 70
     0
  3
Hidden __ __ __ __ __ __ __ __ __ __ __ __ __ _
 72
    65
 73
     2
 40
0.375
 49
0.25
 74
     0
 49
-0.125
 74
     0
  0
ENDTAB
  0
TABLE
  2
LAYER
  5
14
330
0
100
AcDbSymbolTable
 70
     1
  0
LAYER
  5
6
330
14
100
AcDbSymbolTableRecord
100
AcDbLayerTableRecord
  2
0
 70
     0
 62
     7
  6
CONTINUOUS
370
    -3
390
7
  0
ENDTAB
  0
TABLE
  2
STYLE
  5
15
330
0
100
AcDbSymbolTable
 70
     2
  0
STYLE
  5
16
330
15
100
AcDbSymbolTableRecord
100
AcDbTextStyleTableRecord
  2
STANDARD
 70
     0
 40
0.0
 41
1.0
 50
0.0
 71
     0
 42
0.270000000000005
  3
TXT
  4

  0
ENDTAB
  0
TABLE
  2
VIEW
  5
1B
330
0
100
AcDbSymbolTable
 70
     0
  0
ENDTAB
  0
TABLE
  2
UCS
  5
1C
330
0
100
AcDbSymbolTable
 70
     0
  0
ENDTAB
  0
TABLE
  2
APPID
  5
1F
330
0
100
AcDbSymbolTable
 70
     1
  0
APPID
  5
20
330
1F
100
AcDbSymbolTableRecord
100
AcDbRegAppTableRecord
  2
ACAD
 70
     0
  0
ENDTAB
  0
TABLE
  2
DIMSTYLE
  5
21
330
0
100
AcDbSymbolTable
 70
     1
100
AcDbDimStyleTable
  0
DIMSTYLE
105
28
330
21
100
AcDbSymbolTableRecord
100
AcDbDimStyleTableRecord
  2
Standard
 70
     0
  3

  4

340
16
  0
ENDTAB
  0
TABLE
  2
BLOCK_RECORD
  5
1
330
0
100
AcDbSymbolTable
 70
     0
  0
BLOCK_RECORD
  5
2
102
{ACAD_XDICTIONARY
360
3
102
}
330
1
100
AcDbSymbolTableRecord
100
AcDbBlockTableRecord
  2
*Model_Space
340
C
  0
BLOCK_RECORD
  5
E
330
1
100
AcDbSymbolTableRecord
100
AcDbBlockTableRecord
  2
*Paper_Space
340
13
  0
ENDTAB
  0
ENDSEC
  0
SECTION
  2
BLOCKS
  0
BLOCK
  5
5
330
2
100
AcDbEntity
  8
0
100
AcDbBlockBegin
  2
*Model_Space
 70
     0
 10
0.0
 20
0.0
 30
0.0
  3
*Model_Space
  1

  4

  0
ENDBLK
  5
B
330
2
100
AcDbEntity
  8
0
100
AcDbBlockEnd
  0
BLOCK
  5
11
330
E
100
AcDbEntity
 67
     1
  8
0
100
AcDbBlockBegin
  2
*Paper_Space
 70
     0
 10
0.0
 20
0.0
 30
0.0
  3
*Paper_Space
  1

  4

  0
ENDBLK
  5
12
330
E
100
AcDbEntity
 67
     1
  8
0
100
AcDbBlockEnd
  0
ENDSEC
  0
SECTION
  2
ENTITIES
  0
LINE
  5
11B
330
2
100
AcDbEntity
  8
0
100
AcDbLine
 10
0.0
 20
9.624999999999996
 30
0.0
 11
5.75
 21
9.625
 31
0.0
  0
LINE
  5
11C
330
2
100
AcDbEntity
  8
0
100
AcDbLine
 10
-0.0000000000000071
 20
14.875
 30
0.0
 11
5.75
 21
14.875
 31
0.0
  0
LINE
  5
11D
330
2
100
AcDbEntity
  8
0
100
AcDbLine
 10
-0.0000000000000036
 20
13.375
 30
0.0
 11
-0.0000000000000036
 21
12.25000000000001
 31
0.0
  0
CIRCLE
  5
11E
330
2
100
AcDbEntity
  8
0
100
AcDbCircle
 10
0.4687500000000036
 20
11.125
 30
0.0
 40
0.125
  0
LINE
  5
11F
330
2
100
AcDbEntity
  8
0
100
AcDbLine
 10
0.0000000000000036
 20
11.12499999999999
 30
0.0
 11
-0.0000000000000036
 21
12.25000000000001
 31
0.0
  0
ARC
  5
120
330
2
100
AcDbEntity
  8
0
100
AcDbCircle
 10
0.375
 20
10.375
 30
0.0
 40
0.25
100
AcDbArc
 50
270.0000000000001
 51
89.99996136261612
  0
ARC
  5
121
330
2
100
AcDbEntity
  8
0
100
AcDbCircle
 10
0.375
 20
10.375
 30
0.0
 40
0.25
100
AcDbArc
 50
270.0000386373841
 51
90.00000000000006
  0
ARC
  5
122
330
2
100
AcDbEntity
  8
0
100
AcDbCircle
 10
0.7027002132192415
 20
10.375
 30
0.0
 40
0.7965002132192919
100
AcDbArc
 50
151.9131333981258
 51
208.0868666018743
  0
LINE
  5
123
330
2
100
AcDbEntity
  8
0
100
AcDbLine
 10
0.125
 20
10.14322357755799
 30
0.0
 11
0.1249999999999982
 21
11.125
 31
0.0
  0
LINE
  5
124
330
2
100
AcDbEntity
  8
0
100
AcDbLine
 10
0.0
 20
10.18857305740081
 30
0.0
 11
-0.0000000000000018
 21
11.125
 31
0.0
  0
LINE
  5
125
330
2
100
AcDbEntity
  8
0
100
AcDbLine
 10
0.125
 20
9.624999999999993
 30
0.0
 11
0.125
 21
10.14322357755799
 31
0.0
  0
LINE
  5
126
330
2
100
AcDbEntity
  8
0
100
AcDbLine
 10
0.0
 20
9.624999999999996
 30
0.0
 11
0.0
 21
10.18857305740081
 31
0.0
  0
LINE
  5
127
330
2
100
AcDbEntity
  8
0
100
AcDbLine
 10
0.375
 20
10.125
 30
0.0
 11
0.1249999999999929
 21
10.125
 31
0.0
  0
LINE
  5
128
330
2
100
AcDbEntity
  8
0
100
AcDbLine
 10
0.375
 20
10.625
 30
0.0
 11
0.1249999999999929
 21
10.625
 31
0.0
  0
LINE
  5
129
330
2
100
AcDbEntity
  8
0
100
AcDbLine
 10
0.3437499999998472
 20
11.125
 30
0.0
 11
0.0
 21
11.12499999999999
 31
0.0
  0
LINE
  5
12A
330
2
100
AcDbEntity
  8
0
100
AcDbLine
 10
0.0034612768611204
 20
11.84246112082924
 30
0.0
 11
0.4505122655100671
 21
11.66892828170636
 31
0.0
  0
ARC
  5
12B
330
2
100
AcDbEntity
  8
0
100
AcDbCircle
 10
-0.208333333333222
 20
11.62500000000006
 30
0.0
 40
0.3020833333332104
100
AcDbArc
 50
315.9513743258719
 51
44.04862567412739
  0
LINE
  5
12C
330
2
100
AcDbEntity
  8
0
100
AcDbLine
 10
0.0034612768611559
 20
11.40753887917079
 30
0.0
 11
0.4505122655100671
 21
11.58107171829365
 31
0.0
  0
ARC
  5
12D
330
2
100
AcDbEntity
  8
0
100
AcDbCircle
 10
0.03125
 20
11.39324379727808
 30
0.0
 40
0.03125
100
AcDbArc
 50
135.9513743258694
 51
180.0000000000001
  0
ARC
  5
12E
330
2
100
AcDbEntity
  8
0
100
AcDbCircle
 10
0.4341546467552746
 20
11.625
 30
0.0
 40
0.046875
100
AcDbArc
 50
290.423872154456
 51
69.57612784554424
  0
ARC
  5
12F
330
2
100
AcDbEntity
  8
0
100
AcDbCircle
 10
0.0312500000000036
 20
11.85675620272205
 30
0.0
 40
0.03125
100
AcDbArc
 50
180.0000000000001
 51
224.0486256741308
  0
ARC
  5
130
330
2
100
AcDbEntity
  8
0
100
AcDbCircle
 10
0.03125
 20
12.64324379727798
 30
0.0
 40
0.03125
100
AcDbArc
 50
135.9513743258694
 51
180.0000000000001
  0
LINE
  5
131
330
2
100
AcDbEntity
  8
0
100
AcDbLine
 10
0.0034612768611524
 20
13.09246112082923
 30
0.0
 11
0.4505122655100635
 21
12.91892828170637
 31
0.0
  0
LINE
  5
132
330
2
100
AcDbEntity
  8
0
100
AcDbLine
 10
0.0034612768611169
 20
12.65753887917079
 30
0.0
 11
0.4505122655100635
 21
12.83107171829366
 31
0.0
  0
ARC
  5
133
330
2
100
AcDbEntity
  8
0
100
AcDbCircle
 10
-0.208333333333222
 20
12.87499999999996
 30
0.0
 40
0.3020833333332104
100
AcDbArc
 50
315.9513743258728
 51
44.0486256741283
  0
ARC
  5
134
330
2
100
AcDbEntity
  8
0
100
AcDbCircle
 10
0.0312499999999964
 20
13.10675620272194
 30
0.0
 40
0.03125
100
AcDbArc
 50
180.0000000000001
 51
224.0486256741307
  0
ARC
  5
135
330
2
100
AcDbEntity
  8
0
100
AcDbCircle
 10
0.4341546467552711
 20
12.87500000000001
 30
0.0
 40
0.046875
100
AcDbArc
 50
290.423872154456
 51
69.57612784554424
  0
ARC
  5
136
330
2
100
AcDbEntity
  8
0
100
AcDbCircle
 10
0.3749999999999929
 20
14.125
 30
0.0
 40
0.25
100
AcDbArc
 50
270.0000000000001
 51
89.99996136261612
  0
ARC
  5
137
330
2
100
AcDbEntity
  8
0
100
AcDbCircle
 10
0.7027002132192735
 20
14.125
 30
0.0
 40
0.7965002132193202
100
AcDbArc
 50
151.9131333981266
 51
208.086866601873
  0
LINE
  5
138
330
2
100
AcDbEntity
  8
0
100
AcDbLine
 10
-0.0000000000000053
 20
14.31142694259919
 30
0.0
 11
-0.0000000000000053
 21
13.375
 31
0.0
  0
LINE
  5
139
330
2
100
AcDbEntity
  8
0
100
AcDbLine
 10
0.1249999999999947
 20
14.35677642244201
 30
0.0
 11
0.1249999999999947
 21
13.375
 31
0.0
  0
LINE
  5
13A
330
2
100
AcDbEntity
  8
0
100
AcDbLine
 10
0.34375
 20
13.375
 30
0.0
 11
0.0
 21
13.375
 31
0.0
  0
CIRCLE
  5
13B
330
2
100
AcDbEntity
  8
0
100
AcDbCircle
 10
0.46875
 20
13.375
 30
0.0
 40
0.125
  0
LINE
  5
13C
330
2
100
AcDbEntity
  8
0
100
AcDbLine
 10
0.3749999999999929
 20
13.875
 30
0.0
 11
0.1249999999999929
 21
13.875
 31
0.0
  0
LINE
  5
13D
330
2
100
AcDbEntity
  8
0
100
AcDbLine
 10
-0.0000000000000071
 20
14.875
 30
0.0
 11
-0.0000000000000053
 21
14.31142694259919
 31
0.0
  0
LINE
  5
13E
330
2
100
AcDbEntity
  8
0
100
AcDbLine
 10
0.1249999999999929
 20
14.875
 30
0.0
 11
0.1249999999999947
 21
14.35677642244201
 31
0.0
  0
LINE
  5
13F
330
2
100
AcDbEntity
  8
0
100
AcDbLine
 10
0.3749999999999929
 20
14.375
 30
0.0
 11
0.1249999999999929
 21
14.37500000000001
 31
0.0
  0
LINE
  5
140
330
2
100
AcDbEntity
  8
0
100
AcDbLine
 10
5.750000000000004
 20
13.375
 30
0.0
 11
5.750000000000002
 21
12.25000000000001
 31
0.0
  0
LINE
  5
141
330
2
100
AcDbEntity
  8
0
100
AcDbLine
 10
5.374999999999996
 20
10.625
 30
0.0
 11
5.625
 21
10.625
 31
0.0
  0
LINE
  5
142
330
2
100
AcDbEntity
  8
0
100
AcDbLine
 10
5.374999999999996
 20
10.125
 30
0.0
 11
5.625
 21
10.125
 31
0.0
  0
LINE
  5
143
330
2
100
AcDbEntity
  8
0
100
AcDbLine
 10
5.746538723138846
 20
11.40753887917079
 30
0.0
 11
5.299487734489935
 21
11.58107171829365
 31
0.0
  0
LINE
  5
144
330
2
100
AcDbEntity
  8
0
100
AcDbLine
 10
5.746538723138881
 20
11.84246112082924
 30
0.0
 11
5.299487734489935
 21
11.66892828170636
 31
0.0
  0
LINE
  5
145
330
2
100
AcDbEntity
  8
0
100
AcDbLine
 10
5.746538723138881
 20
12.65753887917079
 30
0.0
 11
5.299487734489935
 21
12.83107171829366
 31
0.0
  0
LINE
  5
146
330
2
100
AcDbEntity
  8
0
100
AcDbLine
 10
5.746538723138846
 20
13.09246112082924
 30
0.0
 11
5.299487734489935
 21
12.91892828170637
 31
0.0
  0
LINE
  5
147
330
2
100
AcDbEntity
  8
0
100
AcDbLine
 10
5.40625
 20
11.125
 30
0.0
 11
5.750000000000004
 21
11.125
 31
0.0
  0
CIRCLE
  5
148
330
2
100
AcDbEntity
  8
0
100
AcDbCircle
 10
5.28125
 20
11.125
 30
0.0
 40
0.125
  0
ARC
  5
149
330
2
100
AcDbEntity
  8
0
100
AcDbCircle
 10
5.374999999999996
 20
10.375
 30
0.0
 40
0.25
100
AcDbArc
 50
89.99999999999993
 51
269.999961362616
  0
ARC
  5
14A
330
2
100
AcDbEntity
  8
0
100
AcDbCircle
 10
5.374999999999996
 20
10.375
 30
0.0
 40
0.25
100
AcDbArc
 50
90.0000386373839
 51
269.9999999999999
  0
ARC
  5
14B
330
2
100
AcDbEntity
  8
0
100
AcDbCircle
 10
5.315845353244727
 20
11.62500000000001
 30
0.0
 40
0.046875
100
AcDbArc
 50
110.4238721544558
 51
249.5761278455441
  0
ARC
  5
14C
330
2
100
AcDbEntity
  8
0
100
AcDbCircle
 10
5.315845353244727
 20
12.87500000000002
 30
0.0
 40
0.046875
100
AcDbArc
 50
110.4238721544558
 51
249.5761278455441
  0
LINE
  5
14D
330
2
100
AcDbEntity
  8
0
100
AcDbLine
 10
5.750000000000002
 20
11.125
 30
0.0
 11
5.750000000000002
 21
12.25000000000001
 31
0.0
  0
ARC
  5
14E
330
2
100
AcDbEntity
  8
0
100
AcDbCircle
 10
5.047299786780751
 20
10.375
 30
0.0
 40
0.7965002132192919
100
AcDbArc
 50
331.9131333981257
 51
28.08686660187427
  0
LINE
  5
14F
330
2
100
AcDbEntity
  8
0
100
AcDbLine
 10
5.75
 20
10.18857305740081
 30
0.0
 11
5.75
 21
11.125
 31
0.0
  0
LINE
  5
150
330
2
100
AcDbEntity
  8
0
100
AcDbLine
 10
5.625
 20
10.14322357755799
 30
0.0
 11
5.625
 21
11.125
 31
0.0
  0
LINE
  5
151
330
2
100
AcDbEntity
  8
0
100
AcDbLine
 10
5.75
 20
9.625
 30
0.0
 11
5.75
 21
10.18857305740081
 31
0.0
  0
LINE
  5
152
330
2
100
AcDbEntity
  8
0
100
AcDbLine
 10
5.625
 20
9.624999999999996
 30
0.0
 11
5.625
 21
10.14322357755799
 31
0.0
  0
ARC
  5
153
330
2
100
AcDbEntity
  8
0
100
AcDbCircle
 10
5.958333333333224
 20
11.62500000000006
 30
0.0
 40
0.3020833333332104
100
AcDbArc
 50
135.9513743258727
 51
224.0486256741283
  0
ARC
  5
154
330
2
100
AcDbEntity
  8
0
100
AcDbCircle
 10
5.718750000000002
 20
11.39324379727808
 30
0.0
 40
0.03125
100
AcDbArc
 50
0.0
 51
44.04862567413066
  0
ARC
  5
155
330
2
100
AcDbEntity
  8
0
100
AcDbCircle
 10
5.718749999999998
 20
11.85675620272205
 30
0.0
 40
0.03125
100
AcDbArc
 50
315.9513743258693
 51
0.0
  0
ARC
  5
156
330
2
100
AcDbEntity
  8
0
100
AcDbCircle
 10
5.718749999999998
 20
12.64324379727798
 30
0.0
 40
0.03125
100
AcDbArc
 50
0.0
 51
44.04862567413066
  0
ARC
  5
157
330
2
100
AcDbEntity
  8
0
100
AcDbCircle
 10
5.718750000000002
 20
13.10675620272195
 30
0.0
 40
0.03125
100
AcDbArc
 50
315.9513743258694
 51
0.0
  0
ARC
  5
158
330
2
100
AcDbEntity
  8
0
100
AcDbCircle
 10
5.958333333333224
 20
12.87499999999996
 30
0.0
 40
0.3020833333332104
100
AcDbArc
 50
135.9513743258718
 51
224.0486256741273
  0
LINE
  5
159
330
2
100
AcDbEntity
  8
0
100
AcDbLine
 10
5.375
 20
13.875
 30
0.0
 11
5.625
 21
13.875
 31
0.0
  0
LINE
  5
15A
330
2
100
AcDbEntity
  8
0
100
AcDbLine
 10
5.375
 20
14.375
 30
0.0
 11
5.625
 21
14.37500000000001
 31
0.0
  0
LINE
  5
15B
330
2
100
AcDbEntity
  8
0
100
AcDbLine
 10
5.40625
 20
13.37500000000001
 30
0.0
 11
5.750000000000002
 21
13.37500000000001
 31
0.0
  0
ARC
  5
15C
330
2
100
AcDbEntity
  8
0
100
AcDbCircle
 10
5.375
 20
14.125
 30
0.0
 40
0.25
100
AcDbArc
 50
90.0000386373839
 51
269.9999999999999
  0
CIRCLE
  5
15D
330
2
100
AcDbEntity
  8
0
100
AcDbCircle
 10
5.28125
 20
13.375
 30
0.0
 40
0.125
  0
ARC
  5
15E
330
2
100
AcDbEntity
  8
0
100
AcDbCircle
 10
5.047299786780723
 20
14.125
 30
0.0
 40
0.7965002132193202
100
AcDbArc
 50
331.913133398127
 51
28.08686660187345
  0
LINE
  5
15F
330
2
100
AcDbEntity
  8
0
100
AcDbLine
 10
5.625
 20
14.35677642244201
 30
0.0
 11
5.625
 21
13.375
 31
0.0
  0
LINE
  5
160
330
2
100
AcDbEntity
  8
0
100
AcDbLine
 10
5.75
 20
14.31142694259919
 30
0.0
 11
5.75
 21
13.375
 31
0.0
  0
LINE
  5
161
330
2
100
AcDbEntity
  8
0
100
AcDbLine
 10
5.625
 20
14.875
 30
0.0
 11
5.625
 21
14.35677642244201
 31
0.0
  0
LINE
  5
162
330
2
100
AcDbEntity
  8
0
100
AcDbLine
 10
5.75
 20
14.875
 30
0.0
 11
5.75
 21
14.31142694259919
 31
0.0
  0
LINE
  5
163
330
2
100
AcDbEntity
  8
0
100
AcDbLine
 10
5.75
 20
3.625
 30
0.0
 11
5.75
 21
7.874999999999996
 31
0.0
  0
LINE
  5
164
330
2
100
AcDbEntity
  8
0
100
AcDbLine
 10
-0.0000000000000053
 20
3.625
 30
0.0
 11
0.0
 21
7.874999999999993
 31
0.0
  0
LINE
  5
165
330
2
100
AcDbEntity
  8
0
100
AcDbLine
 10
5.625
 20
3.625
 30
0.0
 11
5.625
 21
7.874999999999996
 31
0.0
  0
LINE
  5
166
330
2
100
AcDbEntity
  8
0
100
AcDbLine
 10
0.1249999999999947
 20
3.625
 30
0.0
 11
0.125
 21
7.874999999999993
 31
0.0
  0
LINE
  5
167
330
2
100
AcDbEntity
  8
0
100
AcDbLine
 10
0.3750003576278633
 20
3.25
 30
0.0
 11
5.374999999999998
 21
3.25
 31
0.0
  0
LINE
  5
168
330
2
100
AcDbEntity
  8
0
100
AcDbLine
 10
0.3750001192092842
 20
3.375
 30
0.0
 11
5.375
 21
3.375
 31
0.0
  0
ARC
  5
169
330
2
100
AcDbEntity
  8
0
100
AcDbCircle
 10
0.3446699141100851
 20
1.625
 30
0.0
 40
0.375
100
AcDbArc
 50
315.0000000000001
 51
44.99999999999992
  0
LINE
  5
16A
330
2
100
AcDbEntity
  8
0
100
AcDbLine
 10
0.1098349570550461
 20
2.213388347648319
 30
0.0
 11
0.5214466094067252
 21
1.801776695296638
 31
0.0
  0
ARC
  5
16B
330
2
100
AcDbEntity
  8
0
100
AcDbCircle
 10
0.3750000000000018
 20
0.7714466094067305
 30
0.0
 40
0.25
100
AcDbArc
 50
135.0000000000001
 51
179.9999999999999
  0
ARC
  5
16C
330
2
100
AcDbEntity
  8
0
100
AcDbCircle
 10
0.375
 20
0.7714466094067305
 30
0.0
 40
0.375
100
AcDbArc
 50
135.0000000000001
 51
179.9999999999999
  0
LINE
  5
16D
330
2
100
AcDbEntity
  8
0
100
AcDbLine
 10
0.125
 20
0.0
 30
0.0
 11
0.1250000000000018
 21
0.7714466094067305
 31
0.0
  0
LINE
  5
16E
330
2
100
AcDbEntity
  8
0
100
AcDbLine
 10
0.0
 20
0.0
 30
0.0
 11
0.0
 21
0.7714466094067305
 31
0.0
  0
LINE
  5
16F
330
2
100
AcDbEntity
  8
0
100
AcDbLine
 10
0.0
 20
0.0
 30
0.0
 11
0.125
 21
0.0
 31
0.0
  0
LINE
  5
170
330
2
100
AcDbEntity
  8
0
100
AcDbLine
 10
0.1098349570550443
 20
1.036611652351684
 30
0.0
 11
0.5214466094067234
 21
1.448223304703369
 31
0.0
  0
LINE
  5
171
330
2
100
AcDbEntity
  8
0
100
AcDbLine
 10
0.1982233047033652
 20
0.9482233047033688
 30
0.0
 11
0.6098349570550408
 21
1.359834957055046
 31
0.0
  0
ARC
  5
172
330
2
100
AcDbEntity
  8
0
100
AcDbCircle
 10
0.3446699141100869
 20
1.625000000000004
 30
0.0
 40
0.25
100
AcDbArc
 50
315.0000000000001
 51
44.99999999999962
  0
ARC
  5
173
330
2
100
AcDbEntity
  8
0
100
AcDbCircle
 10
0.4349769070417757
 20
3.584590980012424
 30
0.0
 40
0.4595549456920423
100
AcDbArc
 50
267.3355665140435
 51
313.2746503685308
  0
LINE
  5
174
330
2
100
AcDbEntity
  8
0
100
AcDbLine
 10
0.1249999999999982
 20
2.478553390593277
 30
0.0
 11
0.1249999999999982
 21
3.0
 31
0.0
  0
LINE
  5
175
330
2
100
AcDbEntity
  8
0
100
AcDbLine
 10
0.0000000000000018
 20
2.478553390593273
 30
0.0
 11
0.0
 21
3.0
 31
0.0
  0
ARC
  5
176
330
2
100
AcDbEntity
  8
0
100
AcDbCircle
 10
0.3749999999999982
 20
2.478553390593277
 30
0.0
 40
0.25
100
AcDbArc
 50
180.0
 51
224.9999999999999
  0
ARC
  5
177
330
2
100
AcDbEntity
  8
0
100
AcDbCircle
 10
0.3750000000000018
 20
2.478553390593273
 30
0.0
 40
0.375
100
AcDbArc
 50
180.0
 51
224.9999999999999
  0
LINE
  5
178
330
2
100
AcDbEntity
  8
0
100
AcDbLine
 10
0.1982233047033617
 20
2.301776695296638
 30
0.0
 11
0.6098349570550408
 21
1.890165042944954
 31
0.0
  0
ARC
  5
179
330
2
100
AcDbEntity
  8
0
100
AcDbCircle
 10
0.375000119209286
 20
3.625
 30
0.0
 40
0.5
100
AcDbArc
 50
180.0000000000001
 51
274.3658514359902
  0
ARC
  5
17A
330
2
100
AcDbEntity
  8
0
100
AcDbCircle
 10
0.3749999999999947
 20
3.625
 30
0.0
 40
0.375
100
AcDbArc
 50
179.9999999999999
 51
269.9999999999999
  0
LINE
  5
17B
330
2
100
AcDbEntity
  8
0
100
AcDbLine
 10
0.1250000000000018
 20
2.838388347648319
 30
0.0
 11
0.4130625023258396
 21
3.126450849974157
 31
0.0
  0
ARC
  5
17C
330
2
100
AcDbEntity
  8
0
100
AcDbCircle
 10
0.3749999999999982
 20
3.0
 30
0.0
 40
0.25
100
AcDbArc
 50
139.4583871981906
 51
179.9999999999999
  0
ARC
  5
17D
330
2
100
AcDbEntity
  8
0
100
AcDbCircle
 10
0.375
 20
3.0
 30
0.0
 40
0.375
100
AcDbArc
 50
143.1300914258525
 51
179.9999999999999
  0
ARC
  5
17E
330
2
100
AcDbEntity
  8
0
100
AcDbCircle
 10
0.3749999999999947
 20
3.625
 30
0.0
 40
0.25
100
AcDbArc
 50
179.9999999999999
 51
269.9999999999999
  0
LINE
  5
17F
330
2
100
AcDbEntity
  8
0
100
AcDbLine
 10
5.640165042944954
 20
2.213388347648319
 30
0.0
 11
5.228553390593275
 21
1.801776695296638
 31
0.0
  0
ARC
  5
180
330
2
100
AcDbEntity
  8
0
100
AcDbCircle
 10
5.405330085889915
 20
1.625
 30
0.0
 40
0.375
100
AcDbArc
 50
135.0000000000001
 51
224.9999999999999
  0
LINE
  5
181
330
2
100
AcDbEntity
  8
0
100
AcDbLine
 10
5.640165042944956
 20
1.036611652351684
 30
0.0
 11
5.228553390593277
 21
1.448223304703369
 31
0.0
  0
ARC
  5
182
330
2
100
AcDbEntity
  8
0
100
AcDbCircle
 10
5.374999999999998
 20
0.7714466094067305
 30
0.0
 40
0.25
100
AcDbArc
 50
0.0000000000000509
 51
44.9999999999999
  0
LINE
  5
183
330
2
100
AcDbEntity
  8
0
100
AcDbLine
 10
5.551776695296635
 20
0.9482233047033688
 30
0.0
 11
5.140165042944959
 21
1.359834957055046
 31
0.0
  0
ARC
  5
184
330
2
100
AcDbEntity
  8
0
100
AcDbCircle
 10
5.405330085889913
 20
1.625000000000004
 30
0.0
 40
0.25
100
AcDbArc
 50
135.0000000000004
 51
224.9999999999999
  0
ARC
  5
185
330
2
100
AcDbEntity
  8
0
100
AcDbCircle
 10
5.375
 20
0.7714466094067305
 30
0.0
 40
0.375
100
AcDbArc
 50
0.0000000000000509
 51
44.99999999999992
  0
LINE
  5
186
330
2
100
AcDbEntity
  8
0
100
AcDbLine
 10
5.75
 20
0.0
 30
0.0
 11
5.75
 21
0.7714466094067305
 31
0.0
  0
LINE
  5
187
330
2
100
AcDbEntity
  8
0
100
AcDbLine
 10
5.625
 20
0.0
 30
0.0
 11
5.624999999999998
 21
0.7714466094067305
 31
0.0
  0
LINE
  5
188
330
2
100
AcDbEntity
  8
0
100
AcDbLine
 10
5.75
 20
0.0
 30
0.0
 11
5.625
 21
0.0
 31
0.0
  0
ARC
  5
189
330
2
100
AcDbEntity
  8
0
100
AcDbCircle
 10
5.375
 20
3.625
 30
0.0
 40
0.5
100
AcDbArc
 50
270.0
 51
0.0
  0
LINE
  5
18A
330
2
100
AcDbEntity
  8
0
100
AcDbLine
 10
5.624999999999998
 20
2.838388347648319
 30
0.0
 11
5.339214453271168
 21
3.124173894377149
 31
0.0
  0
ARC
  5
18B
330
2
100
AcDbEntity
  8
0
100
AcDbCircle
 10
5.375000000000002
 20
3.0
 30
0.0
 40
0.25
100
AcDbArc
 50
0.0000000000000509
 51
40.54160187350475
  0
ARC
  5
18C
330
2
100
AcDbEntity
  8
0
100
AcDbCircle
 10
5.375000000000002
 20
2.478553390593277
 30
0.0
 40
0.25
100
AcDbArc
 50
315.0000000000002
 51
0.0
  0
ARC
  5
18D
330
2
100
AcDbEntity
  8
0
100
AcDbCircle
 10
5.375
 20
3.625
 30
0.0
 40
0.375
100
AcDbArc
 50
270.0
 51
0.0
  0
ARC
  5
18E
330
2
100
AcDbEntity
  8
0
100
AcDbCircle
 10
5.375
 20
3.625
 30
0.0
 40
0.25
100
AcDbArc
 50
270.0
 51
0.0
  0
LINE
  5
18F
330
2
100
AcDbEntity
  8
0
100
AcDbLine
 10
5.551776695296638
 20
2.301776695296638
 30
0.0
 11
5.140165042944959
 21
1.890165042944954
 31
0.0
  0
ARC
  5
190
330
2
100
AcDbEntity
  8
0
100
AcDbCircle
 10
5.315023212167509
 20
3.584590980012424
 30
0.0
 40
0.4595549456920423
100
AcDbArc
 50
226.7253496314692
 51
272.6644334859565
  0
LINE
  5
191
330
2
100
AcDbEntity
  8
0
100
AcDbLine
 10
5.376417384422171
 20
3.125000000000002
 30
0.0
 11
5.339323905713972
 21
3.125000000000002
 31
0.0
  0
LINE
  5
192
330
2
100
AcDbEntity
  8
0
100
AcDbLine
 10
5.749999999999998
 20
2.478553390593273
 30
0.0
 11
5.75
 21
3.0
 31
0.0
  0
LINE
  5
193
330
2
100
AcDbEntity
  8
0
100
AcDbLine
 10
5.625000000000002
 20
2.478553390593277
 30
0.0
 11
5.625000000000002
 21
3.0
 31
0.0
  0
ARC
  5
194
330
2
100
AcDbEntity
  8
0
100
AcDbCircle
 10
5.374999999999998
 20
2.478553390593273
 30
0.0
 40
0.375
100
AcDbArc
 50
315.0000000000002
 51
0.0
  0
ARC
  5
195
330
2
100
AcDbEntity
  8
0
100
AcDbCircle
 10
5.375
 20
3.0
 30
0.0
 40
0.375
100
AcDbArc
 50
0.0000000000000509
 51
36.86989764584391
  0
LINE
  5
196
330
2
100
AcDbEntity
  8
0
100
AcDbLine
 10
0.0
 20
7.874999999999993
 30
0.0
 11
0.125
 21
7.874999999999993
 31
0.0
  0
LINE
  5
197
330
2
100
AcDbEntity
  8
0
100
AcDbLine
 10
5.625
 20
7.874999999999996
 30
0.0
 11
5.75
 21
7.874999999999996
 31
0.0
  0
LINE
  5
198
330
2
100
AcDbEntity
  8
0
100
AcDbLine
 10
9.514492016394325
 20
3.250000000000007
 30
0.0
 11
9.514492016394325
 21
7.249999999999996
 31
0.0
  0
LINE
  5
199
330
2
100
AcDbEntity
  8
0
100
AcDbLine
 10
11.01449201639433
 20
1.125000238418586
 30
0.0
 11
11.01449201639433
 21
5.625000412953082
 31
0.0
  0
LINE
  5
19A
330
2
100
AcDbEntity
  8
0
100
AcDbLine
 10
13.26449201639433
 20
1.125000238418586
 30
0.0
 11
13.26449201639433
 21
5.624999999999995
 31
0.0
  0
LINE
  5
19B
330
2
100
AcDbEntity
  8
0
100
AcDbLine
 10
14.76449201639433
 20
3.250000000000007
 30
0.0
 11
14.76449201639433
 21
7.249999999999996
 31
0.0
  0
LINE
  5
19C
330
2
100
AcDbEntity
  8
0
100
AcDbLine
 10
11.67064201639433
 20
0.8125
 30
0.0
 11
12.60814201639433
 21
0.8125
 31
0.0
  0
LINE
  5
19D
330
2
100
AcDbEntity
  8
0
100
AcDbLine
 10
11.67064201639433
 20
1.0625
 30
0.0
 11
12.60814201639433
 21
1.0625
 31
0.0
  0
LINE
  5
19E
330
2
100
AcDbEntity
  8
0
100
AcDbLine
 10
11.51439201639433
 20
1.6875
 30
0.0
 11
12.79564201639433
 21
1.6875
 31
0.0
  0
LINE
  5
19F
330
2
100
AcDbEntity
  8
0
100
AcDbLine
 10
11.45199201639432
 20
0.9375
 30
0.0
 11
12.82699201639432
 21
0.9375
 31
0.0
  0
LINE
  5
1A0
330
2
100
AcDbEntity
  8
0
100
AcDbLine
 10
11.20199201639432
 20
1.5625
 30
0.0
 11
13.13949201639432
 21
1.5625
 31
0.0
  0
LINE
  5
1A1
330
2
100
AcDbEntity
  8
0
100
AcDbLine
 10
11.20199201639432
 20
1.8125
 30
0.0
 11
13.13949201639432
 21
1.8125
 31
0.0
  0
ARC
  5
1A2
330
2
100
AcDbEntity
  8
0
100
AcDbCircle
 10
12.13949201639433
 20
0.25
 30
0.0
 40
0.25
100
AcDbArc
 50
225.0
 51
315.0000000000001
  0
LINE
  5
1A3
330
2
100
AcDbEntity
  8
0
100
AcDbLine
 10
11.08771532109769
 20
0.9482233047033688
 30
0.0
 11
11.96271532109769
 21
0.0732233047033617
 31
0.0
  0
ARC
  5
1A4
330
2
100
AcDbEntity
  8
0
100
AcDbCircle
 10
11.26449201639432
 20
1.125000000000007
 30
0.0
 40
0.25
100
AcDbArc
 50
180.0000000000001
 51
224.9999999999999
  0
LINE
  5
1A5
330
2
100
AcDbEntity
  8
0
100
AcDbLine
 10
13.19126871169096
 20
0.9482233047033688
 30
0.0
 11
12.31626871169096
 21
0.0732233047033617
 31
0.0
  0
ARC
  5
1A6
330
2
100
AcDbEntity
  8
0
100
AcDbCircle
 10
13.01449201639433
 20
1.125000000000007
 30
0.0
 40
0.25
100
AcDbArc
 50
315.0000000000002
 51
0.0
  0
LINE
  5
1A7
330
2
100
AcDbEntity
  8
0
100
AcDbLine
 10
11.51439201639433
 20
2.25
 30
0.0
 11
12.79564201639433
 21
2.25
 31
0.0
  0
LINE
  5
1A8
330
2
100
AcDbEntity
  8
0
100
AcDbLine
 10
11.51439201639433
 20
2.5
 30
0.0
 11
12.79564201639433
 21
2.5
 31
0.0
  0
LINE
  5
1A9
330
2
100
AcDbEntity
  8
0
100
AcDbLine
 10
13.26449201639433
 20
3.375000000000007
 30
0.0
 11
12.13949201639432
 21
3.375000000000007
 31
0.0
  0
LINE
  5
1AA
330
2
100
AcDbEntity
  8
0
100
AcDbLine
 10
11.20199201639432
 20
2.375
 30
0.0
 11
13.13949201639432
 21
2.375
 31
0.0
  0
ARC
  5
1AB
330
2
100
AcDbEntity
  8
0
100
AcDbCircle
 10
10.26449201639431
 20
3.375000000000057
 30
0.0
 40
0.3749999999999929
100
AcDbArc
 50
359.9999999999973
 51
180.0000000000027
  0
LINE
  5
1AC
330
2
100
AcDbEntity
  8
0
100
AcDbLine
 10
10.53279784257016
 20
3.143305826175848
 30
0.0
 11
10.63033910330639
 21
3.240847086912087
 31
0.0
  0
LINE
  5
1AD
330
2
100
AcDbEntity
  8
0
100
AcDbLine
 10
9.514492016394325
 20
3.250000000000007
 30
0.0
 11
9.876547842570158
 21
3.250000000000007
 31
0.0
  0
LINE
  5
1AE
330
2
100
AcDbEntity
  8
0
100
AcDbLine
 10
9.889492016394318
 20
3.375000000000039
 30
0.0
 11
9.889492016394318
 21
3.250000000000007
 31
0.0
  0
LINE
  5
1AF
330
2
100
AcDbEntity
  8
0
100
AcDbLine
 10
10.04038036404264
 20
3.125000000000007
 30
0.0
 11
10.488603668746
 21
3.125000000000007
 31
0.0
  0
LINE
  5
1B0
330
2
100
AcDbEntity
  8
0
100
AcDbLine
 10
9.996186190218477
 20
3.143305826175848
 30
0.0
 11
9.898644929482241
 21
3.240847086912087
 31
0.0
  0
ARC
  5
1B1
330
2
100
AcDbEntity
  8
0
100
AcDbCircle
 10
9.876547842570158
 20
3.218750000000007
 30
0.0
 40
0.03125
100
AcDbArc
 50
45.00000000000005
 51
90.0
  0
ARC
  5
1B2
330
2
100
AcDbEntity
  8
0
100
AcDbCircle
 10
10.04038036404264
 20
3.187500000000007
 30
0.0
 40
0.0625
100
AcDbArc
 50
225.0000000000001
 51
270.0
  0
ARC
  5
1B3
330
2
100
AcDbEntity
  8
0
100
AcDbCircle
 10
10.488603668746
 20
3.187500000000007
 30
0.0
 40
0.0625
100
AcDbArc
 50
270.0000000000001
 51
315.0000000000009
  0
ARC
  5
1B4
330
2
100
AcDbEntity
  8
0
100
AcDbCircle
 10
11.51449201639437
 20
3.583333333333226
 30
0.0
 40
0.3020833333332104
100
AcDbArc
 50
225.9513743258718
 51
314.0486256741273
  0
LINE
  5
1B5
330
2
100
AcDbEntity
  8
0
100
AcDbLine
 10
11.2970308955651
 20
3.371538723138851
 30
0.0
 11
11.47056373468796
 21
2.92448773448994
 31
0.0
  0
LINE
  5
1B6
330
2
100
AcDbEntity
  8
0
100
AcDbLine
 10
11.01449201639432
 20
3.375000000000007
 30
0.0
 11
12.13949201639433
 21
3.375000000000007
 31
0.0
  0
LINE
  5
1B7
330
2
100
AcDbEntity
  8
0
100
AcDbLine
 10
10.63949201639432
 20
3.375000000000039
 30
0.0
 11
10.63949201639432
 21
3.250000000000007
 31
0.0
  0
LINE
  5
1B8
330
2
100
AcDbEntity
  8
0
100
AcDbLine
 10
10.65243619021847
 20
3.250000000000007
 30
0.0
 11
11.01449201639431
 21
3.250000000000007
 31
0.0
  0
ARC
  5
1B9
330
2
100
AcDbEntity
  8
0
100
AcDbCircle
 10
10.65243619021847
 20
3.218750000000007
 30
0.0
 40
0.03125
100
AcDbArc
 50
90.0
 51
135.0
  0
ARC
  5
1BA
330
2
100
AcDbEntity
  8
0
100
AcDbCircle
 10
11.28273581367239
 20
3.343750000000007
 30
0.0
 40
0.03125
100
AcDbArc
 50
45.95137432586936
 51
90.00000000000003
  0
LINE
  5
1BB
330
2
100
AcDbEntity
  8
0
100
AcDbLine
 10
11.73195313722355
 20
3.371538723138887
 30
0.0
 11
11.55842029810067
 21
2.92448773448994
 31
0.0
  0
ARC
  5
1BC
330
2
100
AcDbEntity
  8
0
100
AcDbCircle
 10
11.51449201639432
 20
2.940845353244733
 30
0.0
 40
0.046875
100
AcDbArc
 50
200.4238721544559
 51
339.5761278455441
  0
ARC
  5
1BD
330
2
100
AcDbEntity
  8
0
100
AcDbCircle
 10
11.74624821911636
 20
3.343750000000004
 30
0.0
 40
0.03125
100
AcDbArc
 50
90.00000000000003
 51
134.0486256741307
  0
CIRCLE
  5
1BE
330
2
100
AcDbEntity
  8
0
100
AcDbCircle
 10
10.51449201639433
 20
4.124999999999996
 30
0.0
 40
0.0859375
  0
ARC
  5
1BF
330
2
100
AcDbEntity
  8
0
100
AcDbCircle
 10
14.01449201639434
 20
3.375000000000057
 30
0.0
 40
0.3749999999999929
100
AcDbArc
 50
359.9999999999973
 51
180.0000000000028
  0
LINE
  5
1C0
330
2
100
AcDbEntity
  8
0
100
AcDbLine
 10
14.23860366874601
 20
3.125000000000007
 30
0.0
 11
13.79038036404264
 21
3.125000000000007
 31
0.0
  0
LINE
  5
1C1
330
2
100
AcDbEntity
  8
0
100
AcDbLine
 10
12.5470308955651
 20
3.371538723138887
 30
0.0
 11
12.72056373468798
 21
2.92448773448994
 31
0.0
  0
LINE
  5
1C2
330
2
100
AcDbEntity
  8
0
100
AcDbLine
 10
12.98195313722355
 20
3.371538723138851
 30
0.0
 11
12.80842029810068
 21
2.92448773448994
 31
0.0
  0
ARC
  5
1C3
330
2
100
AcDbEntity
  8
0
100
AcDbCircle
 10
12.76449201639433
 20
2.940845353244733
 30
0.0
 40
0.046875
100
AcDbArc
 50
200.4238721544559
 51
339.5761278455441
  0
ARC
  5
1C4
330
2
100
AcDbEntity
  8
0
100
AcDbCircle
 10
12.76449201639427
 20
3.583333333333226
 30
0.0
 40
0.3020833333332104
100
AcDbArc
 50
225.9513743258727
 51
314.0486256741283
  0
ARC
  5
1C5
330
2
100
AcDbEntity
  8
0
100
AcDbCircle
 10
12.53273581367229
 20
3.343750000000004
 30
0.0
 40
0.03125
100
AcDbArc
 50
45.95137432586935
 51
90.0
  0
ARC
  5
1C6
330
2
100
AcDbEntity
  8
0
100
AcDbCircle
 10
12.99624821911626
 20
3.343750000000007
 30
0.0
 40
0.03125
100
AcDbArc
 50
90.0
 51
134.0486256741307
  0
LINE
  5
1C7
330
2
100
AcDbEntity
  8
0
100
AcDbLine
 10
13.63949201639433
 20
3.375000000000039
 30
0.0
 11
13.63949201639433
 21
3.250000000000007
 31
0.0
  0
LINE
  5
1C8
330
2
100
AcDbEntity
  8
0
100
AcDbLine
 10
13.62654784257017
 20
3.250000000000007
 30
0.0
 11
13.26449201639433
 21
3.250000000000007
 31
0.0
  0
ARC
  5
1C9
330
2
100
AcDbEntity
  8
0
100
AcDbCircle
 10
13.79038036404264
 20
3.187500000000007
 30
0.0
 40
0.0625
100
AcDbArc
 50
224.9999999999991
 51
269.9999999999999
  0
ARC
  5
1CA
330
2
100
AcDbEntity
  8
0
100
AcDbCircle
 10
13.62654784257017
 20
3.218750000000007
 30
0.0
 40
0.03125
100
AcDbArc
 50
45.0
 51
90.0
  0
LINE
  5
1CB
330
2
100
AcDbEntity
  8
0
100
AcDbLine
 10
13.74618619021848
 20
3.143305826175848
 30
0.0
 11
13.64864492948226
 21
3.240847086912087
 31
0.0
  0
LINE
  5
1CC
330
2
100
AcDbEntity
  8
0
100
AcDbLine
 10
14.76449201639433
 20
3.250000000000007
 30
0.0
 11
14.40243619021848
 21
3.250000000000007
 31
0.0
  0
LINE
  5
1CD
330
2
100
AcDbEntity
  8
0
100
AcDbLine
 10
14.38949201639433
 20
3.375000000000039
 30
0.0
 11
14.38949201639433
 21
3.250000000000007
 31
0.0
  0
LINE
  5
1CE
330
2
100
AcDbEntity
  8
0
100
AcDbLine
 10
14.28279784257017
 20
3.143305826175848
 30
0.0
 11
14.38033910330641
 21
3.240847086912087
 31
0.0
  0
ARC
  5
1CF
330
2
100
AcDbEntity
  8
0
100
AcDbCircle
 10
14.23860366874601
 20
3.187500000000007
 30
0.0
 40
0.0625
100
AcDbArc
 50
270.0
 51
314.9999999999999
  0
ARC
  5
1D0
330
2
100
AcDbEntity
  8
0
100
AcDbCircle
 10
14.40243619021848
 20
3.218750000000007
 30
0.0
 40
0.03125
100
AcDbArc
 50
90.0
 51
134.9999999999999
  0
CIRCLE
  5
1D1
330
2
100
AcDbEntity
  8
0
100
AcDbCircle
 10
13.76449201639433
 20
4.124999999999996
 30
0.0
 40
0.0859375
  0
LINE
  5
1D2
330
2
100
AcDbEntity
  8
0
100
AcDbLine
 10
10.13949201639433
 20
7.874999999999996
 30
0.0
 11
14.13949201639433
 21
7.874999999999996
 31
0.0
  0
ARC
  5
1D3
330
2
100
AcDbEntity
  8
0
100
AcDbCircle
 10
12.13949201639433
 20
6.499999999999996
 30
0.0
 40
0.25
100
AcDbArc
 50
44.99999999999994
 51
135.0
  0
LINE
  5
1D4
330
2
100
AcDbEntity
  8
0
100
AcDbLine
 10
9.514492016394325
 20
7.249999999999996
 30
0.0
 11
10.13949201639433
 21
7.874999999999996
 31
0.0
  0
LINE
  5
1D5
330
2
100
AcDbEntity
  8
0
100
AcDbLine
 10
11.08771532109769
 20
5.801776695296628
 30
0.0
 11
11.96271532109769
 21
6.676776695296635
 31
0.0
  0
CIRCLE
  5
1D6
330
2
100
AcDbEntity
  8
0
100
AcDbCircle
 10
10.76449201639433
 20
5.812499999999996
 30
0.0
 40
0.0859375
  0
ARC
  5
1D7
330
2
100
AcDbEntity
  8
0
100
AcDbCircle
 10
11.26449201639433
 20
5.624999999999989
 30
0.0
 40
0.25
100
AcDbArc
 50
135.0000000000001
 51
180.0
  0
CIRCLE
  5
1D8
330
2
100
AcDbEntity
  8
0
100
AcDbCircle
 10
11.13949201639433
 20
6.999999999999996
 30
0.0
 40
0.28125
  0
CIRCLE
  5
1D9
330
2
100
AcDbEntity
  8
0
100
AcDbCircle
 10
10.51449201639433
 20
7.624999999999996
 30
0.0
 40
0.0859375
  0
LINE
  5
1DA
330
2
100
AcDbEntity
  8
0
100
AcDbLine
 10
14.76449201639433
 20
7.249999999999996
 30
0.0
 11
14.13949201639433
 21
7.874999999999996
 31
0.0
  0
LINE
  5
1DB
330
2
100
AcDbEntity
  8
0
100
AcDbLine
 10
13.19126871169097
 20
5.801776695296622
 30
0.0
 11
12.31626871169096
 21
6.676776695296635
 31
0.0
  0
CIRCLE
  5
1DC
330
2
100
AcDbEntity
  8
0
100
AcDbCircle
 10
13.51449201639433
 20
5.812499999999996
 30
0.0
 40
0.0859375
  0
ARC
  5
1DD
330
2
100
AcDbEntity
  8
0
100
AcDbCircle
 10
13.01449201639433
 20
5.624999999999989
 30
0.0
 40
0.25
100
AcDbArc
 50
0.0
 51
44.99999999999984
  0
CIRCLE
  5
1DE
330
2
100
AcDbEntity
  8
0
100
AcDbCircle
 10
13.13949201639433
 20
6.999999999999996
 30
0.0
 40
0.28125
  0
CIRCLE
  5
1DF
330
2
100
AcDbEntity
  8
0
100
AcDbCircle
 10
13.76449201639433
 20
7.624999999999996
 30
0.0
 40
0.0859375
  0
ARC
  5
1FC
330
2
100
AcDbEntity
  8
0
100
AcDbCircle
 10
5.581004881405714
 20
3.713328008316395
 30
0.0
 40
0.3069771437915365
100
AcDbArc
 50
343.2776094601875
 51
47.65852788012529
  0
ARC
  5
203
330
2
100
AcDbEntity
  8
0
100
AcDbCircle
 10
0.1689952378035704
 20
3.713328008316395
 30
0.0
 40
0.3069771437915365
100
AcDbArc
 50
132.3414721198747
 51
196.7223905398125
  0
LINE
  5
20D
330
2
100
AcDbEntity
  8
0
  6
HIDDEN
100
AcDbLine
 10
9.580569049347247
 20
3.375
 30
0.0
 11
10.86570466564085
 21
3.375
 31
0.0
  0
LINE
  5
211
330
2
100
AcDbEntity
  8
0
  6
HIDDEN
100
AcDbLine
 10
14.69841498344141
 20
3.375
 30
0.0
 11
13.41327936714781
 21
3.375
 31
0.0
  0
ENDSEC
  0
SECTION
  2
OBJECTS
  0
DICTIONARY
  5
9
330
0
100
AcDbDictionary
281
     1
  3
ACAD_COLOR
350
10F
  3
ACAD_GROUP
350
23
  3
ACAD_LAYOUT
350
D
  3
ACAD_MATERIAL
350
10E
  3
ACAD_MLINESTYLE
350
24
  3
ACAD_PLOTSETTINGS
350
25
  3
ACAD_PLOTSTYLENAME
350
8
  3
ACAD_TABLESTYLE
350
110
  3
ACDBHEADERROUNDTRIPXREC
350
228
  3
AcDbVariableDictionary
350
10A
  0
DICTIONARY
  5
3
330
2
100
AcDbDictionary
280
     1
281
     1
  3
ACAD_SORTENTS
360
117
  0
DICTIONARY
  5
10F
102
{ACAD_REACTORS
330
9
102
}
330
9
100
AcDbDictionary
281
     1
  0
DICTIONARY
  5
23
102
{ACAD_REACTORS
330
9
102
}
330
9
100
AcDbDictionary
281
     1
  0
DICTIONARY
  5
D
102
{ACAD_REACTORS
330
9
102
}
330
9
100
AcDbDictionary
281
     1
  3
Layout1
350
13
  3
Model
350
C
  0
DICTIONARY
  5
10E
102
{ACAD_REACTORS
330
9
102
}
330
9
100
AcDbDictionary
281
     1
  0
DICTIONARY
  5
24
102
{ACAD_REACTORS
330
9
102
}
330
9
100
AcDbDictionary
281
     1
  3
Standard
350
27
  0
DICTIONARY
  5
25
102
{ACAD_REACTORS
330
9
102
}
330
9
100
AcDbDictionary
281
     1
  0
ACDBDICTIONARYWDFLT
  5
8
102
{ACAD_REACTORS
330
9
102
}
330
9
100
AcDbDictionary
281
     1
  3
Normal
350
7
100
AcDbDictionaryWithDefault
340
7
  0
DICTIONARY
  5
110
102
{ACAD_REACTORS
330
9
102
}
330
9
100
AcDbDictionary
281
     1
  3
Standard
350
111
  0
DICTIONARY
  5
228
102
{ACAD_REACTORS
330
9
102
}
330
9
100
AcDbDictionary
281
     1
  3
COLORDICT
350
229
  3
MATERIALDICT
350
22A
  0
DICTIONARY
  5
10A
102
{ACAD_REACTORS
330
9
102
}
330
9
100
AcDbDictionary
281
     1
  3
CTABLESTYLE
350
1E6
  3
DIMASSOC
350
10C
  3
HIDETEXT
350
10B
  0
SORTENTSTABLE
  5
117
102
{ACAD_REACTORS
330
3
102
}
330
3
100
AcDbSortentsTable
330
2
331
1D0
  5
153
331
162
  5
1DF
331
1B0
  5
133
331
1D4
  5
157
331
19B
  5
11E
331
1D5
  5
158
331
158
  5
1D5
331
148
  5
1C5
331
1C4
  5
147
331
14E
  5
1CB
331
15E
  5
1DB
331
149
  5
1C6
331
1CE
  5
151
331
13B
  5
1B8
331
1CC
  5
14F
331
1BC
  5
13F
331
1C1
  5
144
331
1B1
  5
134
331
1AC
  5
12F
331
15C
  5
1D9
331
1CB
  5
14E
331
11D
  5
19A
331
19D
  5
120
331
1A0
  5
123
331
1BF
  5
142
331
1CA
  5
14D
331
1B8
  5
13B
331
1D7
  5
15A
331
135
  5
1B2
331
1BA
  5
13D
331
11F
  5
19C
331
14A
  5
1C7
331
130
  5
1AD
331
15F
  5
1DC
331
124
  5
1A1
331
1A5
  5
128
331
123
  5
1A0
331
140
  5
1BD
331
1AF
  5
132
331
146
  5
1C3
331
156
  5
1D3
331
132
  5
1AF
331
1B9
  5
13C
331
1C3
  5
146
331
1B5
  5
138
331
159
  5
1D6
331
1B3
  5
136
331
15D
  5
1DA
331
1D2
  5
155
331
19C
  5
11F
331
1BE
  5
141
331
125
  5
1A2
331
1CF
  5
152
331
133
  5
1B0
331
19F
  5
122
331
12E
  5
1AB
331
141
  5
1BE
331
11C
  5
199
331
1AE
  5
131
331
1A4
  5
127
331
1D1
  5
154
331
151
  5
1CE
331
144
  5
1C1
331
160
  5
1DD
331
1A6
  5
129
331
1AB
  5
12E
331
1A8
  5
12B
331
155
  5
1D2
331
1AA
  5
12D
331
13E
  5
1BB
331
1C5
  5
148
331
13F
  5
1BC
331
12A
  5
1A7
331
14B
  5
1C8
331
1B7
  5
13A
331
120
  5
19D
331
143
  5
1C0
331
1DD
  5
160
331
1C0
  5
143
331
13D
  5
1BA
331
1DE
  5
161
331
1C6
  5
149
331
136
  5
1B3
331
12F
  5
1AC
331
1DC
  5
15F
331
1B4
  5
137
331
129
  5
1A6
331
19A
  5
11D
331
150
  5
1CD
331
1A7
  5
12A
331
11B
  5
198
331
1D9
  5
15C
331
145
  5
1C2
331
1DB
  5
15E
331
19E
  5
121
331
128
  5
1A5
331
131
  5
1AE
331
1BD
  5
140
331
153
  5
1D0
331
157
  5
1D4
331
134
  5
1B1
331
14F
  5
1CC
331
15B
  5
1D8
331
121
  5
19E
331
161
  5
1DE
331
199
  5
11C
331
1D6
  5
159
331
1A3
  5
126
331
1A1
  5
124
331
152
  5
1CF
331
15A
  5
1D7
331
1B2
  5
135
331
1DA
  5
15D
331
14C
  5
1C9
331
1C9
  5
14C
331
1AD
  5
130
331
1C7
  5
14A
331
122
  5
19F
331
1A2
  5
125
331
137
  5
1B4
331
1B6
  5
139
331
13C
  5
1B9
331
198
  5
11B
331
12D
  5
1AA
331
1A9
  5
12C
331
1D8
  5
15B
331
1CD
  5
150
331
1C8
  5
14B
331
14D
  5
1CA
331
127
  5
1A4
331
1D3
  5
156
331
154
  5
1D1
331
139
  5
1B6
331
12C
  5
1A9
331
1DF
  5
162
331
147
  5
1C4
331
12B
  5
1A8
331
138
  5
1B5
331
142
  5
1BF
331
1C2
  5
145
331
1BB
  5
13E
331
13A
  5
1B7
331
11E
  5
19B
331
126
  5
1A3
  0
LAYOUT
  5
13
102
{ACAD_REACTORS
330
D
102
}
102
{ACAD_XDICTIONARY
360
22B
102
}
330
D
100
AcDbPlotSettings
  1

  2
hp psc 2100 series
  4

  6

 40
0.0
 41
0.0
 42
0.0
 43
0.0
 44
0.0
 45
0.0
 46
0.0
 47
0.0
 48
0.0
 49
0.0
140
0.0
141
0.0
142
1.0
143
1.0
 70
   688
 72
     0
 73
     0
 74
     5
  7

 75
    16
147
1.0
148
0.0
149
0.0
100
AcDbLayout
  1
Layout1
 70
     0
 71
     1
 10
0.0
 20
0.0
 11
12.0
 21
9.0
 12
0.0
 22
0.0
 32
0.0
 14
1.000000000000000E+20
 24
1.000000000000000E+20
 34
1.000000000000000E+20
 15
-1.000000000000000E+20
 25
-1.000000000000000E+20
 35
-1.000000000000000E+20
146
0.0
 13
0.0
 23
0.0
 33
0.0
 16
1.0
 26
0.0
 36
0.0
 17
0.0
 27
1.0
 37
0.0
 76
     0
330
E
  0
LAYOUT
  5
C
102
{ACAD_REACTORS
330
D
102
}
102
{ACAD_XDICTIONARY
360
22D
102
}
330
D
100
AcDbPlotSettings
  1

  2
HP LaserJet 2100 Series PS
  4
Letter
  6

 40
5.365749835968018
 41
5.408073902130127
 42
5.132904052734375
 43
5.090576171875
 44
215.8999938964844
 45
279.3999938964844
 46
0.0
 47
0.0
 48
0.0
 49
0.0
140
0.0
141
0.0
142
1.0
143
3.895300780266023
 70
 28336
 72
     0
 73
     1
 74
     2
  7

 75
     0
147
0.2567195850615948
148
0.0
149
0.0
100
AcDbLayout
  1
Model
 70
     1
 71
     0
 10
0.0
 20
0.0
 11
12.0
 21
9.0
 12
0.0
 22
0.0
 32
0.0
 14
0.0
 24
0.0
 34
0.0
 15
0.0
 25
0.0
 35
0.0
146
0.0
 13
0.0
 23
0.0
 33
0.0
 16
1.0
 26
0.0
 36
0.0
 17
0.0
 27
1.0
 37
0.0
 76
     0
330
2
  0
MLINESTYLE
  5
27
102
{ACAD_REACTORS
330
24
102
}
330
24
100
AcDbMlineStyle
  2
STANDARD
 70
     0
  3

 62
   256
 51
90.0
 52
90.0
 71
     2
 49
0.5
 62
   256
  6
BYLAYER
 49
-0.5
 62
   256
  6
BYLAYER
  0
ACDBPLACEHOLDER
  5
7
102
{ACAD_REACTORS
330
8
102
}
330
8
  0
ACAD_PROXY_OBJECT
  5
111
102
{ACAD_REACTORS
330
110
102
}
330
110
100
AcDbProxyObject
 90
      499
 91
      520
 95
   983063
 70
     0
 93
     1841
310
4214DD185B99185C9928B81E85EB51B8AE3F2E07A17AD46E2B8FC02B5E8DC0F42B1CFD028000000C1008070000C3001FDFF8000000C1003FBFF000000182007F7FE00000030400FEFFC00000060801FDFF8000000C1003FBFF00000018200000000000000681FA0B0000001820100E000186003FBFF000000182007F7FE000
310
00030400FEFFC00000060801FDFF8000000C1003FBFF000000182007F7FE000000304000AD7A3703D0AC73F4160000003040201C00030C007F7FE00000030400FEFFC00000060801FDFF8000000C1003FBFF000000182007F7FE00000030400FEFFC000000608000
340
16
340
16
340
16
 94
        0
  0
XRECORD
  5
229
102
{ACAD_REACTORS
330
228
102
}
330
228
100
AcDbXrecord
340
10F
  0
XRECORD
  5
22A
102
{ACAD_REACTORS
330
228
102
}
330
228
100
AcDbXrecord
340
10E
  0
DICTIONARYVAR
  5
1E6
102
{ACAD_REACTORS
330
10A
102
}
330
10A
100
DictionaryVariables
280
     0
  1
STANDARD
  0
DICTIONARYVAR
  5
10C
102
{ACAD_REACTORS
330
10A
102
}
330
10A
100
DictionaryVariables
280
     0
  1
2
  0
DICTIONARYVAR
  5
10B
102
{ACAD_REACTORS
330
10A
102
}
330
10A
100
DictionaryVariables
280
     0
  1
1
  0
DICTIONARY
  5
22B
330
13
100
AcDbDictionary
280
     1
281
     1
  3
ACAD_XREC_ROUNDTRIP
360
22C
  0
DICTIONARY
  5
22D
330
C
100
AcDbDictionary
280
     1
281
     1
  3
ACAD_XREC_ROUNDTRIP
360
22E
  0
XRECORD
  5
22C
102
{ACAD_REACTORS
330
22B
102
}
330
22B
100
AcDbXrecord
102
SHADEPLOT
 70
     0
102
SHADEPLOTRESLEVEL
 70
     2
102
SHADEPLOTCUSTOMDPI
 70
   300
  0
XRECORD
  5
22E
102
{ACAD_REACTORS
330
22D
102
}
330
22D
100
AcDbXrecord
102
SHADEPLOT
 70
     0
102
SHADEPLOTRESLEVEL
 70
     2
102
SHADEPLOTCUSTOMDPI
 70
   300
  0
ENDSEC
  0
EOF
