  0
SECTION
  2
HEADER
  9
$ACADVER
  1
AC1015
  9
$ACADMAINTVER
 70
     6
  9
$DWGCODEPAGE
  3
ANSI_1252
  9
$INSBASE
 10
0.0
 20
0.0
 30
0.0
  9
$EXTMIN
 10
-2.625000000000007
 20
-0.0000000000000001
 30
0.0
  9
$EXTMAX
 10
2.625000000000007
 20
7.875050000000009
 30
0.0
  9
$LIMMIN
 10
0.0
 20
0.0
  9
$LIMMAX
 10
31.5
 20
24.0
  9
$ORTHOMODE
 70
     0
  9
$REGENMODE
 70
     1
  9
$FILLMODE
 70
     1
  9
$QTEXTMODE
 70
     0
  9
$MIRRTEXT
 70
     0
  9
$LTSCALE
 40
0.5
  9
$ATTMODE
 70
     1
  9
$TEXTSIZE
 40
0.270000000000005
  9
$TRACEWID
 40
0.05
  9
$TEXTSTYLE
  7
STANDARD
  9
$CLAYER
  8
0
  9
$CELTYPE
  6
ByLayer
  9
$CECOLOR
 62
   256
  9
$CELTSCALE
 40
1.0
  9
$DISPSILH
 70
     0
  9
$DIMSCALE
 40
3.00000000000005
  9
$DIMASZ
 40
0.125
  9
$DIMEXO
 40
0.062
  9
$DIMDLI
 40
0.375
  9
$DIMRND
 40
0.0
  9
$DIMDLE
 40
0.0
  9
$DIMEXE
 40
0.08
  9
$DIMTP
 40
0.0
  9
$DIMTM
 40
0.0
  9
$DIMTXT
 40
0.09
  9
$DIMCEN
 40
-0.03125
  9
$DIMTSZ
 40
0.0
  9
$DIMTOL
 70
     0
  9
$DIMLIM
 70
     0
  9
$DIMTIH
 70
     1
  9
$DIMTOH
 70
     1
  9
$DIMSE1
 70
     0
  9
$DIMSE2
 70
     0
  9
$DIMTAD
 70
     0
  9
$DIMZIN
 70
     0
  9
$DIMBLK
  1

  9
$DIMASO
 70
     0
  9
$DIMSHO
 70
     0
  9
$DIMPOST
  1

  9
$DIMAPOST
  1

  9
$DIMALT
 70
     0
  9
$DIMALTD
 70
     2
  9
$DIMALTF
 40
25.4
  9
$DIMLFAC
 40
1.0
  9
$DIMTOFL
 70
     0
  9
$DIMTVP
 40
0.0
  9
$DIMTIX
 70
     0
  9
$DIMSOXD
 70
     0
  9
$DIMSAH
 70
     0
  9
$DIMBLK1
  1

  9
$DIMBLK2
  1

  9
$DIMSTYLE
  2
Standard
  9
$DIMCLRD
 70
     0
  9
$DIMCLRE
 70
     0
  9
$DIMCLRT
 70
     0
  9
$DIMTFAC
 40
1.0
  9
$DIMGAP
 40
0.09
  9
$DIMJUST
 70
     0
  9
$DIMSD1
 70
     0
  9
$DIMSD2
 70
     0
  9
$DIMTOLJ
 70
     1
  9
$DIMTZIN
 70
     0
  9
$DIMALTZ
 70
     0
  9
$DIMALTTZ
 70
     0
  9
$DIMUPT
 70
     0
  9
$DIMDEC
 70
     5
  9
$DIMTDEC
 70
     5
  9
$DIMALTU
 70
     5
  9
$DIMALTTD
 70
     2
  9
$DIMTXSTY
  7
STANDARD
  9
$DIMAUNIT
 70
     0
  9
$DIMADEC
 70
     0
  9
$DIMALTRND
 40
0.0
  9
$DIMAZIN
 70
     0
  9
$DIMDSEP
 70
    46
  9
$DIMATFIT
 70
     3
  9
$DIMFRAC
 70
     0
  9
$DIMLDRBLK
  1

  9
$DIMLUNIT
 70
     5
  9
$DIMLWD
 70
    -2
  9
$DIMLWE
 70
    -2
  9
$DIMTMOVE
 70
     2
  9
$LUNITS
 70
     5
  9
$LUPREC
 70
     5
  9
$SKETCHINC
 40
0.1
  9
$FILLETRAD
 40
0.0
  9
$AUNITS
 70
     0
  9
$AUPREC
 70
     0
  9
$MENU
  1
acad
  9
$ELEVATION
 40
0.0
  9
$PELEVATION
 40
0.0
  9
$THICKNESS
 40
0.0
  9
$LIMCHECK
 70
     0
  9
$CHAMFERA
 40
0.0
  9
$CHAMFERB
 40
0.0
  9
$CHAMFERC
 40
0.0
  9
$CHAMFERD
 40
0.0
  9
$SKPOLY
 70
     0
  9
$TDCREATE
 40
2449276.797898958
  9
$TDUCREATE
 40
2449277.131232292
  9
$TDUPDATE
 40
2454162.884192442
  9
$TDUUPDATE
 40
2454163.217525776
  9
$TDINDWG
 40
0.0626036343
  9
$TDUSRTIMER
 40
0.0626036343
  9
$USRTIMER
 70
     1
  9
$ANGBASE
 50
0.0
  9
$ANGDIR
 70
     0
  9
$PDMODE
 70
     0
  9
$PDSIZE
 40
0.0
  9
$PLINEWID
 40
0.0
  9
$SPLFRAME
 70
     0
  9
$SPLINETYPE
 70
     6
  9
$SPLINESEGS
 70
     8
  9
$HANDSEED
  5
117
  9
$SURFTAB1
 70
     6
  9
$SURFTAB2
 70
     6
  9
$SURFTYPE
 70
     6
  9
$SURFU
 70
     6
  9
$SURFV
 70
     6
  9
$UCSBASE
  2

  9
$UCSNAME
  2

  9
$UCSORG
 10
0.0
 20
0.0
 30
0.0
  9
$UCSXDIR
 10
1.0
 20
0.0
 30
0.0
  9
$UCSYDIR
 10
0.0
 20
1.0
 30
0.0
  9
$UCSORTHOREF
  2

  9
$UCSORTHOVIEW
 70
     0
  9
$UCSORGTOP
 10
0.0
 20
0.0
 30
0.0
  9
$UCSORGBOTTOM
 10
0.0
 20
0.0
 30
0.0
  9
$UCSORGLEFT
 10
0.0
 20
0.0
 30
0.0
  9
$UCSORGRIGHT
 10
0.0
 20
0.0
 30
0.0
  9
$UCSORGFRONT
 10
0.0
 20
0.0
 30
0.0
  9
$UCSORGBACK
 10
0.0
 20
0.0
 30
0.0
  9
$PUCSBASE
  2

  9
$PUCSNAME
  2

  9
$PUCSORG
 10
0.0
 20
0.0
 30
0.0
  9
$PUCSXDIR
 10
1.0
 20
0.0
 30
0.0
  9
$PUCSYDIR
 10
0.0
 20
1.0
 30
0.0
  9
$PUCSORTHOREF
  2

  9
$PUCSORTHOVIEW
 70
     0
  9
$PUCSORGTOP
 10
0.0
 20
0.0
 30
0.0
  9
$PUCSORGBOTTOM
 10
0.0
 20
0.0
 30
0.0
  9
$PUCSORGLEFT
 10
0.0
 20
0.0
 30
0.0
  9
$PUCSORGRIGHT
 10
0.0
 20
0.0
 30
0.0
  9
$PUCSORGFRONT
 10
0.0
 20
0.0
 30
0.0
  9
$PUCSORGBACK
 10
0.0
 20
0.0
 30
0.0
  9
$USERI1
 70
     0
  9
$USERI2
 70
     0
  9
$USERI3
 70
     0
  9
$USERI4
 70
     0
  9
$USERI5
 70
     0
  9
$USERR1
 40
0.0
  9
$USERR2
 40
0.0
  9
$USERR3
 40
0.0
  9
$USERR4
 40
0.0
  9
$USERR5
 40
0.0
  9
$WORLDVIEW
 70
     1
  9
$SHADEDGE
 70
     3
  9
$SHADEDIF
 70
    70
  9
$TILEMODE
 70
     1
  9
$MAXACTVP
 70
    16
  9
$PINSBASE
 10
0.0
 20
0.0
 30
0.0
  9
$PLIMCHECK
 70
     0
  9
$PEXTMIN
 10
1.000000000000000E+20
 20
1.000000000000000E+20
 30
1.000000000000000E+20
  9
$PEXTMAX
 10
-1.000000000000000E+20
 20
-1.000000000000000E+20
 30
-1.000000000000000E+20
  9
$PLIMMIN
 10
0.0
 20
0.0
  9
$PLIMMAX
 10
12.0
 20
9.0
  9
$UNITMODE
 70
     0
  9
$VISRETAIN
 70
     0
  9
$PLINEGEN
 70
     1
  9
$PSLTSCALE
 70
     0
  9
$TREEDEPTH
 70
  3020
  9
$CMLSTYLE
  2
Standard
  9
$CMLJUST
 70
     0
  9
$CMLSCALE
 40
1.0
  9
$PROXYGRAPHICS
 70
     1
  9
$MEASUREMENT
 70
     0
  9
$CELWEIGHT
370
    -1
  9
$ENDCAPS
280
     0
  9
$JOINSTYLE
280
     0
  9
$LWDISPLAY
290
     0
  9
$INSUNITS
 70
     0
  9
$HYPERLINKBASE
  1

  9
$STYLESHEET
  1

  9
$XEDIT
290
     1
  9
$CEPSNTYPE
380
     0
  9
$PSTYLEMODE
290
     1
  9
$FINGERPRINTGUID
  2
{34D07435-1F26-4672-87D4-D3003B1DC18A}
  9
$VERSIONGUID
  2
{723FDDFA-FCF0-4AD8-9AD3-60C486BF00CF}
  9
$EXTNAMES
290
     1
  9
$PSVPSCALE
 40
0.0
  9
$OLESTARTUP
290
     0
  0
ENDSEC
  0
SECTION
  2
CLASSES
  0
CLASS
  1
ACDBDICTIONARYWDFLT
  2
AcDbDictionaryWithDefault
  3
AutoCAD 2000
 90
        0
280
     0
281
     0
  0
CLASS
  1
ACDBPLACEHOLDER
  2
AcDbPlaceHolder
  3
ObjectDBX Classes
 90
        0
280
     0
281
     0
  0
CLASS
  1
LAYOUT
  2
AcDbLayout
  3
ObjectDBX Classes
 90
        0
280
     0
281
     0
  0
CLASS
  1
DICTIONARYVAR
  2
AcDbDictionaryVar
  3
AutoCAD 2000
 90
        0
280
     0
281
     0
  0
CLASS
  1
TABLESTYLE
  2
AcDbTableStyle
  3
ObjectDBX Classes
 90
     2047
280
     1
281
     0
  0
CLASS
  1
SORTENTSTABLE
  2
AcDbSortentsTable
  3
AutoCAD 2000
 90
        0
280
     0
281
     0
  0
ENDSEC
  0
SECTION
  2
TABLES
  0
TABLE
  2
VPORT
  5
19
330
0
100
AcDbSymbolTable
 70
     2
  0
VPORT
  5
10A
330
19
100
AcDbSymbolTableRecord
100
AcDbViewportTableRecord
  2
*Active
 70
     0
 10
0.0
 20
0.0
 11
1.0
 21
1.0
 12
14.43733981785753
 22
12.33734190494157
 13
0.0
 23
0.0
 14
0.03125
 24
0.03125
 15
0.25
 25
0.25
 16
0.0
 26
0.0
 36
1.0
 17
0.0
 27
0.0
 37
0.0
 40
24.97003506064345
 41
1.814583333333333
 42
50.0
 43
0.0
 44
0.0
 50
0.0
 51
0.0
 71
     0
 72
   100
 73
     1
 74
     0
 75
     0
 76
     0
 77
     0
 78
     0
281
     0
 65
     1
110
0.0
120
0.0
130
0.0
111
1.0
121
0.0
131
0.0
112
0.0
122
1.0
132
0.0
 79
     0
146
0.0
  0
ENDTAB
  0
TABLE
  2
LTYPE
  5
14
330
0
100
AcDbSymbolTable
 70
     1
  0
LTYPE
  5
15
330
14
100
AcDbSymbolTableRecord
100
AcDbLinetypeTableRecord
  2
ByBlock
 70
     0
  3

 72
    65
 73
     0
 40
0.0
  0
LTYPE
  5
16
330
14
100
AcDbSymbolTableRecord
100
AcDbLinetypeTableRecord
  2
ByLayer
 70
     0
  3

 72
    65
 73
     0
 40
0.0
  0
LTYPE
  5
8
330
14
100
AcDbSymbolTableRecord
100
AcDbLinetypeTableRecord
  2
CONTINUOUS
 70
     0
  3
Solid line
 72
    65
 73
     0
 40
0.0
  0
ENDTAB
  0
TABLE
  2
LAYER
  5
10
330
0
100
AcDbSymbolTable
 70
     2
  0
LAYER
  5
4
330
10
100
AcDbSymbolTableRecord
100
AcDbLayerTableRecord
  2
0
 70
     0
 62
     7
  6
CONTINUOUS
370
    -3
390
5
  0
ENDTAB
  0
TABLE
  2
STYLE
  5
11
330
0
100
AcDbSymbolTable
 70
     1
  0
STYLE
  5
12
330
11
100
AcDbSymbolTableRecord
100
AcDbTextStyleTableRecord
  2
STANDARD
 70
     0
 40
0.0
 41
1.0
 50
0.0
 71
     0
 42
0.270000000000005
  3
TXT
  4

  0
ENDTAB
  0
TABLE
  2
VIEW
  5
17
330
0
100
AcDbSymbolTable
 70
     0
  0
ENDTAB
  0
TABLE
  2
UCS
  5
18
330
0
100
AcDbSymbolTable
 70
     0
  0
ENDTAB
  0
TABLE
  2
APPID
  5
1B
330
0
100
AcDbSymbolTable
 70
     1
  0
APPID
  5
1C
330
1B
100
AcDbSymbolTableRecord
100
AcDbRegAppTableRecord
  2
ACAD
 70
     0
  0
ENDTAB
  0
TABLE
  2
DIMSTYLE
  5
1D
330
0
100
AcDbSymbolTable
 70
     1
100
AcDbDimStyleTable
  0
DIMSTYLE
105
24
330
1D
100
AcDbSymbolTableRecord
100
AcDbDimStyleTableRecord
  2
Standard
 70
     0
  3

  4

340
12
  0
ENDTAB
  0
TABLE
  2
BLOCK_RECORD
  5
1
330
0
100
AcDbSymbolTable
 70
     0
  0
BLOCK_RECORD
  5
2
102
{ACAD_XDICTIONARY
360
FD
102
}
330
1
100
AcDbSymbolTableRecord
100
AcDbBlockTableRecord
  2
*Model_Space
340
A
  0
BLOCK_RECORD
  5
C
330
1
100
AcDbSymbolTableRecord
100
AcDbBlockTableRecord
  2
*Paper_Space
340
F
  0
ENDTAB
  0
ENDSEC
  0
SECTION
  2
BLOCKS
  0
BLOCK
  5
3
330
2
100
AcDbEntity
  8
0
100
AcDbBlockBegin
  2
*Model_Space
 70
     0
 10
0.0
 20
0.0
 30
0.0
  3
*Model_Space
  1

  4

  0
ENDBLK
  5
9
330
2
100
AcDbEntity
  8
0
100
AcDbBlockEnd
  0
BLOCK
  5
D
330
C
100
AcDbEntity
 67
     1
  8
0
100
AcDbBlockBegin
  2
*Paper_Space
 70
     0
 10
0.0
 20
0.0
 30
0.0
  3
*Paper_Space
  1

  4

  0
ENDBLK
  5
E
330
C
100
AcDbEntity
 67
     1
  8
0
100
AcDbBlockEnd
  0
ENDSEC
  0
SECTION
  2
ENTITIES
  0
LINE
  5
99
330
2
100
AcDbEntity
  8
0
100
AcDbLine
 10
1.051776933715221
 20
5.801776456878043
 30
0.0
 11
0.1767766952966383
 21
6.676776695296635
 31
0.0
  0
LINE
  5
9A
330
2
100
AcDbEntity
  8
0
100
AcDbLine
 10
-1.051776695296638
 20
5.801776695296628
 30
0.0
 11
-0.1767766952966312
 21
6.676776695296635
 31
0.0
  0
LINE
  5
9B
330
2
100
AcDbEntity
  8
0
100
AcDbLine
 10
-2.625
 20
3.250000000000007
 30
0.0
 11
-2.625
 21
7.250050000000009
 31
0.0
  0
LINE
  5
9C
330
2
100
AcDbEntity
  8
0
100
AcDbLine
 10
2.625
 20
3.250000000000007
 30
0.0
 11
2.625000000000007
 21
7.250050000000009
 31
0.0
  0
ARC
  5
9D
330
2
100
AcDbEntity
  8
0
100
AcDbCircle
 10
1.650888347648319
 20
3.187500000000007
 30
0.0
 40
0.0625
100
AcDbArc
 50
224.9999999999991
 51
269.9999999999999
  0
LINE
  5
9E
330
2
100
AcDbEntity
  8
0
100
AcDbLine
 10
1.667623782208722
 20
3.259152913087927
 30
0.0
 11
1.588388347648326
 21
3.338388347648326
 31
0.0
  0
ARC
  5
9F
330
2
100
AcDbEntity
  8
0
100
AcDbCircle
 10
1.875000000000014
 20
3.375000000000057
 30
0.0
 40
0.3749999999999929
100
AcDbArc
 50
359.9999999999973
 51
180.0000000000028
  0
CIRCLE
  5
A0
330
2
100
AcDbEntity
  8
0
100
AcDbCircle
 10
1.625000000000007
 20
4.062550000000009
 30
0.0
 40
0.0859375
  0
LINE
  5
A1
330
2
100
AcDbEntity
  8
0
100
AcDbLine
 10
-1.125
 20
1.125000238418586
 30
0.0
 11
-1.125
 21
5.625000412953082
 31
0.0
  0
LINE
  5
A2
330
2
100
AcDbEntity
  8
0
100
AcDbLine
 10
1.125000000000007
 20
1.125000238418586
 30
0.0
 11
1.125000000000011
 21
5.625000238418568
 31
0.0
  0
LINE
  5
A3
330
2
100
AcDbEntity
  8
0
100
AcDbLine
 10
-0.9375000000000071
 20
1.5625
 30
0.0
 11
0.9999999999999929
 21
1.5625
 31
0.0
  0
LINE
  5
A4
330
2
100
AcDbEntity
  8
0
100
AcDbLine
 10
-0.9375000000000071
 20
1.8125
 30
0.0
 11
0.9999999999999929
 21
1.8125
 31
0.0
  0
LINE
  5
A5
330
2
100
AcDbEntity
  8
0
100
AcDbLine
 10
-0.9375000000000071
 20
2.375
 30
0.0
 11
0.9999999999999929
 21
2.375
 31
0.0
  0
ARC
  5
A6
330
2
100
AcDbEntity
  8
0
100
AcDbCircle
 10
-0.8750000000000071
 20
1.125000000000007
 30
0.0
 40
0.25
100
AcDbArc
 50
180.0000000000001
 51
224.9999999999999
  0
LINE
  5
A7
330
2
100
AcDbEntity
  8
0
100
AcDbLine
 10
-0.4063499999999998
 20
0.8125
 30
0.0
 11
0.4061500000000002
 21
0.8125
 31
0.0
  0
LINE
  5
A8
330
2
100
AcDbEntity
  8
0
100
AcDbLine
 10
-0.4063499999999998
 20
1.0625
 30
0.0
 11
0.4061500000000002
 21
1.0625
 31
0.0
  0
LINE
  5
A9
330
2
100
AcDbEntity
  8
0
100
AcDbLine
 10
-0.5625999999999998
 20
1.6875
 30
0.0
 11
0.6561500000000002
 21
1.6875
 31
0.0
  0
LINE
  5
AA
330
2
100
AcDbEntity
  8
0
100
AcDbLine
 10
-0.5625999999999998
 20
2.25
 30
0.0
 11
0.6249000000000002
 21
2.25
 31
0.0
  0
LINE
  5
AB
330
2
100
AcDbEntity
  8
0
100
AcDbLine
 10
-0.6875000000000071
 20
0.9375
 30
0.0
 11
0.6874999999999929
 21
0.9375
 31
0.0
  0
ARC
  5
AC
330
2
100
AcDbEntity
  8
0
100
AcDbCircle
 10
0.875
 20
1.125000000000007
 30
0.0
 40
0.25
100
AcDbArc
 50
315.0000000000002
 51
0.0
  0
LINE
  5
AD
330
2
100
AcDbEntity
  8
0
100
AcDbLine
 10
-0.8424611208292205
 20
3.371538723138851
 30
0.0
 11
-0.6689282817063642
 21
2.92448773448994
 31
0.0
  0
LINE
  5
AE
330
2
100
AcDbEntity
  8
0
100
AcDbLine
 10
-1.125
 20
3.375000000000007
 30
0.0
 11
0.0
 21
3.375000000000007
 31
0.0
  0
ARC
  5
AF
330
2
100
AcDbEntity
  8
0
100
AcDbCircle
 10
-0.8567562027219324
 20
3.343750000000007
 30
0.0
 40
0.03125
100
AcDbArc
 50
45.95137432586936
 51
90.00000000000003
  0
LINE
  5
B0
330
2
100
AcDbEntity
  8
0
100
AcDbLine
 10
-1.125
 20
3.250000000000007
 30
0.0
 11
-0.1183748035230678
 21
3.250000000000007
 31
0.0
  0
ARC
  5
B1
330
2
100
AcDbEntity
  8
0
100
AcDbCircle
 10
-1.875000000000014
 20
3.375000000000057
 30
0.0
 40
0.2499999999999929
100
AcDbArc
 50
359.9999999999973
 51
180.0000000000027
  0
LINE
  5
B2
330
2
100
AcDbEntity
  8
0
100
AcDbLine
 10
-2.099111652351688
 20
3.125000000000007
 30
0.0
 11
-1.650888347648326
 21
3.125000000000007
 31
0.0
  0
ARC
  5
B3
330
2
100
AcDbEntity
  8
0
100
AcDbCircle
 10
-1.875000000000014
 20
3.375000000000057
 30
0.0
 40
0.3749999999999929
100
AcDbArc
 50
359.9999999999973
 51
180.0000000000027
  0
ARC
  5
B4
330
2
100
AcDbEntity
  8
0
100
AcDbCircle
 10
-2.060279130879209
 20
3.281250000000007
 30
0.0
 40
0.03125
100
AcDbArc
 50
225.0000000000001
 51
270.0
  0
LINE
  5
B5
330
2
100
AcDbEntity
  8
0
100
AcDbLine
 10
-2.250000000000007
 20
3.375000000000039
 30
0.0
 11
-2.250000000000007
 21
3.250000000000007
 31
0.0
  0
LINE
  5
B6
330
2
100
AcDbEntity
  8
0
100
AcDbLine
 10
-2.082376217791293
 20
3.259152913087927
 30
0.0
 11
-2.161611652351688
 21
3.338388347648326
 31
0.0
  0
LINE
  5
B7
330
2
100
AcDbEntity
  8
0
100
AcDbLine
 10
-2.625
 20
3.250000000000007
 30
0.0
 11
-2.262944173824167
 21
3.250000000000007
 31
0.0
  0
LINE
  5
B8
330
2
100
AcDbEntity
  8
0
100
AcDbLine
 10
-2.143305826175848
 20
3.143305826175848
 30
0.0
 11
-2.240847086912083
 21
3.240847086912087
 31
0.0
  0
ARC
  5
B9
330
2
100
AcDbEntity
  8
0
100
AcDbCircle
 10
-2.262944173824167
 20
3.218750000000007
 30
0.0
 40
0.03125
100
AcDbArc
 50
45.00000000000005
 51
90.0
  0
ARC
  5
BA
330
2
100
AcDbEntity
  8
0
100
AcDbCircle
 10
-2.099111652351688
 20
3.187500000000007
 30
0.0
 40
0.0625
100
AcDbArc
 50
225.0000000000001
 51
270.0
  0
LINE
  5
BB
330
2
100
AcDbEntity
  8
0
100
AcDbLine
 10
-2.625000000000007
 20
3.375000000000007
 30
0.0
 11
-2.49737007310549
 21
3.375000000000007
 31
0.0
  0
LINE
  5
BC
330
2
100
AcDbEntity
  8
0
100
AcDbLine
 10
-2.372054266658882
 20
3.375000000000007
 30
0.0
 11
-2.250000000000007
 21
3.375000000000007
 31
0.0
  0
ARC
  5
BD
330
2
100
AcDbEntity
  8
0
100
AcDbCircle
 10
-2.250000000000007
 20
3.250000000000007
 30
0.0
 40
0.125
100
AcDbArc
 50
45.00000000000005
 51
90.0
  0
LINE
  5
BE
330
2
100
AcDbEntity
  8
0
100
AcDbLine
 10
-1.500000000000007
 20
3.375000000000039
 30
0.0
 11
-1.500000000000007
 21
3.250000000000007
 31
0.0
  0
LINE
  5
BF
330
2
100
AcDbEntity
  8
0
100
AcDbLine
 10
-1.667623782208729
 20
3.259152913087927
 30
0.0
 11
-1.588388347648326
 21
3.338388347648326
 31
0.0
  0
LINE
  5
C0
330
2
100
AcDbEntity
  8
0
100
AcDbLine
 10
-1.487055826175855
 20
3.250000000000007
 30
0.0
 11
-1.125000000000014
 21
3.250000000000007
 31
0.0
  0
LINE
  5
C1
330
2
100
AcDbEntity
  8
0
100
AcDbLine
 10
-1.689720869120805
 20
3.250000000000007
 30
0.0
 11
-1.811641980229645
 21
3.250000000000007
 31
0.0
  0
LINE
  5
C2
330
2
100
AcDbEntity
  8
0
100
AcDbLine
 10
-1.946983051191985
 20
3.250000000000007
 30
0.0
 11
-2.060279130879209
 21
3.250000000000007
 31
0.0
  0
LINE
  5
C3
330
2
100
AcDbEntity
  8
0
100
AcDbLine
 10
-1.606694173824167
 20
3.143305826175848
 30
0.0
 11
-1.509152913087931
 21
3.240847086912087
 31
0.0
  0
ARC
  5
C4
330
2
100
AcDbEntity
  8
0
100
AcDbCircle
 10
-1.689720869120805
 20
3.281250000000007
 30
0.0
 40
0.03125
100
AcDbArc
 50
270.0000000000001
 51
315.0
  0
ARC
  5
C5
330
2
100
AcDbEntity
  8
0
100
AcDbCircle
 10
-1.487055826175855
 20
3.218750000000007
 30
0.0
 40
0.03125
100
AcDbArc
 50
90.0
 51
135.0
  0
ARC
  5
C6
330
2
100
AcDbEntity
  8
0
100
AcDbCircle
 10
-1.650888347648326
 20
3.187500000000007
 30
0.0
 40
0.0625
100
AcDbArc
 50
270.0000000000001
 51
315.0000000000009
  0
LINE
  5
C7
330
2
100
AcDbEntity
  8
0
100
AcDbLine
 10
-1.500000000000007
 20
3.375000000000007
 30
0.0
 11
-1.385568238311176
 21
3.375000000000007
 31
0.0
  0
ARC
  5
C8
330
2
100
AcDbEntity
  8
0
100
AcDbCircle
 10
-1.500000000000007
 20
3.250000000000007
 30
0.0
 40
0.125
100
AcDbArc
 50
90.0
 51
135.0
  0
CIRCLE
  5
C9
330
2
100
AcDbEntity
  8
0
100
AcDbCircle
 10
-1.625
 20
4.062550000000009
 30
0.0
 40
0.0859375
  0
LINE
  5
CA
330
2
100
AcDbEntity
  8
0
100
AcDbLine
 10
-1.250227167348839
 20
3.375000000000007
 30
0.0
 11
-1.125
 21
3.375000000000007
 31
0.0
  0
CIRCLE
  5
CB
330
2
100
AcDbEntity
  8
0
100
AcDbCircle
 10
-1.375
 20
5.812550000000009
 30
0.0
 40
0.0859375
  0
ARC
  5
CC
330
2
100
AcDbEntity
  8
0
100
AcDbCircle
 10
-0.875
 20
5.624999999999989
 30
0.0
 40
0.25
100
AcDbArc
 50
135.0000000000001
 51
180.0
  0
LINE
  5
CD
330
2
100
AcDbEntity
  8
0
100
AcDbLine
 10
-0.5625999999999998
 20
2.5
 30
0.0
 11
0.6249000000000002
 21
2.5
 31
0.0
  0
LINE
  5
CE
330
2
100
AcDbEntity
  8
0
100
AcDbLine
 10
1.125000000000011
 20
3.250000000000007
 30
0.0
 11
0.0991734364682451
 21
3.250000000000007
 31
0.0
  0
ARC
  5
CF
330
2
100
AcDbEntity
  8
0
100
AcDbCircle
 10
0.393243797277961
 20
3.343750000000004
 30
0.0
 40
0.03125
100
AcDbArc
 50
45.95137432586935
 51
90.0
  0
LINE
  5
D0
330
2
100
AcDbEntity
  8
0
100
AcDbLine
 10
1.125000000000007
 20
3.375000000000007
 30
0.0
 11
-0.0000000000000071
 21
3.375000000000007
 31
0.0
  0
ARC
  5
D1
330
2
100
AcDbEntity
  8
0
100
AcDbCircle
 10
-0.6249999999999503
 20
3.583333333333226
 30
0.0
 40
0.3020833333332104
100
AcDbArc
 50
225.9513743258718
 51
314.0486256741273
  0
LINE
  5
D2
330
2
100
AcDbEntity
  8
0
100
AcDbLine
 10
-0.4075388791707795
 20
3.371538723138887
 30
0.0
 11
-0.5810717182936571
 21
2.92448773448994
 31
0.0
  0
ARC
  5
D3
330
2
100
AcDbEntity
  8
0
100
AcDbCircle
 10
-0.6250000000000071
 20
2.940845353244733
 30
0.0
 40
0.046875
100
AcDbArc
 50
200.4238721544559
 51
339.5761278455441
  0
ARC
  5
D4
330
2
100
AcDbEntity
  8
0
100
AcDbCircle
 10
-0.3932437972779681
 20
3.343750000000004
 30
0.0
 40
0.03125
100
AcDbArc
 50
90.00000000000003
 51
134.0486256741307
  0
LINE
  5
D5
330
2
100
AcDbEntity
  8
0
100
AcDbLine
 10
0.4075388791707724
 20
3.371538723138887
 30
0.0
 11
0.58107171829365
 21
2.92448773448994
 31
0.0
  0
LINE
  5
D6
330
2
100
AcDbEntity
  8
0
100
AcDbLine
 10
0.8424611208292205
 20
3.371538723138851
 30
0.0
 11
0.6689282817063571
 21
2.92448773448994
 31
0.0
  0
ARC
  5
D7
330
2
100
AcDbEntity
  8
0
100
AcDbCircle
 10
0.6249999999999432
 20
3.583333333333226
 30
0.0
 40
0.3020833333332104
100
AcDbArc
 50
225.9513743258727
 51
314.0486256741283
  0
LINE
  5
D8
330
2
100
AcDbEntity
  8
0
100
AcDbLine
 10
1.5
 20
3.375000000000039
 30
0.0
 11
1.500000000000007
 21
3.250000000000007
 31
0.0
  0
ARC
  5
D9
330
2
100
AcDbEntity
  8
0
100
AcDbCircle
 10
0.6250000000000071
 20
2.940845353244733
 30
0.0
 40
0.046875
100
AcDbArc
 50
200.4238721544559
 51
339.5761278455441
  0
LINE
  5
DA
330
2
100
AcDbEntity
  8
0
100
AcDbLine
 10
1.487055826175848
 20
3.250000000000007
 30
0.0
 11
1.125000000000007
 21
3.250000000000007
 31
0.0
  0
ARC
  5
DB
330
2
100
AcDbEntity
  8
0
100
AcDbCircle
 10
1.487055826175848
 20
3.218750000000007
 30
0.0
 40
0.03125
100
AcDbArc
 50
45.0
 51
90.0
  0
LINE
  5
DC
330
2
100
AcDbEntity
  8
0
100
AcDbLine
 10
1.60669417382416
 20
3.143305826175848
 30
0.0
 11
1.509152913087931
 21
3.240847086912087
 31
0.0
  0
ARC
  5
DD
330
2
100
AcDbEntity
  8
0
100
AcDbCircle
 10
0.8567562027219324
 20
3.343750000000007
 30
0.0
 40
0.03125
100
AcDbArc
 50
90.0
 51
134.0486256741307
  0
LINE
  5
DE
330
2
100
AcDbEntity
  8
0
100
AcDbLine
 10
1.252078855777043
 20
3.375000000000007
 30
0.0
 11
1.125
 21
3.375000000000007
 31
0.0
  0
ARC
  5
DF
330
2
100
AcDbEntity
  8
0
100
AcDbCircle
 10
1.500000000000007
 20
3.250000000000007
 30
0.0
 40
0.125
100
AcDbArc
 50
45.0
 51
90.0
  0
LINE
  5
E0
330
2
100
AcDbEntity
  8
0
100
AcDbLine
 10
1.500000000000007
 20
3.375000000000007
 30
0.0
 11
1.408472982222413
 21
3.375000000000007
 31
0.0
  0
ARC
  5
E1
330
2
100
AcDbEntity
  8
0
100
AcDbCircle
 10
0.8750000000000071
 20
5.624999999999989
 30
0.0
 40
0.25
100
AcDbArc
 50
0.0
 51
44.99999999999984
  0
CIRCLE
  5
E2
330
2
100
AcDbEntity
  8
0
100
AcDbCircle
 10
1.375000000000004
 20
5.718749999999996
 30
0.0
 40
0.0859375
  0
ARC
  5
E3
330
2
100
AcDbEntity
  8
0
100
AcDbCircle
 10
1.875000000000014
 20
3.375000000000057
 30
0.0
 40
0.2499999999999929
100
AcDbArc
 50
359.9999999999973
 51
180.0000000000028
  0
LINE
  5
E4
330
2
100
AcDbEntity
  8
0
100
AcDbLine
 10
2.082376217791286
 20
3.259152913087927
 30
0.0
 11
2.161611652351681
 21
3.338388347648326
 31
0.0
  0
LINE
  5
E5
330
2
100
AcDbEntity
  8
0
100
AcDbLine
 10
2.250000000000007
 20
3.375000000000039
 30
0.0
 11
2.25
 21
3.250000000000007
 31
0.0
  0
ARC
  5
E6
330
2
100
AcDbEntity
  8
0
100
AcDbCircle
 10
2.26294417382416
 20
3.218750000000007
 30
0.0
 40
0.03125
100
AcDbArc
 50
90.0
 51
134.9999999999999
  0
LINE
  5
E7
330
2
100
AcDbEntity
  8
0
100
AcDbLine
 10
2.14330582617584
 20
3.143305826175848
 30
0.0
 11
2.240847086912083
 21
3.240847086912087
 31
0.0
  0
LINE
  5
E8
330
2
100
AcDbEntity
  8
0
100
AcDbLine
 10
2.099111652351681
 20
3.125000000000007
 30
0.0
 11
1.650888347648319
 21
3.125000000000007
 31
0.0
  0
ARC
  5
E9
330
2
100
AcDbEntity
  8
0
100
AcDbCircle
 10
1.689720869120805
 20
3.281250000000007
 30
0.0
 40
0.03125
100
AcDbArc
 50
225.0
 51
269.9999999999999
  0
LINE
  5
EA
330
2
100
AcDbEntity
  8
0
100
AcDbLine
 10
1.689720869120805
 20
3.250000000000007
 30
0.0
 11
1.823518933173581
 21
3.250000000000007
 31
0.0
  0
LINE
  5
EB
330
2
100
AcDbEntity
  8
0
100
AcDbLine
 10
1.968885268651647
 20
3.250000000000007
 30
0.0
 11
2.060279130879209
 21
3.250000000000007
 31
0.0
  0
ARC
  5
EC
330
2
100
AcDbEntity
  8
0
100
AcDbCircle
 10
2.099111652351681
 20
3.187500000000007
 30
0.0
 40
0.0625
100
AcDbArc
 50
270.0
 51
314.9999999999999
  0
ARC
  5
ED
330
2
100
AcDbEntity
  8
0
100
AcDbCircle
 10
2.060279130879209
 20
3.281250000000007
 30
0.0
 40
0.03125
100
AcDbArc
 50
270.0
 51
314.9999999999999
  0
LINE
  5
EE
330
2
100
AcDbEntity
  8
0
100
AcDbLine
 10
2.625
 20
3.250000000000007
 30
0.0
 11
2.26294417382416
 21
3.250000000000007
 31
0.0
  0
ARC
  5
EF
330
2
100
AcDbEntity
  8
0
100
AcDbCircle
 10
2.25
 20
3.250000000000007
 30
0.0
 40
0.125
100
AcDbArc
 50
90.0
 51
134.9999999999999
  0
LINE
  5
F0
330
2
100
AcDbEntity
  8
0
100
AcDbLine
 10
2.625
 20
3.375000000000007
 30
0.0
 11
2.488193970566393
 21
3.375000000000007
 31
0.0
  0
LINE
  5
F1
330
2
100
AcDbEntity
  8
0
100
AcDbLine
 10
2.342827635088327
 20
3.375000000000007
 30
0.0
 11
2.25
 21
3.375000000000007
 31
0.0
  0
LINE
  5
F2
330
2
100
AcDbEntity
  8
0
100
AcDbLine
 10
-2.0
 20
7.875050000000009
 30
0.0
 11
2.000000000000007
 21
7.875050000000009
 31
0.0
  0
CIRCLE
  5
F3
330
2
100
AcDbEntity
  8
0
100
AcDbCircle
 10
1.625000000000007
 20
7.562550000000009
 30
0.0
 40
0.0859375
  0
CIRCLE
  5
F4
330
2
100
AcDbEntity
  8
0
100
AcDbCircle
 10
-1.0
 20
6.999999999999996
 30
0.0
 40
0.28125
  0
LINE
  5
F5
330
2
100
AcDbEntity
  8
0
100
AcDbLine
 10
-2.625
 20
7.250050000000009
 30
0.0
 11
-2.0
 21
7.875050000000009
 31
0.0
  0
CIRCLE
  5
F6
330
2
100
AcDbEntity
  8
0
100
AcDbCircle
 10
-1.625
 20
7.562550000000009
 30
0.0
 40
0.0859375
  0
ARC
  5
F7
330
2
100
AcDbEntity
  8
0
100
AcDbCircle
 10
0.0
 20
6.499999999999996
 30
0.0
 40
0.25
100
AcDbArc
 50
44.99999999999994
 51
135.0
  0
CIRCLE
  5
F8
330
2
100
AcDbEntity
  8
0
100
AcDbCircle
 10
1.000000000000007
 20
6.999999999999996
 30
0.0
 40
0.28125
  0
LINE
  5
F9
330
2
100
AcDbEntity
  8
0
100
AcDbLine
 10
2.625000000000007
 20
7.250050000000009
 30
0.0
 11
2.000000000000007
 21
7.875050000000009
 31
0.0
  0
LINE
  5
FA
330
2
100
AcDbEntity
  8
0
100
AcDbLine
 10
-1.051776695296638
 20
0.9482233047033688
 30
0.0
 11
-0.1767766952966383
 21
0.0732233047033617
 31
0.0
  0
LINE
  5
FB
330
2
100
AcDbEntity
  8
0
100
AcDbLine
 10
1.051776695296638
 20
0.9482233047033688
 30
0.0
 11
0.1767766952966383
 21
0.0732233047033617
 31
0.0
  0
ARC
  5
FC
330
2
100
AcDbEntity
  8
0
100
AcDbCircle
 10
0.0
 20
0.25
 30
0.0
 40
0.25
100
AcDbArc
 50
225.0
 51
315.0000000000001
  0
ENDSEC
  0
SECTION
  2
OBJECTS
  0
DICTIONARY
  5
7
330
0
100
AcDbDictionary
281
     1
  3
ACAD_COLOR
350
94
  3
ACAD_GROUP
350
1F
  3
ACAD_LAYOUT
350
B
  3
ACAD_MATERIAL
350
93
  3
ACAD_MLINESTYLE
350
20
  3
ACAD_PLOTSETTINGS
350
21
  3
ACAD_PLOTSTYLENAME
350
6
  3
ACAD_TABLESTYLE
350
95
  3
ACDBHEADERROUNDTRIPXREC
350
110
  3
AcDbVariableDictionary
350
8F
  0
DICTIONARY
  5
FD
330
2
100
AcDbDictionary
280
     1
281
     1
  3
ACAD_SORTENTS
360
FE
  0
DICTIONARY
  5
94
102
{ACAD_REACTORS
330
7
102
}
330
7
100
AcDbDictionary
281
     1
  0
DICTIONARY
  5
1F
102
{ACAD_REACTORS
330
7
102
}
330
7
100
AcDbDictionary
281
     1
  0
DICTIONARY
  5
B
102
{ACAD_REACTORS
330
7
102
}
330
7
100
AcDbDictionary
281
     1
  3
Layout1
350
F
  3
Model
350
A
  0
DICTIONARY
  5
93
102
{ACAD_REACTORS
330
7
102
}
330
7
100
AcDbDictionary
281
     1
  0
DICTIONARY
  5
20
102
{ACAD_REACTORS
330
7
102
}
330
7
100
AcDbDictionary
281
     1
  3
Standard
350
23
  0
DICTIONARY
  5
21
102
{ACAD_REACTORS
330
7
102
}
330
7
100
AcDbDictionary
281
     1
  0
ACDBDICTIONARYWDFLT
  5
6
102
{ACAD_REACTORS
330
7
102
}
330
7
100
AcDbDictionary
281
     1
  3
Normal
350
5
100
AcDbDictionaryWithDefault
340
5
  0
DICTIONARY
  5
95
102
{ACAD_REACTORS
330
7
102
}
330
7
100
AcDbDictionary
281
     1
  3
Standard
350
96
  0
DICTIONARY
  5
110
102
{ACAD_REACTORS
330
7
102
}
330
7
100
AcDbDictionary
281
     1
  3
COLORDICT
350
111
  3
MATERIALDICT
350
112
  0
DICTIONARY
  5
8F
102
{ACAD_REACTORS
330
7
102
}
330
7
100
AcDbDictionary
281
     1
  3
CTABLESTYLE
350
105
  3
DIMASSOC
350
91
  3
HIDETEXT
350
90
  0
SORTENTSTABLE
  5
FE
102
{ACAD_REACTORS
330
FD
102
}
330
FD
100
AcDbSortentsTable
330
2
331
CC
  5
CC
331
C5
  5
C5
331
C6
  5
C6
331
F7
  5
F7
331
E9
  5
E9
331
9A
  5
9A
331
CB
  5
CB
331
B9
  5
B9
331
DB
  5
DB
331
F2
  5
F2
331
E6
  5
E6
331
9C
  5
9C
331
D3
  5
D3
331
A4
  5
A4
331
CD
  5
CD
331
EA
  5
EA
331
C0
  5
C0
331
E8
  5
E8
331
A8
  5
A8
331
E0
  5
E0
331
EB
  5
EB
331
9F
  5
9F
331
FA
  5
FA
331
9D
  5
9D
331
BD
  5
BD
331
C9
  5
C9
331
EE
  5
EE
331
AF
  5
AF
331
D0
  5
D0
331
EC
  5
EC
331
DD
  5
DD
331
99
  5
99
331
F8
  5
F8
331
D4
  5
D4
331
DF
  5
DF
331
E4
  5
E4
331
D8
  5
D8
331
F9
  5
F9
331
AD
  5
AD
331
F1
  5
F1
331
DA
  5
DA
331
CE
  5
CE
331
DC
  5
DC
331
CF
  5
CF
331
AA
  5
AA
331
C1
  5
C1
331
AE
  5
AE
331
B3
  5
B3
331
D6
  5
D6
331
B5
  5
B5
331
BB
  5
BB
331
BE
  5
BE
331
C4
  5
C4
331
AB
  5
AB
331
EF
  5
EF
331
BC
  5
BC
331
9B
  5
9B
331
E3
  5
E3
331
A2
  5
A2
331
F3
  5
F3
331
BA
  5
BA
331
F6
  5
F6
331
E2
  5
E2
331
B8
  5
B8
331
A3
  5
A3
331
9E
  5
9E
331
D9
  5
D9
331
AC
  5
AC
331
F0
  5
F0
331
A9
  5
A9
331
B7
  5
B7
331
B1
  5
B1
331
A0
  5
A0
331
C8
  5
C8
331
F5
  5
F5
331
DE
  5
DE
331
BF
  5
BF
331
FB
  5
FB
331
ED
  5
ED
331
D1
  5
D1
331
A1
  5
A1
331
D5
  5
D5
331
E5
  5
E5
331
B0
  5
B0
331
FC
  5
FC
331
E1
  5
E1
331
C7
  5
C7
331
C3
  5
C3
331
F4
  5
F4
331
D7
  5
D7
331
A5
  5
A5
331
A7
  5
A7
331
A6
  5
A6
331
B4
  5
B4
331
B6
  5
B6
331
D2
  5
D2
331
B2
  5
B2
331
CA
  5
CA
331
E7
  5
E7
331
C2
  5
C2
  0
LAYOUT
  5
F
102
{ACAD_REACTORS
330
B
102
}
102
{ACAD_XDICTIONARY
360
113
102
}
330
B
100
AcDbPlotSettings
  1

  2
X:\Program Files\AutoCAD2002\plotters\DWF ePlot (optimized for plotting).pc3
  4

  6

 40
0.0
 41
0.0
 42
0.0
 43
0.0
 44
0.0
 45
0.0
 46
0.0
 47
0.0
 48
0.0
 49
0.0
140
0.0
141
0.0
142
1.0
143
1.0
 70
   688
 72
     0
 73
     0
 74
     5
  7

 75
    16
147
1.0
148
0.0
149
0.0
100
AcDbLayout
  1
Layout1
 70
     0
 71
     1
 10
0.0
 20
0.0
 11
12.0
 21
9.0
 12
0.0
 22
0.0
 32
0.0
 14
1.000000000000000E+20
 24
1.000000000000000E+20
 34
1.000000000000000E+20
 15
-1.000000000000000E+20
 25
-1.000000000000000E+20
 35
-1.000000000000000E+20
146
0.0
 13
0.0
 23
0.0
 33
0.0
 16
1.0
 26
0.0
 36
0.0
 17
0.0
 27
1.0
 37
0.0
 76
     0
330
C
  0
LAYOUT
  5
A
102
{ACAD_REACTORS
330
B
102
}
102
{ACAD_XDICTIONARY
360
115
102
}
330
B
100
AcDbPlotSettings
  1

  2
X:\Program Files\AutoCAD2002\plotters\DWF ePlot (optimized for plotting).pc3
  4

  6

 40
0.0
 41
0.0
 42
0.0
 43
0.0
 44
0.0
 45
0.0
 46
0.0
 47
0.0
 48
0.0
 49
0.0
140
0.0
141
0.0
142
1.0
143
1.0
 70
  1712
 72
     0
 73
     0
 74
     0
  7

 75
     0
147
1.0
148
0.0
149
0.0
100
AcDbLayout
  1
Model
 70
     1
 71
     0
 10
0.0
 20
0.0
 11
12.0
 21
9.0
 12
0.0
 22
0.0
 32
0.0
 14
0.0
 24
0.0
 34
0.0
 15
0.0
 25
0.0
 35
0.0
146
0.0
 13
0.0
 23
0.0
 33
0.0
 16
1.0
 26
0.0
 36
0.0
 17
0.0
 27
1.0
 37
0.0
 76
     0
330
2
  0
MLINESTYLE
  5
23
102
{ACAD_REACTORS
330
20
102
}
330
20
100
AcDbMlineStyle
  2
STANDARD
 70
     0
  3

 62
   256
 51
90.0
 52
90.0
 71
     2
 49
0.5
 62
   256
  6
BYLAYER
 49
-0.5
 62
   256
  6
BYLAYER
  0
ACDBPLACEHOLDER
  5
5
102
{ACAD_REACTORS
330
6
102
}
330
6
  0
ACAD_PROXY_OBJECT
  5
96
102
{ACAD_REACTORS
330
95
102
}
330
95
100
AcDbProxyObject
 90
      499
 91
      504
 95
   983063
 70
     0
 93
     1841
310
4214DD185B99185C9928B81E85EB51B8AE3F2E07A17AD46E2B8FC02B5E8DC0F42B1CFD028000000C1008070000C3001FDFF8000000C1003FBFF000000182007F7FE00000030400FEFFC00000060801FDFF8000000C1003FBFF00000018200000000000000681FA0B0000001820100E000186003FBFF000000182007F7FE000
310
00030400FEFFC00000060801FDFF8000000C1003FBFF000000182007F7FE000000304000AD7A3703D0AC73F4160000003040201C00030C007F7FE00000030400FEFFC00000060801FDFF8000000C1003FBFF000000182007F7FE00000030400FEFFC000000608000
340
12
340
12
340
12
 94
        0
  0
XRECORD
  5
111
102
{ACAD_REACTORS
330
110
102
}
330
110
100
AcDbXrecord
340
94
  0
XRECORD
  5
112
102
{ACAD_REACTORS
330
110
102
}
330
110
100
AcDbXrecord
340
93
  0
DICTIONARYVAR
  5
105
102
{ACAD_REACTORS
330
8F
102
}
330
8F
100
DictionaryVariables
280
     0
  1
STANDARD
  0
DICTIONARYVAR
  5
91
102
{ACAD_REACTORS
330
8F
102
}
330
8F
100
DictionaryVariables
280
     0
  1
2
  0
DICTIONARYVAR
  5
90
102
{ACAD_REACTORS
330
8F
102
}
330
8F
100
DictionaryVariables
280
     0
  1
1
  0
DICTIONARY
  5
113
330
F
100
AcDbDictionary
280
     1
281
     1
  3
ACAD_XREC_ROUNDTRIP
360
114
  0
DICTIONARY
  5
115
330
A
100
AcDbDictionary
280
     1
281
     1
  3
ACAD_XREC_ROUNDTRIP
360
116
  0
XRECORD
  5
114
102
{ACAD_REACTORS
330
113
102
}
330
113
100
AcDbXrecord
102
SHADEPLOT
 70
     0
102
SHADEPLOTRESLEVEL
 70
     2
102
SHADEPLOTCUSTOMDPI
 70
   300
  0
XRECORD
  5
116
102
{ACAD_REACTORS
330
115
102
}
330
115
100
AcDbXrecord
102
SHADEPLOT
 70
     0
102
SHADEPLOTRESLEVEL
 70
     2
102
SHADEPLOTCUSTOMDPI
 70
   300
  0
ENDSEC
  0
EOF
