  0
SECTION
  2
HEADER
  9
$ACADVER
  1
AC1015
  9
$ACADMAINTVER
 70
     6
  9
$DWGCODEPAGE
  3
ANSI_1252
  9
$INSBASE
 10
0.0
 20
0.0
 30
0.0
  9
$EXTMIN
 10
-3.218925406479883
 20
-0.0007323659964982
 30
-0.0015258207003583
  9
$EXTMAX
 10
3.219406168348399
 20
5.250732455927334
 30
0.0000000349246037
  9
$LIMMIN
 10
0.0
 20
0.0
  9
$LIMMAX
 10
31.5
 20
24.0
  9
$ORTHOMODE
 70
     0
  9
$REGENMODE
 70
     1
  9
$FILLMODE
 70
     1
  9
$QTEXTMODE
 70
     0
  9
$MIRRTEXT
 70
     0
  9
$LTSCALE
 40
0.5
  9
$ATTMODE
 70
     1
  9
$TEXTSIZE
 40
0.270000000000005
  9
$TRACEWID
 40
0.05
  9
$TEXTSTYLE
  7
STANDARD
  9
$CLAYER
  8
OBJECT
  9
$CELTYPE
  6
ByLayer
  9
$CECOLOR
 62
   256
  9
$CELTSCALE
 40
1.0
  9
$DISPSILH
 70
     0
  9
$DIMSCALE
 40
3.00000000000005
  9
$DIMASZ
 40
0.125
  9
$DIMEXO
 40
0.062
  9
$DIMDLI
 40
0.375
  9
$DIMRND
 40
0.0
  9
$DIMDLE
 40
0.0
  9
$DIMEXE
 40
0.08
  9
$DIMTP
 40
0.0
  9
$DIMTM
 40
0.0
  9
$DIMTXT
 40
0.09
  9
$DIMCEN
 40
-0.03125
  9
$DIMTSZ
 40
0.0
  9
$DIMTOL
 70
     0
  9
$DIMLIM
 70
     0
  9
$DIMTIH
 70
     1
  9
$DIMTOH
 70
     1
  9
$DIMSE1
 70
     0
  9
$DIMSE2
 70
     0
  9
$DIMTAD
 70
     0
  9
$DIMZIN
 70
     0
  9
$DIMBLK
  1

  9
$DIMASO
 70
     0
  9
$DIMSHO
 70
     0
  9
$DIMPOST
  1

  9
$DIMAPOST
  1

  9
$DIMALT
 70
     0
  9
$DIMALTD
 70
     2
  9
$DIMALTF
 40
25.4
  9
$DIMLFAC
 40
1.0
  9
$DIMTOFL
 70
     0
  9
$DIMTVP
 40
0.0
  9
$DIMTIX
 70
     0
  9
$DIMSOXD
 70
     0
  9
$DIMSAH
 70
     0
  9
$DIMBLK1
  1

  9
$DIMBLK2
  1

  9
$DIMSTYLE
  2
Standard
  9
$DIMCLRD
 70
     0
  9
$DIMCLRE
 70
     0
  9
$DIMCLRT
 70
     0
  9
$DIMTFAC
 40
1.0
  9
$DIMGAP
 40
0.09
  9
$DIMJUST
 70
     0
  9
$DIMSD1
 70
     0
  9
$DIMSD2
 70
     0
  9
$DIMTOLJ
 70
     1
  9
$DIMTZIN
 70
     0
  9
$DIMALTZ
 70
     0
  9
$DIMALTTZ
 70
     0
  9
$DIMUPT
 70
     0
  9
$DIMDEC
 70
     5
  9
$DIMTDEC
 70
     5
  9
$DIMALTU
 70
     5
  9
$DIMALTTD
 70
     2
  9
$DIMTXSTY
  7
STANDARD
  9
$DIMAUNIT
 70
     0
  9
$DIMADEC
 70
     0
  9
$DIMALTRND
 40
0.0
  9
$DIMAZIN
 70
     0
  9
$DIMDSEP
 70
    46
  9
$DIMATFIT
 70
     3
  9
$DIMFRAC
 70
     0
  9
$DIMLDRBLK
  1

  9
$DIMLUNIT
 70
     5
  9
$DIMLWD
 70
    -2
  9
$DIMLWE
 70
    -2
  9
$DIMTMOVE
 70
     2
  9
$LUNITS
 70
     5
  9
$LUPREC
 70
     5
  9
$SKETCHINC
 40
0.1
  9
$FILLETRAD
 40
0.0
  9
$AUNITS
 70
     0
  9
$AUPREC
 70
     0
  9
$MENU
  1
acad
  9
$ELEVATION
 40
0.0
  9
$PELEVATION
 40
0.0
  9
$THICKNESS
 40
0.0
  9
$LIMCHECK
 70
     0
  9
$CHAMFERA
 40
0.0
  9
$CHAMFERB
 40
0.0
  9
$CHAMFERC
 40
0.0
  9
$CHAMFERD
 40
0.0
  9
$SKPOLY
 70
     0
  9
$TDCREATE
 40
2449276.797898958
  9
$TDUCREATE
 40
2449277.131232292
  9
$TDUPDATE
 40
2453783.66794191
  9
$TDUUPDATE
 40
2453784.001275243
  9
$TDINDWG
 40
0.0623104861
  9
$TDUSRTIMER
 40
0.0623104861
  9
$USRTIMER
 70
     1
  9
$ANGBASE
 50
0.0
  9
$ANGDIR
 70
     0
  9
$PDMODE
 70
     0
  9
$PDSIZE
 40
0.0
  9
$PLINEWID
 40
0.0
  9
$SPLFRAME
 70
     0
  9
$SPLINETYPE
 70
     6
  9
$SPLINESEGS
 70
     8
  9
$HANDSEED
  5
116
  9
$SURFTAB1
 70
     6
  9
$SURFTAB2
 70
     6
  9
$SURFTYPE
 70
     6
  9
$SURFU
 70
     6
  9
$SURFV
 70
     6
  9
$UCSBASE
  2

  9
$UCSNAME
  2

  9
$UCSORG
 10
0.0
 20
0.0
 30
0.0
  9
$UCSXDIR
 10
1.0
 20
0.0
 30
0.0
  9
$UCSYDIR
 10
0.0
 20
1.0
 30
0.0
  9
$UCSORTHOREF
  2

  9
$UCSORTHOVIEW
 70
     0
  9
$UCSORGTOP
 10
0.0
 20
0.0
 30
0.0
  9
$UCSORGBOTTOM
 10
0.0
 20
0.0
 30
0.0
  9
$UCSORGLEFT
 10
0.0
 20
0.0
 30
0.0
  9
$UCSORGRIGHT
 10
0.0
 20
0.0
 30
0.0
  9
$UCSORGFRONT
 10
0.0
 20
0.0
 30
0.0
  9
$UCSORGBACK
 10
0.0
 20
0.0
 30
0.0
  9
$PUCSBASE
  2

  9
$PUCSNAME
  2

  9
$PUCSORG
 10
0.0
 20
0.0
 30
0.0
  9
$PUCSXDIR
 10
1.0
 20
0.0
 30
0.0
  9
$PUCSYDIR
 10
0.0
 20
1.0
 30
0.0
  9
$PUCSORTHOREF
  2

  9
$PUCSORTHOVIEW
 70
     0
  9
$PUCSORGTOP
 10
0.0
 20
0.0
 30
0.0
  9
$PUCSORGBOTTOM
 10
0.0
 20
0.0
 30
0.0
  9
$PUCSORGLEFT
 10
0.0
 20
0.0
 30
0.0
  9
$PUCSORGRIGHT
 10
0.0
 20
0.0
 30
0.0
  9
$PUCSORGFRONT
 10
0.0
 20
0.0
 30
0.0
  9
$PUCSORGBACK
 10
0.0
 20
0.0
 30
0.0
  9
$USERI1
 70
     0
  9
$USERI2
 70
     0
  9
$USERI3
 70
     0
  9
$USERI4
 70
     0
  9
$USERI5
 70
     0
  9
$USERR1
 40
0.0
  9
$USERR2
 40
0.0
  9
$USERR3
 40
0.0
  9
$USERR4
 40
0.0
  9
$USERR5
 40
0.0
  9
$WORLDVIEW
 70
     1
  9
$SHADEDGE
 70
     3
  9
$SHADEDIF
 70
    70
  9
$TILEMODE
 70
     1
  9
$MAXACTVP
 70
    16
  9
$PINSBASE
 10
0.0
 20
0.0
 30
0.0
  9
$PLIMCHECK
 70
     0
  9
$PEXTMIN
 10
1.000000000000000E+20
 20
1.000000000000000E+20
 30
1.000000000000000E+20
  9
$PEXTMAX
 10
-1.000000000000000E+20
 20
-1.000000000000000E+20
 30
-1.000000000000000E+20
  9
$PLIMMIN
 10
0.0
 20
0.0
  9
$PLIMMAX
 10
12.0
 20
9.0
  9
$UNITMODE
 70
     0
  9
$VISRETAIN
 70
     0
  9
$PLINEGEN
 70
     1
  9
$PSLTSCALE
 70
     0
  9
$TREEDEPTH
 70
  3020
  9
$CMLSTYLE
  2
Standard
  9
$CMLJUST
 70
     0
  9
$CMLSCALE
 40
1.0
  9
$PROXYGRAPHICS
 70
     1
  9
$MEASUREMENT
 70
     0
  9
$CELWEIGHT
370
    -1
  9
$ENDCAPS
280
     0
  9
$JOINSTYLE
280
     0
  9
$LWDISPLAY
290
     0
  9
$INSUNITS
 70
     0
  9
$HYPERLINKBASE
  1

  9
$STYLESHEET
  1

  9
$XEDIT
290
     1
  9
$CEPSNTYPE
380
     0
  9
$PSTYLEMODE
290
     1
  9
$FINGERPRINTGUID
  2
{34D07435-1F26-4672-87D4-D3003B1DC18A}
  9
$VERSIONGUID
  2
{FD5C3740-6A49-46EB-820A-8AE4B9B918BE}
  9
$EXTNAMES
290
     1
  9
$PSVPSCALE
 40
0.0
  9
$OLESTARTUP
290
     0
  0
ENDSEC
  0
SECTION
  2
CLASSES
  0
CLASS
  1
ACDBDICTIONARYWDFLT
  2
AcDbDictionaryWithDefault
  3
AutoCAD 2000
 90
        0
280
     0
281
     0
  0
CLASS
  1
ACDBPLACEHOLDER
  2
AcDbPlaceHolder
  3
ObjectDBX Classes
 90
        0
280
     0
281
     0
  0
CLASS
  1
LAYOUT
  2
AcDbLayout
  3
ObjectDBX Classes
 90
        0
280
     0
281
     0
  0
CLASS
  1
DICTIONARYVAR
  2
AcDbDictionaryVar
  3
AutoCAD 2000
 90
        0
280
     0
281
     0
  0
CLASS
  1
TABLESTYLE
  2
AcDbTableStyle
  3
ObjectDBX Classes
 90
     2047
280
     1
281
     0
  0
CLASS
  1
SORTENTSTABLE
  2
AcDbSortentsTable
  3
AutoCAD 2000
 90
        0
280
     0
281
     0
  0
ENDSEC
  0
SECTION
  2
TABLES
  0
TABLE
  2
VPORT
  5
19
330
0
100
AcDbSymbolTable
 70
     2
  0
VPORT
  5
107
330
19
100
AcDbSymbolTableRecord
100
AcDbViewportTableRecord
  2
*Active
 70
     0
 10
0.0
 20
0.0
 11
1.0
 21
1.0
 12
14.14053729676006
 22
11.99963381700175
 13
0.0
 23
0.0
 14
0.03125
 24
0.03125
 15
0.25
 25
0.25
 16
0.0
 26
0.0
 36
1.0
 17
0.0
 27
0.0
 37
0.0
 40
24.2946188847638
 41
1.865030674846625
 42
50.0
 43
0.0
 44
0.0
 50
0.0
 51
0.0
 71
     0
 72
   100
 73
     1
 74
     0
 75
     0
 76
     0
 77
     0
 78
     0
281
     0
 65
     1
110
0.0
120
0.0
130
0.0
111
1.0
121
0.0
131
0.0
112
0.0
122
1.0
132
0.0
 79
     0
146
0.0
  0
ENDTAB
  0
TABLE
  2
LTYPE
  5
14
330
0
100
AcDbSymbolTable
 70
     2
  0
LTYPE
  5
15
330
14
100
AcDbSymbolTableRecord
100
AcDbLinetypeTableRecord
  2
ByBlock
 70
     0
  3

 72
    65
 73
     0
 40
0.0
  0
LTYPE
  5
16
330
14
100
AcDbSymbolTableRecord
100
AcDbLinetypeTableRecord
  2
ByLayer
 70
     0
  3

 72
    65
 73
     0
 40
0.0
  0
LTYPE
  5
8
330
14
100
AcDbSymbolTableRecord
100
AcDbLinetypeTableRecord
  2
CONTINUOUS
 70
     0
  3
Solid line
 72
    65
 73
     0
 40
0.0
  0
ENDTAB
  0
TABLE
  2
LAYER
  5
10
330
0
100
AcDbSymbolTable
 70
     3
  0
LAYER
  5
4
330
10
100
AcDbSymbolTableRecord
100
AcDbLayerTableRecord
  2
0
 70
     0
 62
    -1
  6
CONTINUOUS
370
    -3
390
5
  0
LAYER
  5
22
330
10
100
AcDbSymbolTableRecord
100
AcDbLayerTableRecord
  2
OBJECT
 70
     0
 62
     7
  6
CONTINUOUS
370
    -3
390
5
  0
ENDTAB
  0
TABLE
  2
STYLE
  5
11
330
0
100
AcDbSymbolTable
 70
     1
  0
STYLE
  5
12
330
11
100
AcDbSymbolTableRecord
100
AcDbTextStyleTableRecord
  2
STANDARD
 70
     0
 40
0.0
 41
1.0
 50
0.0
 71
     0
 42
0.270000000000005
  3
TXT
  4

  0
ENDTAB
  0
TABLE
  2
VIEW
  5
17
330
0
100
AcDbSymbolTable
 70
     0
  0
ENDTAB
  0
TABLE
  2
UCS
  5
18
330
0
100
AcDbSymbolTable
 70
     0
  0
ENDTAB
  0
TABLE
  2
APPID
  5
1B
330
0
100
AcDbSymbolTable
 70
     1
  0
APPID
  5
1C
330
1B
100
AcDbSymbolTableRecord
100
AcDbRegAppTableRecord
  2
ACAD
 70
     0
  0
ENDTAB
  0
TABLE
  2
DIMSTYLE
  5
1D
330
0
100
AcDbSymbolTable
 70
     1
100
AcDbDimStyleTable
  0
DIMSTYLE
105
24
330
1D
100
AcDbSymbolTableRecord
100
AcDbDimStyleTableRecord
  2
Standard
 70
     0
  3

  4

340
12
  0
ENDTAB
  0
TABLE
  2
BLOCK_RECORD
  5
1
330
0
100
AcDbSymbolTable
 70
     1
  0
BLOCK_RECORD
  5
2
102
{ACAD_XDICTIONARY
360
105
102
}
330
1
100
AcDbSymbolTableRecord
100
AcDbBlockTableRecord
  2
*Model_Space
340
A
  0
BLOCK_RECORD
  5
C
330
1
100
AcDbSymbolTableRecord
100
AcDbBlockTableRecord
  2
*Paper_Space
340
F
  0
ENDTAB
  0
ENDSEC
  0
SECTION
  2
BLOCKS
  0
BLOCK
  5
3
330
2
100
AcDbEntity
  8
0
100
AcDbBlockBegin
  2
*Model_Space
 70
     0
 10
0.0
 20
0.0
 30
0.0
  3
*Model_Space
  1

  4

  0
ENDBLK
  5
9
330
2
100
AcDbEntity
  8
0
100
AcDbBlockEnd
  0
BLOCK
  5
D
330
C
100
AcDbEntity
 67
     1
  8
0
100
AcDbBlockBegin
  2
*Paper_Space
 70
     0
 10
0.0
 20
0.0
 30
0.0
  3
*Paper_Space
  1

  4

  0
ENDBLK
  5
E
330
C
100
AcDbEntity
 67
     1
  8
0
100
AcDbBlockEnd
  0
ENDSEC
  0
SECTION
  2
ENTITIES
  0
ARC
  5
9D
330
2
100
AcDbEntity
  8
OBJECT
100
AcDbCircle
 10
-2.531299999999995
 20
0.7499999999999965
 30
0.0
 40
0.375
100
AcDbArc
 50
270.0000000000001
 51
89.99996136261612
  0
ARC
  5
9E
330
2
100
AcDbEntity
  8
OBJECT
100
AcDbCircle
 10
-2.5313
 20
4.500000000000004
 30
0.0
 40
0.375
100
AcDbArc
 50
270.0000000000001
 51
89.99996136261612
  0
LINE
  5
9F
330
2
100
AcDbEntity
  8
OBJECT
100
AcDbLine
 10
-3.124999999999998
 20
-0.0000000000000036
 30
0.0
 11
3.124999999999998
 21
0.0000000000000036
 31
0.0
  0
LINE
  5
A0
330
2
100
AcDbEntity
  8
OBJECT
100
AcDbLine
 10
-3.125
 20
5.249999999999996
 30
0.0
 11
3.125000000000007
 21
5.250000000000004
 31
0.0
  0
LINE
  5
A1
330
2
100
AcDbEntity
  8
OBJECT
100
AcDbLine
 10
-3.124999999999998
 20
4.686426942599187
 30
0.0
 11
-3.124999999999998
 21
-0.0000000000000036
 31
0.0
  0
LINE
  5
A2
330
2
100
AcDbEntity
  8
OBJECT
100
AcDbLine
 10
-2.999999999999998
 20
4.731776422442014
 30
0.0
 11
-2.999999999999998
 21
-0.0000000000000036
 31
0.0
  0
LINE
  5
A3
330
2
100
AcDbEntity
  8
OBJECT
100
AcDbLine
 10
-2.874999999999993
 20
3.75
 30
0.0
 11
-2.874999999999993
 21
2.625
 31
0.0
  0
LINE
  5
A4
330
2
100
AcDbEntity
  8
OBJECT
100
AcDbLine
 10
-2.874999999999989
 20
1.499999999999993
 30
0.0
 11
-2.874999999999993
 21
2.625000000000007
 31
0.0
  0
ARC
  5
A5
330
2
100
AcDbEntity
  8
OBJECT
100
AcDbCircle
 10
-2.531299999999995
 20
0.7499999999999965
 30
0.0
 40
0.25
100
AcDbArc
 50
270.0000000000001
 51
89.99996136261612
  0
ARC
  5
A6
330
2
100
AcDbEntity
  8
OBJECT
100
AcDbCircle
 10
-2.677255490405379
 20
0.749999999999968
 30
0.0
 40
0.5415445095946648
100
AcDbArc
 50
145.7705655526785
 51
214.2294344473111
  0
ARC
  5
A7
330
2
100
AcDbEntity
  8
OBJECT
100
AcDbCircle
 10
-2.531299999999995
 20
0.7499999999999965
 30
0.0
 40
0.25
100
AcDbArc
 50
270.0000386373841
 51
90.00000000000006
  0
LINE
  5
A8
330
2
100
AcDbEntity
  8
OBJECT
100
AcDbLine
 10
-2.531299999999995
 20
0.4999999999999965
 30
0.0
 11
-2.906299999999995
 21
0.4999999999999965
 31
0.0
  0
LINE
  5
A9
330
2
100
AcDbEntity
  8
OBJECT
100
AcDbLine
 10
-3.124999999999999
 20
0.6249999999999965
 30
0.0
 11
-2.999999999999998
 21
0.6249999999999965
 31
0.0
  0
ARC
  5
AA
330
2
100
AcDbEntity
  8
OBJECT
100
AcDbCircle
 10
-2.906299999999995
 20
0.7499999999999965
 30
0.0
 40
0.25
100
AcDbArc
 50
247.9880478418498
 51
270.0000000000001
  0
ARC
  5
AB
330
2
100
AcDbEntity
  8
OBJECT
100
AcDbCircle
 10
-2.906299999999995
 20
0.7499999999999965
 30
0.0
 40
0.375
100
AcDbArc
 50
255.5303776507171
 51
270.0000000000001
  0
LINE
  5
AC
330
2
100
AcDbEntity
  8
OBJECT
100
AcDbLine
 10
-2.831046062134401
 20
0.3749999999999965
 30
0.0
 11
-2.906299999999995
 21
0.3749999999999965
 31
0.0
  0
LINE
  5
AD
330
2
100
AcDbEntity
  8
OBJECT
100
AcDbLine
 10
-2.531299999999995
 20
0.3749999999999965
 30
0.0
 11
-2.68467720020476
 21
0.3749999999999965
 31
0.0
  0
LINE
  5
AE
330
2
100
AcDbEntity
  8
OBJECT
100
AcDbLine
 10
-2.531299999999995
 20
0.9999999999999965
 30
0.0
 11
-2.906299999999995
 21
0.9999999999999965
 31
0.0
  0
LINE
  5
AF
330
2
100
AcDbEntity
  8
OBJECT
100
AcDbLine
 10
-2.499999999999691
 20
1.499999999999993
 30
0.0
 11
-2.999999999999998
 21
1.499999999999989
 31
0.0
  0
ARC
  5
B0
330
2
100
AcDbEntity
  8
OBJECT
100
AcDbCircle
 10
-2.906299999999995
 20
0.7499999999999965
 30
0.0
 40
0.25
100
AcDbArc
 50
90.00003863738409
 51
112.0119521581501
  0
ARC
  5
B1
330
2
100
AcDbEntity
  8
OBJECT
100
AcDbCircle
 10
-2.906299999999995
 20
0.7499999999999965
 30
0.0
 40
0.375
100
AcDbArc
 50
90.00003863738409
 51
104.4696223492829
  0
LINE
  5
B2
330
2
100
AcDbEntity
  8
OBJECT
100
AcDbLine
 10
-2.86212438213316
 20
1.124999999999996
 30
0.0
 11
-2.906299999999995
 21
1.124999999999996
 31
0.0
  0
LINE
  5
B3
330
2
100
AcDbEntity
  8
OBJECT
100
AcDbLine
 10
-2.531299999999995
 20
1.124999999999996
 30
0.0
 11
-2.69169488536577
 21
1.124999999999996
 31
0.0
  0
CIRCLE
  5
B4
330
2
100
AcDbEntity
  8
OBJECT
100
AcDbCircle
 10
-2.374999999999989
 20
1.499999999999996
 30
0.0
 40
0.125
  0
LINE
  5
B5
330
2
100
AcDbEntity
  8
OBJECT
100
AcDbLine
 10
-2.871538723138871
 20
2.217461120829228
 30
0.0
 11
-2.424487734489924
 21
2.04392828170635
 31
0.0
  0
LINE
  5
B6
330
2
100
AcDbEntity
  8
OBJECT
100
AcDbLine
 10
-2.871538723138835
 20
1.78253887917078
 30
0.0
 11
-2.424487734489924
 21
1.956071718293643
 31
0.0
  0
ARC
  5
B7
330
2
100
AcDbEntity
  8
OBJECT
100
AcDbCircle
 10
-3.083333333333211
 20
2.000000000000057
 30
0.0
 40
0.3020833333332104
100
AcDbArc
 50
315.9513743258719
 51
44.04862567412739
  0
ARC
  5
B8
330
2
100
AcDbEntity
  8
OBJECT
100
AcDbCircle
 10
-2.843749999999991
 20
1.768243797278068
 30
0.0
 40
0.03125
100
AcDbArc
 50
135.9513743258694
 51
180.0000000000001
  0
ARC
  5
B9
330
2
100
AcDbEntity
  8
OBJECT
100
AcDbCircle
 10
-2.843749999999988
 20
2.231756202722039
 30
0.0
 40
0.03125
100
AcDbArc
 50
180.0000000000001
 51
224.0486256741308
  0
ARC
  5
BA
330
2
100
AcDbEntity
  8
OBJECT
100
AcDbCircle
 10
-2.440845353244717
 20
1.999999999999993
 30
0.0
 40
0.046875
100
AcDbArc
 50
290.423872154456
 51
69.57612784554424
  0
ARC
  5
BB
330
2
100
AcDbEntity
  8
OBJECT
100
AcDbCircle
 10
-3.083333333333213
 20
3.24999999999995
 30
0.0
 40
0.3020833333332104
100
AcDbArc
 50
315.9513743258728
 51
44.0486256741283
  0
LINE
  5
BC
330
2
100
AcDbEntity
  8
OBJECT
100
AcDbLine
 10
-2.871538723138837
 20
3.467461120829221
 30
0.0
 11
-2.424487734489926
 21
3.293928281706364
 31
0.0
  0
LINE
  5
BD
330
2
100
AcDbEntity
  8
OBJECT
100
AcDbLine
 10
-2.871538723138873
 20
3.03253887917078
 30
0.0
 11
-2.424487734489926
 21
3.206071718293657
 31
0.0
  0
ARC
  5
BE
330
2
100
AcDbEntity
  8
OBJECT
100
AcDbCircle
 10
-2.843749999999989
 20
3.018243797277968
 30
0.0
 40
0.03125
100
AcDbArc
 50
135.9513743258694
 51
180.0000000000001
  0
ARC
  5
BF
330
2
100
AcDbEntity
  8
OBJECT
100
AcDbCircle
 10
-2.843749999999993
 20
3.481756202721932
 30
0.0
 40
0.03125
100
AcDbArc
 50
180.0000000000001
 51
224.0486256741307
  0
ARC
  5
C0
330
2
100
AcDbEntity
  8
OBJECT
100
AcDbCircle
 10
-2.440845353244718
 20
3.250000000000007
 30
0.0
 40
0.046875
100
AcDbArc
 50
290.423872154456
 51
69.57612784554424
  0
ARC
  5
C1
330
2
100
AcDbEntity
  8
OBJECT
100
AcDbCircle
 10
-2.677255490405383
 20
4.499999999999975
 30
0.0
 40
0.5415445095946648
100
AcDbArc
 50
145.7705655526785
 51
214.2294344473111
  0
ARC
  5
C2
330
2
100
AcDbEntity
  8
OBJECT
100
AcDbCircle
 10
-2.5313
 20
4.500000000000004
 30
0.0
 40
0.25
100
AcDbArc
 50
270.0000000000001
 51
89.99996136261612
  0
LINE
  5
C3
330
2
100
AcDbEntity
  8
OBJECT
100
AcDbLine
 10
-2.499999999999993
 20
3.75
 30
0.0
 11
-2.999999999999998
 21
3.750000000000004
 31
0.0
  0
LINE
  5
C4
330
2
100
AcDbEntity
  8
OBJECT
100
AcDbLine
 10
-2.5313
 20
4.250000000000004
 30
0.0
 11
-2.9063
 21
4.250000000000004
 31
0.0
  0
LINE
  5
C5
330
2
100
AcDbEntity
  8
OBJECT
100
AcDbLine
 10
-2.831046062134405
 20
4.125000000000004
 30
0.0
 11
-2.9063
 21
4.125000000000004
 31
0.0
  0
ARC
  5
C6
330
2
100
AcDbEntity
  8
OBJECT
100
AcDbCircle
 10
-2.9063
 20
4.500000000000004
 30
0.0
 40
0.375
100
AcDbArc
 50
255.530377650718
 51
270.0000000000001
  0
ARC
  5
C7
330
2
100
AcDbEntity
  8
OBJECT
100
AcDbCircle
 10
-2.9063
 20
4.500000000000004
 30
0.0
 40
0.25
100
AcDbArc
 50
247.9880478418498
 51
270.0000000000001
  0
CIRCLE
  5
C8
330
2
100
AcDbEntity
  8
OBJECT
100
AcDbCircle
 10
-2.374999999999993
 20
3.750000000000004
 30
0.0
 40
0.125
  0
LINE
  5
C9
330
2
100
AcDbEntity
  8
OBJECT
100
AcDbLine
 10
-2.5313
 20
4.125000000000004
 30
0.0
 11
-2.684677200204767
 21
4.125000000000004
 31
0.0
  0
LINE
  5
CA
330
2
100
AcDbEntity
  8
OBJECT
100
AcDbLine
 10
-2.5313
 20
4.750000000000004
 30
0.0
 11
-2.9063
 21
4.750000000000004
 31
0.0
  0
LINE
  5
CB
330
2
100
AcDbEntity
  8
OBJECT
100
AcDbLine
 10
-3.125
 20
5.249999999999996
 30
0.0
 11
-3.124999999999998
 21
4.686426942599187
 31
0.0
  0
LINE
  5
CC
330
2
100
AcDbEntity
  8
OBJECT
100
AcDbLine
 10
-3.0
 20
5.250000000000004
 30
0.0
 11
-2.999999999999998
 21
4.731776422442014
 31
0.0
  0
LINE
  5
CD
330
2
100
AcDbEntity
  8
OBJECT
100
AcDbLine
 10
-3.124999999999999
 20
4.624999999999996
 30
0.0
 11
-2.999999999999998
 21
4.624999999999996
 31
0.0
  0
LINE
  5
CE
330
2
100
AcDbEntity
  8
OBJECT
100
AcDbLine
 10
-2.862124382133164
 20
4.875000000000004
 30
0.0
 11
-2.9063
 21
4.875000000000004
 31
0.0
  0
ARC
  5
CF
330
2
100
AcDbEntity
  8
OBJECT
100
AcDbCircle
 10
-2.9063
 20
4.500000000000004
 30
0.0
 40
0.375
100
AcDbArc
 50
90.00003863738409
 51
104.469622349282
  0
ARC
  5
D0
330
2
100
AcDbEntity
  8
OBJECT
100
AcDbCircle
 10
-2.9063
 20
4.500000000000004
 30
0.0
 40
0.25
100
AcDbArc
 50
90.00003863738409
 51
112.0119521581501
  0
LINE
  5
D1
330
2
100
AcDbEntity
  8
OBJECT
100
AcDbLine
 10
-2.5313
 20
4.875000000000004
 30
0.0
 11
-2.691694885365777
 21
4.875000000000004
 31
0.0
  0
LINE
  5
D2
330
2
100
AcDbEntity
  8
OBJECT
100
AcDbLine
 10
2.875000000000179
 20
3.750000000000004
 30
0.0
 11
2.875000000000179
 21
2.625000000000004
 31
0.0
  0
LINE
  5
D3
330
2
100
AcDbEntity
  8
OBJECT
100
AcDbLine
 10
3.000000000000007
 20
4.731776422442014
 30
0.0
 11
3.000000000000007
 21
0.0
 31
0.0
  0
LINE
  5
D4
330
2
100
AcDbEntity
  8
OBJECT
100
AcDbLine
 10
3.125000000000007
 20
4.686426942599194
 30
0.0
 11
3.124999999999998
 21
0.0000000000000036
 31
0.0
  0
LINE
  5
D5
330
2
100
AcDbEntity
  8
OBJECT
100
AcDbLine
 10
2.531300000000002
 20
0.9999999999999965
 30
0.0
 11
2.906300000000002
 21
0.9999999999999965
 31
0.0
  0
LINE
  5
D6
330
2
100
AcDbEntity
  8
OBJECT
100
AcDbLine
 10
2.531300000000002
 20
0.4999999999999965
 30
0.0
 11
2.906300000000002
 21
0.4999999999999965
 31
0.0
  0
LINE
  5
D7
330
2
100
AcDbEntity
  8
OBJECT
100
AcDbLine
 10
2.871538723139024
 20
1.78253887917079
 30
0.0
 11
2.424487734490112
 21
1.956071718293647
 31
0.0
  0
LINE
  5
D8
330
2
100
AcDbEntity
  8
OBJECT
100
AcDbLine
 10
2.871538723139059
 20
2.217461120829231
 30
0.0
 11
2.424487734490112
 21
2.043928281706354
 31
0.0
  0
LINE
  5
D9
330
2
100
AcDbEntity
  8
OBJECT
100
AcDbLine
 10
2.871538723139059
 20
3.032538879170783
 30
0.0
 11
2.424487734490112
 21
3.206071718293661
 31
0.0
  0
LINE
  5
DA
330
2
100
AcDbEntity
  8
OBJECT
100
AcDbLine
 10
2.871538723139024
 20
3.467461120829231
 30
0.0
 11
2.424487734490112
 21
3.293928281706368
 31
0.0
  0
LINE
  5
DB
330
2
100
AcDbEntity
  8
OBJECT
100
AcDbLine
 10
2.500000000000235
 20
1.499999999999996
 30
0.0
 11
3.000000000000007
 21
1.5
 31
0.0
  0
ARC
  5
DC
330
2
100
AcDbEntity
  8
OBJECT
100
AcDbCircle
 10
2.531300000000002
 20
0.7499999999999965
 30
0.0
 40
0.25
100
AcDbArc
 50
89.99999999999993
 51
269.999961362616
  0
ARC
  5
DD
330
2
100
AcDbEntity
  8
OBJECT
100
AcDbCircle
 10
2.531300000000002
 20
0.7499999999999965
 30
0.0
 40
0.375
100
AcDbArc
 50
90.0000386373839
 51
269.9999999999999
  0
ARC
  5
DE
330
2
100
AcDbEntity
  8
OBJECT
100
AcDbCircle
 10
2.531300000000002
 20
0.7499999999999965
 30
0.0
 40
0.25
100
AcDbArc
 50
90.0000386373839
 51
269.9999999999999
  0
LINE
  5
DF
330
2
100
AcDbEntity
  8
OBJECT
100
AcDbLine
 10
2.531300000000002
 20
0.3749999999999965
 30
0.0
 11
2.684677200204767
 21
0.3749999999999965
 31
0.0
  0
LINE
  5
E0
330
2
100
AcDbEntity
  8
OBJECT
100
AcDbLine
 10
2.531300000000002
 20
1.124999999999996
 30
0.0
 11
2.691694885365777
 21
1.124999999999996
 31
0.0
  0
CIRCLE
  5
E1
330
2
100
AcDbEntity
  8
OBJECT
100
AcDbCircle
 10
2.375000000000007
 20
1.499999999999996
 30
0.0
 40
0.125
  0
ARC
  5
E2
330
2
100
AcDbEntity
  8
OBJECT
100
AcDbCircle
 10
2.440845353244905
 20
2.000000000000004
 30
0.0
 40
0.046875
100
AcDbArc
 50
110.4238721544558
 51
249.5761278455441
  0
ARC
  5
E3
330
2
100
AcDbEntity
  8
OBJECT
100
AcDbCircle
 10
2.440845353244905
 20
3.250000000000018
 30
0.0
 40
0.046875
100
AcDbArc
 50
110.4238721544558
 51
249.5761278455441
  0
LINE
  5
E4
330
2
100
AcDbEntity
  8
OBJECT
100
AcDbLine
 10
2.875000000000179
 20
1.5
 30
0.0
 11
2.875000000000179
 21
2.625000000000011
 31
0.0
  0
ARC
  5
E5
330
2
100
AcDbEntity
  8
OBJECT
100
AcDbCircle
 10
2.677255490405386
 20
0.749999999999968
 30
0.0
 40
0.5415445095946648
100
AcDbArc
 50
325.770565552689
 51
34.22943444732149
  0
LINE
  5
E6
330
2
100
AcDbEntity
  8
OBJECT
100
AcDbLine
 10
3.000000000000007
 20
0.6250000000000036
 30
0.0
 11
3.124999999999998
 21
0.6250000000000036
 31
0.0
  0
LINE
  5
E7
330
2
100
AcDbEntity
  8
OBJECT
100
AcDbLine
 10
2.831046062134409
 20
0.3749999999999965
 30
0.0
 11
2.906300000000002
 21
0.3749999999999965
 31
0.0
  0
ARC
  5
E8
330
2
100
AcDbEntity
  8
OBJECT
100
AcDbCircle
 10
2.906300000000002
 20
0.7499999999999965
 30
0.0
 40
0.375
100
AcDbArc
 50
269.9999999999999
 51
284.4696223492832
  0
ARC
  5
E9
330
2
100
AcDbEntity
  8
OBJECT
100
AcDbCircle
 10
2.906300000000002
 20
0.7499999999999965
 30
0.0
 40
0.25
100
AcDbArc
 50
269.9999999999999
 51
292.0119521581503
  0
LINE
  5
EA
330
2
100
AcDbEntity
  8
OBJECT
100
AcDbLine
 10
2.862124382133167
 20
1.124999999999996
 30
0.0
 11
2.906300000000002
 21
1.124999999999996
 31
0.0
  0
ARC
  5
EB
330
2
100
AcDbEntity
  8
OBJECT
100
AcDbCircle
 10
2.906300000000002
 20
0.7499999999999965
 30
0.0
 40
0.375
100
AcDbArc
 50
75.53037765071686
 51
89.99996136261592
  0
ARC
  5
EC
330
2
100
AcDbEntity
  8
OBJECT
100
AcDbCircle
 10
2.906300000000002
 20
0.7499999999999965
 30
0.0
 40
0.25
100
AcDbArc
 50
67.98804784184989
 51
89.99996136261592
  0
ARC
  5
ED
330
2
100
AcDbEntity
  8
OBJECT
100
AcDbCircle
 10
3.0833333333334
 20
2.00000000000006
 30
0.0
 40
0.3020833333332104
100
AcDbArc
 50
135.9513743258727
 51
224.0486256741283
  0
ARC
  5
EE
330
2
100
AcDbEntity
  8
OBJECT
100
AcDbCircle
 10
2.843750000000179
 20
1.768243797278078
 30
0.0
 40
0.03125
100
AcDbArc
 50
0.0
 51
44.04862567413066
  0
ARC
  5
EF
330
2
100
AcDbEntity
  8
OBJECT
100
AcDbCircle
 10
2.843750000000176
 20
2.231756202722043
 30
0.0
 40
0.03125
100
AcDbArc
 50
315.9513743258693
 51
0.0
  0
ARC
  5
F0
330
2
100
AcDbEntity
  8
OBJECT
100
AcDbCircle
 10
2.843750000000176
 20
3.018243797277972
 30
0.0
 40
0.03125
100
AcDbArc
 50
0.0
 51
44.04862567413066
  0
ARC
  5
F1
330
2
100
AcDbEntity
  8
OBJECT
100
AcDbCircle
 10
2.843750000000179
 20
3.481756202721943
 30
0.0
 40
0.03125
100
AcDbArc
 50
315.9513743258694
 51
0.0
  0
ARC
  5
F2
330
2
100
AcDbEntity
  8
OBJECT
100
AcDbCircle
 10
3.0833333333334
 20
3.249999999999954
 30
0.0
 40
0.3020833333332104
100
AcDbArc
 50
135.9513743258718
 51
224.0486256741273
  0
LINE
  5
F3
330
2
100
AcDbEntity
  8
OBJECT
100
AcDbLine
 10
2.531300000000007
 20
4.250000000000004
 30
0.0
 11
2.906300000000007
 21
4.250000000000004
 31
0.0
  0
LINE
  5
F4
330
2
100
AcDbEntity
  8
OBJECT
100
AcDbLine
 10
2.531300000000007
 20
4.750000000000004
 30
0.0
 11
2.906300000000007
 21
4.750000000000004
 31
0.0
  0
LINE
  5
F5
330
2
100
AcDbEntity
  8
OBJECT
100
AcDbLine
 10
2.500000000000007
 20
3.749999999999996
 30
0.0
 11
3.000000000000007
 21
3.750000000000007
 31
0.0
  0
ARC
  5
F6
330
2
100
AcDbEntity
  8
OBJECT
100
AcDbCircle
 10
2.531300000000007
 20
4.500000000000004
 30
0.0
 40
0.25
100
AcDbArc
 50
90.0000386373839
 51
269.9999999999999
  0
ARC
  5
F7
330
2
100
AcDbEntity
  8
OBJECT
100
AcDbCircle
 10
2.531300000000007
 20
4.500000000000004
 30
0.0
 40
0.375
100
AcDbArc
 50
90.0000386373839
 51
269.9999999999999
  0
CIRCLE
  5
F8
330
2
100
AcDbEntity
  8
OBJECT
100
AcDbCircle
 10
2.375000000000007
 20
3.750000000000004
 30
0.0
 40
0.125
  0
LINE
  5
F9
330
2
100
AcDbEntity
  8
OBJECT
100
AcDbLine
 10
2.531300000000007
 20
4.125000000000004
 30
0.0
 11
2.684677200204774
 21
4.125000000000004
 31
0.0
  0
LINE
  5
FA
330
2
100
AcDbEntity
  8
OBJECT
100
AcDbLine
 10
2.531300000000007
 20
4.875000000000004
 30
0.0
 11
2.691694885365784
 21
4.875000000000004
 31
0.0
  0
ARC
  5
FB
330
2
100
AcDbEntity
  8
OBJECT
100
AcDbCircle
 10
2.67725549040539
 20
4.499999999999975
 30
0.0
 40
0.5415445095946648
100
AcDbArc
 50
325.770565552689
 51
34.22943444732149
  0
ARC
  5
FC
330
2
100
AcDbEntity
  8
OBJECT
100
AcDbCircle
 10
2.906300000000007
 20
4.500000000000004
 30
0.0
 40
0.25
100
AcDbArc
 50
269.9999999999999
 51
292.0119521581503
  0
ARC
  5
FD
330
2
100
AcDbEntity
  8
OBJECT
100
AcDbCircle
 10
2.906300000000007
 20
4.500000000000004
 30
0.0
 40
0.375
100
AcDbArc
 50
269.9999999999999
 51
284.4696223492822
  0
LINE
  5
FE
330
2
100
AcDbEntity
  8
OBJECT
100
AcDbLine
 10
2.831046062134412
 20
4.125000000000004
 30
0.0
 11
2.906300000000007
 21
4.125000000000004
 31
0.0
  0
LINE
  5
FF
330
2
100
AcDbEntity
  8
OBJECT
100
AcDbLine
 10
3.000000000000007
 20
5.250000000000004
 30
0.0
 11
3.000000000000007
 21
4.731776422442014
 31
0.0
  0
LINE
  5
100
330
2
100
AcDbEntity
  8
OBJECT
100
AcDbLine
 10
3.125000000000007
 20
5.250000000000004
 30
0.0
 11
3.125000000000007
 21
4.686426942599194
 31
0.0
  0
LINE
  5
101
330
2
100
AcDbEntity
  8
OBJECT
100
AcDbLine
 10
3.000000000000005
 20
4.625
 30
0.0
 11
3.125000000000007
 21
4.625000000000004
 31
0.0
  0
ARC
  5
102
330
2
100
AcDbEntity
  8
OBJECT
100
AcDbCircle
 10
2.906300000000007
 20
4.500000000000004
 30
0.0
 40
0.25
100
AcDbArc
 50
67.98804784184989
 51
89.99996136261592
  0
ARC
  5
103
330
2
100
AcDbEntity
  8
OBJECT
100
AcDbCircle
 10
2.906300000000007
 20
4.500000000000004
 30
0.0
 40
0.375
100
AcDbArc
 50
75.53037765071764
 51
89.99996136261592
  0
LINE
  5
104
330
2
100
AcDbEntity
  8
OBJECT
100
AcDbLine
 10
2.862124382133171
 20
4.875000000000004
 30
0.0
 11
2.906300000000007
 21
4.875000000000004
 31
0.0
  0
ENDSEC
  0
SECTION
  2
OBJECTS
  0
DICTIONARY
  5
7
330
0
100
AcDbDictionary
281
     1
  3
ACAD_COLOR
350
98
  3
ACAD_GROUP
350
1F
  3
ACAD_LAYOUT
350
B
  3
ACAD_MATERIAL
350
97
  3
ACAD_MLINESTYLE
350
20
  3
ACAD_PLOTSETTINGS
350
21
  3
ACAD_PLOTSTYLENAME
350
6
  3
ACAD_TABLESTYLE
350
99
  3
ACDBHEADERROUNDTRIPXREC
350
10F
  3
AcDbVariableDictionary
350
93
  0
DICTIONARY
  5
105
330
2
100
AcDbDictionary
280
     1
281
     1
  3
ACAD_SORTENTS
360
106
  0
DICTIONARY
  5
98
102
{ACAD_REACTORS
330
7
102
}
330
7
100
AcDbDictionary
281
     1
  0
DICTIONARY
  5
1F
102
{ACAD_REACTORS
330
7
102
}
330
7
100
AcDbDictionary
281
     1
  0
DICTIONARY
  5
B
102
{ACAD_REACTORS
330
7
102
}
330
7
100
AcDbDictionary
281
     1
  3
Layout1
350
F
  3
Model
350
A
  0
DICTIONARY
  5
97
102
{ACAD_REACTORS
330
7
102
}
330
7
100
AcDbDictionary
281
     1
  0
DICTIONARY
  5
20
102
{ACAD_REACTORS
330
7
102
}
330
7
100
AcDbDictionary
281
     1
  3
Standard
350
23
  0
DICTIONARY
  5
21
102
{ACAD_REACTORS
330
7
102
}
330
7
100
AcDbDictionary
281
     1
  0
ACDBDICTIONARYWDFLT
  5
6
102
{ACAD_REACTORS
330
7
102
}
330
7
100
AcDbDictionary
281
     1
  3
Normal
350
5
100
AcDbDictionaryWithDefault
340
5
  0
DICTIONARY
  5
99
102
{ACAD_REACTORS
330
7
102
}
330
7
100
AcDbDictionary
281
     1
  3
Standard
350
9A
  0
DICTIONARY
  5
10F
102
{ACAD_REACTORS
330
7
102
}
330
7
100
AcDbDictionary
281
     1
  3
COLORDICT
350
110
  3
MATERIALDICT
350
111
  0
DICTIONARY
  5
93
102
{ACAD_REACTORS
330
7
102
}
330
7
100
AcDbDictionary
281
     1
  3
CTABLESTYLE
350
10D
  3
DIMASSOC
350
95
  3
HIDETEXT
350
94
  0
SORTENTSTABLE
  5
106
102
{ACAD_REACTORS
330
105
102
}
330
105
100
AcDbSortentsTable
330
2
331
C6
  5
C6
331
CD
  5
CD
331
FC
  5
FC
331
CC
  5
CC
331
A9
  5
A9
331
F8
  5
F8
331
C7
  5
C7
331
D9
  5
D9
331
B7
  5
B7
331
A0
  5
A0
331
AC
  5
AC
331
F6
  5
F6
331
BF
  5
BF
331
EE
  5
EE
331
C5
  5
C5
331
A8
  5
A8
331
D2
  5
D2
331
AA
  5
AA
331
EA
  5
EA
331
B2
  5
B2
331
A7
  5
A7
331
F3
  5
F3
331
100
  5
100
331
F5
  5
F5
331
D5
  5
D5
331
C9
  5
C9
331
FF
  5
FF
331
A4
  5
A4
331
104
  5
104
331
E3
  5
E3
331
C2
  5
C2
331
A6
  5
A6
331
B5
  5
B5
331
F9
  5
F9
331
FE
  5
FE
331
101
  5
101
331
103
  5
103
331
BE
  5
BE
331
B3
  5
B3
331
AE
  5
AE
331
BA
  5
BA
331
E5
  5
E5
331
A1
  5
A1
331
B8
  5
B8
331
C4
  5
C4
331
B6
  5
B6
331
C3
  5
C3
331
E8
  5
E8
331
D1
  5
D1
331
E4
  5
E4
331
DF
  5
DF
331
BC
  5
BC
331
DD
  5
DD
331
D7
  5
D7
331
D4
  5
D4
331
CE
  5
CE
331
E7
  5
E7
331
A3
  5
A3
331
D6
  5
D6
331
F7
  5
F7
331
AF
  5
AF
331
F0
  5
F0
331
9F
  5
9F
331
D8
  5
D8
331
B0
  5
B0
331
DA
  5
DA
331
EF
  5
EF
331
F4
  5
F4
331
B9
  5
B9
331
E6
  5
E6
331
FD
  5
FD
331
A2
  5
A2
331
E9
  5
E9
331
DB
  5
DB
331
E1
  5
E1
331
F2
  5
F2
331
CA
  5
CA
331
9D
  5
9D
331
B4
  5
B4
331
D3
  5
D3
331
A5
  5
A5
331
C1
  5
C1
331
F1
  5
F1
331
BD
  5
BD
331
AD
  5
AD
331
E2
  5
E2
331
B1
  5
B1
331
CB
  5
CB
331
CF
  5
CF
331
9E
  5
9E
331
BB
  5
BB
331
ED
  5
ED
331
EB
  5
EB
331
EC
  5
EC
331
FB
  5
FB
331
DE
  5
DE
331
DC
  5
DC
331
C0
  5
C0
331
FA
  5
FA
331
E0
  5
E0
331
C8
  5
C8
331
102
  5
102
331
AB
  5
AB
331
D0
  5
D0
  0
LAYOUT
  5
F
102
{ACAD_REACTORS
330
B
102
}
102
{ACAD_XDICTIONARY
360
112
102
}
330
B
100
AcDbPlotSettings
  1

  2
X:\Program Files\AutoCAD2002\plotters\DWF ePlot (optimized for plotting).pc3
  4

  6

 40
0.0
 41
0.0
 42
0.0
 43
0.0
 44
0.0
 45
0.0
 46
0.0
 47
0.0
 48
0.0
 49
0.0
140
0.0
141
0.0
142
1.0
143
1.0
 70
   688
 72
     0
 73
     0
 74
     5
  7

 75
    16
147
1.0
148
0.0
149
0.0
100
AcDbLayout
  1
Layout1
 70
     0
 71
     1
 10
0.0
 20
0.0
 11
12.0
 21
9.0
 12
0.0
 22
0.0
 32
0.0
 14
1.000000000000000E+20
 24
1.000000000000000E+20
 34
1.000000000000000E+20
 15
-1.000000000000000E+20
 25
-1.000000000000000E+20
 35
-1.000000000000000E+20
146
0.0
 13
0.0
 23
0.0
 33
0.0
 16
1.0
 26
0.0
 36
0.0
 17
0.0
 27
1.0
 37
0.0
 76
     0
330
C
  0
LAYOUT
  5
A
102
{ACAD_REACTORS
330
B
102
}
102
{ACAD_XDICTIONARY
360
114
102
}
330
B
100
AcDbPlotSettings
  1

  2
X:\Program Files\AutoCAD2002\plotters\DWF ePlot (optimized for plotting).pc3
  4

  6

 40
0.0
 41
0.0
 42
0.0
 43
0.0
 44
0.0
 45
0.0
 46
0.0
 47
0.0
 48
0.0
 49
0.0
140
0.0
141
0.0
142
1.0
143
1.0
 70
  1712
 72
     0
 73
     0
 74
     0
  7

 75
     0
147
1.0
148
0.0
149
0.0
100
AcDbLayout
  1
Model
 70
     1
 71
     0
 10
0.0
 20
0.0
 11
12.0
 21
9.0
 12
0.0
 22
0.0
 32
0.0
 14
0.0
 24
0.0
 34
0.0
 15
0.0
 25
0.0
 35
0.0
146
0.0
 13
0.0
 23
0.0
 33
0.0
 16
1.0
 26
0.0
 36
0.0
 17
0.0
 27
1.0
 37
0.0
 76
     0
330
2
  0
MLINESTYLE
  5
23
102
{ACAD_REACTORS
330
20
102
}
330
20
100
AcDbMlineStyle
  2
STANDARD
 70
     0
  3

 62
   256
 51
90.0
 52
90.0
 71
     2
 49
0.5
 62
   256
  6
BYLAYER
 49
-0.5
 62
   256
  6
BYLAYER
  0
ACDBPLACEHOLDER
  5
5
102
{ACAD_REACTORS
330
6
102
}
330
6
  0
ACAD_PROXY_OBJECT
  5
9A
102
{ACAD_REACTORS
330
99
102
}
330
99
100
AcDbProxyObject
 90
      499
 91
      504
 95
   983063
 70
     0
 93
     1841
310
4214DD185B99185C9928B81E85EB51B8AE3F2E07A17AD46E2B8FC02B5E8DC0F42B1CFD028000000C1008070000C3001FDFF8000000C1003FBFF000000182007F7FE00000030400FEFFC00000060801FDFF8000000C1003FBFF00000018200000000000000681FA0B0000001820100E000186003FBFF000000182007F7FE000
310
00030400FEFFC00000060801FDFF8000000C1003FBFF000000182007F7FE000000304000AD7A3703D0AC73F4160000003040201C00030C007F7FE00000030400FEFFC00000060801FDFF8000000C1003FBFF000000182007F7FE00000030400FEFFC000000608000
340
12
340
12
340
12
 94
        0
  0
XRECORD
  5
110
102
{ACAD_REACTORS
330
10F
102
}
330
10F
100
AcDbXrecord
340
98
  0
XRECORD
  5
111
102
{ACAD_REACTORS
330
10F
102
}
330
10F
100
AcDbXrecord
340
97
  0
DICTIONARYVAR
  5
10D
102
{ACAD_REACTORS
330
93
102
}
330
93
100
DictionaryVariables
280
     0
  1
STANDARD
  0
DICTIONARYVAR
  5
95
102
{ACAD_REACTORS
330
93
102
}
330
93
100
DictionaryVariables
280
     0
  1
2
  0
DICTIONARYVAR
  5
94
102
{ACAD_REACTORS
330
93
102
}
330
93
100
DictionaryVariables
280
     0
  1
1
  0
DICTIONARY
  5
112
330
F
100
AcDbDictionary
280
     1
281
     1
  3
ACAD_XREC_ROUNDTRIP
360
113
  0
DICTIONARY
  5
114
330
A
100
AcDbDictionary
280
     1
281
     1
  3
ACAD_XREC_ROUNDTRIP
360
115
  0
XRECORD
  5
113
102
{ACAD_REACTORS
330
112
102
}
330
112
100
AcDbXrecord
102
SHADEPLOT
 70
     0
102
SHADEPLOTRESLEVEL
 70
     2
102
SHADEPLOTCUSTOMDPI
 70
   300
  0
XRECORD
  5
115
102
{ACAD_REACTORS
330
114
102
}
330
114
100
AcDbXrecord
102
SHADEPLOT
 70
     0
102
SHADEPLOTRESLEVEL
 70
     2
102
SHADEPLOTCUSTOMDPI
 70
   300
  0
ENDSEC
  0
EOF
