  0
SECTION
  2
HEADER
  9
$ACADVER
  1
AC1015
  9
$ACADMAINTVER
 70
     6
  9
$DWGCODEPAGE
  3
ANSI_1252
  9
$INSBASE
 10
0.0
 20
0.0
 30
0.0
  9
$EXTMIN
 10
-0.3873992109116031
 20
-0.0003659985936437
 30
-0.0000000000112498
  9
$EXTMAX
 10
15.86817784246732
 20
15.37593858290314
 30
0.0000000000002956
  9
$LIMMIN
 10
0.0
 20
0.0
  9
$LIMMAX
 10
31.5
 20
24.0
  9
$ORTHOMODE
 70
     1
  9
$REGENMODE
 70
     1
  9
$FILLMODE
 70
     1
  9
$QTEXTMODE
 70
     0
  9
$MIRRTEXT
 70
     0
  9
$LTSCALE
 40
0.5
  9
$ATTMODE
 70
     1
  9
$TEXTSIZE
 40
0.270000000000005
  9
$TRACEWID
 40
0.05
  9
$TEXTSTYLE
  7
STANDARD
  9
$CLAYER
  8
0
  9
$CELTYPE
  6
ByLayer
  9
$CECOLOR
 62
   256
  9
$CELTSCALE
 40
1.0
  9
$DISPSILH
 70
     0
  9
$DIMSCALE
 40
3.00000000000005
  9
$DIMASZ
 40
0.125
  9
$DIMEXO
 40
0.062
  9
$DIMDLI
 40
0.375
  9
$DIMRND
 40
0.0
  9
$DIMDLE
 40
0.0
  9
$DIMEXE
 40
0.08
  9
$DIMTP
 40
0.0
  9
$DIMTM
 40
0.0
  9
$DIMTXT
 40
0.09
  9
$DIMCEN
 40
-0.03125
  9
$DIMTSZ
 40
0.0
  9
$DIMTOL
 70
     0
  9
$DIMLIM
 70
     0
  9
$DIMTIH
 70
     1
  9
$DIMTOH
 70
     1
  9
$DIMSE1
 70
     0
  9
$DIMSE2
 70
     0
  9
$DIMTAD
 70
     0
  9
$DIMZIN
 70
     0
  9
$DIMBLK
  1

  9
$DIMASO
 70
     0
  9
$DIMSHO
 70
     0
  9
$DIMPOST
  1

  9
$DIMAPOST
  1

  9
$DIMALT
 70
     0
  9
$DIMALTD
 70
     2
  9
$DIMALTF
 40
25.4
  9
$DIMLFAC
 40
1.0
  9
$DIMTOFL
 70
     0
  9
$DIMTVP
 40
0.0
  9
$DIMTIX
 70
     0
  9
$DIMSOXD
 70
     0
  9
$DIMSAH
 70
     0
  9
$DIMBLK1
  1

  9
$DIMBLK2
  1

  9
$DIMSTYLE
  2
Standard
  9
$DIMCLRD
 70
     0
  9
$DIMCLRE
 70
     0
  9
$DIMCLRT
 70
     0
  9
$DIMTFAC
 40
1.0
  9
$DIMGAP
 40
0.09
  9
$DIMJUST
 70
     0
  9
$DIMSD1
 70
     0
  9
$DIMSD2
 70
     0
  9
$DIMTOLJ
 70
     1
  9
$DIMTZIN
 70
     0
  9
$DIMALTZ
 70
     0
  9
$DIMALTTZ
 70
     0
  9
$DIMUPT
 70
     0
  9
$DIMDEC
 70
     5
  9
$DIMTDEC
 70
     5
  9
$DIMALTU
 70
     5
  9
$DIMALTTD
 70
     2
  9
$DIMTXSTY
  7
STANDARD
  9
$DIMAUNIT
 70
     0
  9
$DIMADEC
 70
     0
  9
$DIMALTRND
 40
0.0
  9
$DIMAZIN
 70
     0
  9
$DIMDSEP
 70
    46
  9
$DIMATFIT
 70
     3
  9
$DIMFRAC
 70
     0
  9
$DIMLDRBLK
  1

  9
$DIMLUNIT
 70
     5
  9
$DIMLWD
 70
    -2
  9
$DIMLWE
 70
    -2
  9
$DIMTMOVE
 70
     2
  9
$LUNITS
 70
     5
  9
$LUPREC
 70
     5
  9
$SKETCHINC
 40
0.1
  9
$FILLETRAD
 40
0.0
  9
$AUNITS
 70
     0
  9
$AUPREC
 70
     0
  9
$MENU
  1
acad
  9
$ELEVATION
 40
0.0
  9
$PELEVATION
 40
0.0
  9
$THICKNESS
 40
0.0
  9
$LIMCHECK
 70
     0
  9
$CHAMFERA
 40
0.0
  9
$CHAMFERB
 40
0.0
  9
$CHAMFERC
 40
0.0
  9
$CHAMFERD
 40
0.0
  9
$SKPOLY
 70
     0
  9
$TDCREATE
 40
2449276.797898958
  9
$TDUCREATE
 40
2449277.131232292
  9
$TDUPDATE
 40
2454162.883917917
  9
$TDUUPDATE
 40
2454163.21725125
  9
$TDINDWG
 40
0.0631534144
  9
$TDUSRTIMER
 40
0.0631534144
  9
$USRTIMER
 70
     1
  9
$ANGBASE
 50
0.0
  9
$ANGDIR
 70
     0
  9
$PDMODE
 70
     0
  9
$PDSIZE
 40
0.0
  9
$PLINEWID
 40
0.0
  9
$SPLFRAME
 70
     0
  9
$SPLINETYPE
 70
     6
  9
$SPLINESEGS
 70
     8
  9
$HANDSEED
  5
27D
  9
$SURFTAB1
 70
     6
  9
$SURFTAB2
 70
     6
  9
$SURFTYPE
 70
     6
  9
$SURFU
 70
     6
  9
$SURFV
 70
     6
  9
$UCSBASE
  2

  9
$UCSNAME
  2

  9
$UCSORG
 10
0.0
 20
0.0
 30
0.0
  9
$UCSXDIR
 10
1.0
 20
0.0
 30
0.0
  9
$UCSYDIR
 10
0.0
 20
1.0
 30
0.0
  9
$UCSORTHOREF
  2

  9
$UCSORTHOVIEW
 70
     0
  9
$UCSORGTOP
 10
0.0
 20
0.0
 30
0.0
  9
$UCSORGBOTTOM
 10
0.0
 20
0.0
 30
0.0
  9
$UCSORGLEFT
 10
0.0
 20
0.0
 30
0.0
  9
$UCSORGRIGHT
 10
0.0
 20
0.0
 30
0.0
  9
$UCSORGFRONT
 10
0.0
 20
0.0
 30
0.0
  9
$UCSORGBACK
 10
0.0
 20
0.0
 30
0.0
  9
$PUCSBASE
  2

  9
$PUCSNAME
  2

  9
$PUCSORG
 10
0.0
 20
0.0
 30
0.0
  9
$PUCSXDIR
 10
1.0
 20
0.0
 30
0.0
  9
$PUCSYDIR
 10
0.0
 20
1.0
 30
0.0
  9
$PUCSORTHOREF
  2

  9
$PUCSORTHOVIEW
 70
     0
  9
$PUCSORGTOP
 10
0.0
 20
0.0
 30
0.0
  9
$PUCSORGBOTTOM
 10
0.0
 20
0.0
 30
0.0
  9
$PUCSORGLEFT
 10
0.0
 20
0.0
 30
0.0
  9
$PUCSORGRIGHT
 10
0.0
 20
0.0
 30
0.0
  9
$PUCSORGFRONT
 10
0.0
 20
0.0
 30
0.0
  9
$PUCSORGBACK
 10
0.0
 20
0.0
 30
0.0
  9
$USERI1
 70
     0
  9
$USERI2
 70
     0
  9
$USERI3
 70
     0
  9
$USERI4
 70
     0
  9
$USERI5
 70
     0
  9
$USERR1
 40
0.0
  9
$USERR2
 40
0.0
  9
$USERR3
 40
0.0
  9
$USERR4
 40
0.0
  9
$USERR5
 40
0.0
  9
$WORLDVIEW
 70
     1
  9
$SHADEDGE
 70
     3
  9
$SHADEDIF
 70
    70
  9
$TILEMODE
 70
     1
  9
$MAXACTVP
 70
    16
  9
$PINSBASE
 10
0.0
 20
0.0
 30
0.0
  9
$PLIMCHECK
 70
     0
  9
$PEXTMIN
 10
1.000000000000000E+20
 20
1.000000000000000E+20
 30
1.000000000000000E+20
  9
$PEXTMAX
 10
-1.000000000000000E+20
 20
-1.000000000000000E+20
 30
-1.000000000000000E+20
  9
$PLIMMIN
 10
0.0
 20
0.0
  9
$PLIMMAX
 10
12.0
 20
9.0
  9
$UNITMODE
 70
     0
  9
$VISRETAIN
 70
     0
  9
$PLINEGEN
 70
     1
  9
$PSLTSCALE
 70
     0
  9
$TREEDEPTH
 70
  3020
  9
$CMLSTYLE
  2
Standard
  9
$CMLJUST
 70
     0
  9
$CMLSCALE
 40
1.0
  9
$PROXYGRAPHICS
 70
     1
  9
$MEASUREMENT
 70
     0
  9
$CELWEIGHT
370
    -1
  9
$ENDCAPS
280
     0
  9
$JOINSTYLE
280
     0
  9
$LWDISPLAY
290
     0
  9
$INSUNITS
 70
     0
  9
$HYPERLINKBASE
  1

  9
$STYLESHEET
  1

  9
$XEDIT
290
     1
  9
$CEPSNTYPE
380
     0
  9
$PSTYLEMODE
290
     1
  9
$FINGERPRINTGUID
  2
{34D07435-1F26-4672-87D4-D3003B1DC18A}
  9
$VERSIONGUID
  2
{F97AACB7-AA65-4186-A75F-05C43FB99CC4}
  9
$EXTNAMES
290
     1
  9
$PSVPSCALE
 40
0.0
  9
$OLESTARTUP
290
     0
  0
ENDSEC
  0
SECTION
  2
CLASSES
  0
CLASS
  1
ACDBDICTIONARYWDFLT
  2
AcDbDictionaryWithDefault
  3
AutoCAD 2000
 90
        0
280
     0
281
     0
  0
CLASS
  1
ACDBPLACEHOLDER
  2
AcDbPlaceHolder
  3
ObjectDBX Classes
 90
        0
280
     0
281
     0
  0
CLASS
  1
LAYOUT
  2
AcDbLayout
  3
ObjectDBX Classes
 90
        0
280
     0
281
     0
  0
CLASS
  1
DICTIONARYVAR
  2
AcDbDictionaryVar
  3
AutoCAD 2000
 90
        0
280
     0
281
     0
  0
CLASS
  1
TABLESTYLE
  2
AcDbTableStyle
  3
ObjectDBX Classes
 90
     2047
280
     1
281
     0
  0
CLASS
  1
SORTENTSTABLE
  2
AcDbSortentsTable
  3
AutoCAD 2000
 90
        0
280
     0
281
     0
  0
ENDSEC
  0
SECTION
  2
TABLES
  0
TABLE
  2
VPORT
  5
19
330
0
100
AcDbSymbolTable
 70
     2
  0
VPORT
  5
270
330
19
100
AcDbSymbolTableRecord
100
AcDbViewportTableRecord
  2
*Active
 70
     0
 10
0.0
 20
0.0
 11
1.0
 21
1.0
 12
15.5563003945442
 22
11.99981700070318
 13
0.0
 23
0.0
 14
0.03125
 24
0.03125
 15
0.25
 25
0.25
 16
0.0
 26
0.0
 36
1.0
 17
0.0
 27
0.0
 37
0.0
 40
24.29974686344097
 41
1.814583333333333
 42
50.0
 43
0.0
 44
0.0
 50
0.0
 51
0.0
 71
     0
 72
   100
 73
     1
 74
     0
 75
     0
 76
     0
 77
     0
 78
     0
281
     0
 65
     1
110
0.0
120
0.0
130
0.0
111
1.0
121
0.0
131
0.0
112
0.0
122
1.0
132
0.0
 79
     0
146
0.0
  0
ENDTAB
  0
TABLE
  2
LTYPE
  5
14
330
0
100
AcDbSymbolTable
 70
     1
  0
LTYPE
  5
15
330
14
100
AcDbSymbolTableRecord
100
AcDbLinetypeTableRecord
  2
ByBlock
 70
     0
  3

 72
    65
 73
     0
 40
0.0
  0
LTYPE
  5
16
330
14
100
AcDbSymbolTableRecord
100
AcDbLinetypeTableRecord
  2
ByLayer
 70
     0
  3

 72
    65
 73
     0
 40
0.0
  0
LTYPE
  5
8
330
14
100
AcDbSymbolTableRecord
100
AcDbLinetypeTableRecord
  2
CONTINUOUS
 70
     0
  3
Solid line
 72
    65
 73
     0
 40
0.0
  0
ENDTAB
  0
TABLE
  2
LAYER
  5
10
330
0
100
AcDbSymbolTable
 70
     2
  0
LAYER
  5
4
330
10
100
AcDbSymbolTableRecord
100
AcDbLayerTableRecord
  2
0
 70
     0
 62
     7
  6
CONTINUOUS
370
    -3
390
5
  0
ENDTAB
  0
TABLE
  2
STYLE
  5
11
330
0
100
AcDbSymbolTable
 70
     1
  0
STYLE
  5
12
330
11
100
AcDbSymbolTableRecord
100
AcDbTextStyleTableRecord
  2
STANDARD
 70
     0
 40
0.0
 41
1.0
 50
0.0
 71
     0
 42
0.270000000000005
  3
TXT
  4

  0
ENDTAB
  0
TABLE
  2
VIEW
  5
17
330
0
100
AcDbSymbolTable
 70
     0
  0
ENDTAB
  0
TABLE
  2
UCS
  5
18
330
0
100
AcDbSymbolTable
 70
     0
  0
ENDTAB
  0
TABLE
  2
APPID
  5
1B
330
0
100
AcDbSymbolTable
 70
     1
  0
APPID
  5
1C
330
1B
100
AcDbSymbolTableRecord
100
AcDbRegAppTableRecord
  2
ACAD
 70
     0
  0
ENDTAB
  0
TABLE
  2
DIMSTYLE
  5
1D
330
0
100
AcDbSymbolTable
 70
     1
100
AcDbDimStyleTable
  0
DIMSTYLE
105
24
330
1D
100
AcDbSymbolTableRecord
100
AcDbDimStyleTableRecord
  2
Standard
 70
     0
  3

  4

340
12
  0
ENDTAB
  0
TABLE
  2
BLOCK_RECORD
  5
1
330
0
100
AcDbSymbolTable
 70
     0
  0
BLOCK_RECORD
  5
2
102
{ACAD_XDICTIONARY
360
156
102
}
330
1
100
AcDbSymbolTableRecord
100
AcDbBlockTableRecord
  2
*Model_Space
340
A
  0
BLOCK_RECORD
  5
C
330
1
100
AcDbSymbolTableRecord
100
AcDbBlockTableRecord
  2
*Paper_Space
340
F
  0
ENDTAB
  0
ENDSEC
  0
SECTION
  2
BLOCKS
  0
BLOCK
  5
3
330
2
100
AcDbEntity
  8
0
100
AcDbBlockBegin
  2
*Model_Space
 70
     0
 10
0.0
 20
0.0
 30
0.0
  3
*Model_Space
  1

  4

  0
ENDBLK
  5
9
330
2
100
AcDbEntity
  8
0
100
AcDbBlockEnd
  0
BLOCK
  5
D
330
C
100
AcDbEntity
 67
     1
  8
0
100
AcDbBlockBegin
  2
*Paper_Space
 70
     0
 10
0.0
 20
0.0
 30
0.0
  3
*Paper_Space
  1

  4

  0
ENDBLK
  5
E
330
C
100
AcDbEntity
 67
     1
  8
0
100
AcDbBlockEnd
  0
ENDSEC
  0
SECTION
  2
ENTITIES
  0
LINE
  5
15B
330
2
100
AcDbEntity
  8
0
100
AcDbLine
 10
6.003586206018452
 20
3.625
 30
0.0
 11
6.003586206018452
 21
7.875
 31
0.0
  0
LINE
  5
15C
330
2
100
AcDbEntity
  8
0
100
AcDbLine
 10
-0.2500000000000053
 20
3.625
 30
0.0
 11
-0.25
 21
7.874999999999996
 31
0.0
  0
LINE
  5
15D
330
2
100
AcDbEntity
  8
0
100
AcDbLine
 10
5.878586206018452
 20
3.625
 30
0.0
 11
5.878586206018452
 21
7.875
 31
0.0
  0
LINE
  5
15E
330
2
100
AcDbEntity
  8
0
100
AcDbLine
 10
-0.1250000000000053
 20
3.625
 30
0.0
 11
-0.125
 21
7.874999999999996
 31
0.0
  0
ARC
  5
15F
330
2
100
AcDbEntity
  8
0
100
AcDbCircle
 10
0.3446699141100851
 20
1.625
 30
0.0
 40
0.375
100
AcDbArc
 50
315.0000000000001
 51
44.99999999999992
  0
ARC
  5
160
330
2
100
AcDbEntity
  8
0
100
AcDbCircle
 10
0.5487604065287197
 20
3.350031734378948
 30
0.0
 40
0.2247303314272199
100
AcDbArc
 50
267.3994323320044
 51
333.5690491108126
  0
LINE
  5
161
330
2
100
AcDbEntity
  8
0
100
AcDbLine
 10
0.1250000596046395
 20
3.25
 30
0.0
 11
5.628586206018452
 21
3.25
 31
0.0
  0
LINE
  5
162
330
2
100
AcDbEntity
  8
0
100
AcDbLine
 10
0.1250001332800323
 20
3.375
 30
0.0
 11
5.628586206018452
 21
3.375
 31
0.0
  0
ARC
  5
163
330
2
100
AcDbEntity
  8
0
100
AcDbCircle
 10
0.3749999999999982
 20
2.478553390593277
 30
0.0
 40
0.25
100
AcDbArc
 50
180.0
 51
224.9999999999999
  0
ARC
  5
164
330
2
100
AcDbEntity
  8
0
100
AcDbCircle
 10
0.3750000000000018
 20
2.478553390593273
 30
0.0
 40
0.375
100
AcDbArc
 50
180.0
 51
224.9999999999999
  0
LINE
  5
165
330
2
100
AcDbEntity
  8
0
100
AcDbLine
 10
0.125
 20
0.0
 30
0.0
 11
0.1250000000000018
 21
0.7714466094067305
 31
0.0
  0
LINE
  5
166
330
2
100
AcDbEntity
  8
0
100
AcDbLine
 10
0.0
 20
0.0
 30
0.0
 11
0.0
 21
0.7714466094067305
 31
0.0
  0
LINE
  5
167
330
2
100
AcDbEntity
  8
0
100
AcDbLine
 10
0.0
 20
0.0
 30
0.0
 11
0.125
 21
0.0
 31
0.0
  0
LINE
  5
168
330
2
100
AcDbEntity
  8
0
100
AcDbLine
 10
0.1098349570550443
 20
1.036611652351684
 30
0.0
 11
0.5214466094067234
 21
1.448223304703369
 31
0.0
  0
ARC
  5
169
330
2
100
AcDbEntity
  8
0
100
AcDbCircle
 10
0.375
 20
0.7714466094067305
 30
0.0
 40
0.375
100
AcDbArc
 50
135.0000000000001
 51
179.9999999999999
  0
LINE
  5
16A
330
2
100
AcDbEntity
  8
0
100
AcDbLine
 10
0.1982233047033652
 20
0.9482233047033688
 30
0.0
 11
0.6098349570550408
 21
1.359834957055046
 31
0.0
  0
ARC
  5
16B
330
2
100
AcDbEntity
  8
0
100
AcDbCircle
 10
0.3750000000000018
 20
0.7714466094067305
 30
0.0
 40
0.25
100
AcDbArc
 50
135.0000000000001
 51
179.9999999999999
  0
LINE
  5
16C
330
2
100
AcDbEntity
  8
0
100
AcDbLine
 10
0.1098349570550461
 20
2.213388347648319
 30
0.0
 11
0.5214466094067252
 21
1.801776695296638
 31
0.0
  0
LINE
  5
16D
330
2
100
AcDbEntity
  8
0
100
AcDbLine
 10
0.1982233047033617
 20
2.301776695296638
 30
0.0
 11
0.6098349570550408
 21
1.890165042944954
 31
0.0
  0
ARC
  5
16E
330
2
100
AcDbEntity
  8
0
100
AcDbCircle
 10
0.3446699141100869
 20
1.625000000000004
 30
0.0
 40
0.25
100
AcDbArc
 50
315.0000000000001
 51
44.99999999999962
  0
ARC
  5
16F
330
2
100
AcDbEntity
  8
0
100
AcDbCircle
 10
0.1249999999999947
 20
3.625
 30
0.0
 40
0.5
100
AcDbArc
 50
202.1718978476876
 51
269.9999999999999
  0
ARC
  5
170
330
2
100
AcDbEntity
  8
0
100
AcDbCircle
 10
0.1249999999999947
 20
3.625
 30
0.0
 40
0.375
100
AcDbArc
 50
179.9999999999999
 51
269.9999999999999
  0
LINE
  5
171
330
2
100
AcDbEntity
  8
0
100
AcDbLine
 10
0.0000000000000018
 20
2.478553390593273
 30
0.0
 11
0.0
 21
3.0
 31
0.0
  0
ARC
  5
172
330
2
100
AcDbEntity
  8
0
100
AcDbCircle
 10
0.375
 20
3.0
 30
0.0
 40
0.375
100
AcDbArc
 50
159.7150645731088
 51
179.9999999999999
  0
LINE
  5
173
330
2
100
AcDbEntity
  8
0
100
AcDbLine
 10
0.1250000000000018
 20
2.838388347648319
 30
0.0
 11
0.4128289354580996
 21
3.126217283106417
 31
0.0
  0
LINE
  5
174
330
2
100
AcDbEntity
  8
0
100
AcDbLine
 10
0.1249999999999982
 20
2.478553390593277
 30
0.0
 11
0.1249999999999982
 21
3.0
 31
0.0
  0
LINE
  5
175
330
2
100
AcDbEntity
  8
0
100
AcDbLine
 10
0.1249999999999947
 20
3.125
 30
0.0
 11
0.5385637429092682
 21
3.125000000000004
 31
0.0
  0
ARC
  5
176
330
2
100
AcDbEntity
  8
0
100
AcDbCircle
 10
0.3749999999999982
 20
3.0
 30
0.0
 40
0.25
100
AcDbArc
 50
149.9999999999889
 51
179.9999999999999
  0
ARC
  5
177
330
2
100
AcDbEntity
  8
0
100
AcDbCircle
 10
0.1249999999999947
 20
3.625
 30
0.0
 40
0.25
100
AcDbArc
 50
179.9999999999999
 51
269.9999999999999
  0
ARC
  5
178
330
2
100
AcDbEntity
  8
0
100
AcDbCircle
 10
-0.0432362506420816
 20
3.523099760330894
 30
0.0
 40
0.3069771437915365
100
AcDbArc
 50
132.3414721198747
 51
196.7223905398125
  0
LINE
  5
179
330
2
100
AcDbEntity
  8
0
100
AcDbLine
 10
5.625
 20
2.838388347648319
 30
0.0
 11
5.337171064541902
 21
3.126217283106417
 31
0.0
  0
LINE
  5
17A
330
2
100
AcDbEntity
  8
0
100
AcDbLine
 10
5.640165042944956
 20
2.213388347648319
 30
0.0
 11
5.228553390593277
 21
1.801776695296638
 31
0.0
  0
LINE
  5
17B
330
2
100
AcDbEntity
  8
0
100
AcDbLine
 10
5.640165042944958
 20
1.036611652351684
 30
0.0
 11
5.228553390593278
 21
1.448223304703369
 31
0.0
  0
ARC
  5
17C
330
2
100
AcDbEntity
  8
0
100
AcDbCircle
 10
5.375000000000004
 20
3.0
 30
0.0
 40
0.25
100
AcDbArc
 50
0.0000000000000509
 51
30.00000000001114
  0
ARC
  5
17D
330
2
100
AcDbEntity
  8
0
100
AcDbCircle
 10
5.375000000000004
 20
2.478553390593277
 30
0.0
 40
0.25
100
AcDbArc
 50
315.0000000000002
 51
0.0
  0
ARC
  5
17E
330
2
100
AcDbEntity
  8
0
100
AcDbCircle
 10
5.375
 20
0.7714466094067305
 30
0.0
 40
0.25
100
AcDbArc
 50
0.0000000000000509
 51
44.9999999999999
  0
LINE
  5
17F
330
2
100
AcDbEntity
  8
0
100
AcDbLine
 10
5.641212103226408
 20
3.125
 30
0.0
 11
5.227648360317135
 21
3.125000000000004
 31
0.0
  0
ARC
  5
180
330
2
100
AcDbEntity
  8
0
100
AcDbCircle
 10
5.405330085889917
 20
1.625
 30
0.0
 40
0.375
100
AcDbArc
 50
135.0000000000001
 51
224.9999999999999
  0
LINE
  5
181
330
2
100
AcDbEntity
  8
0
100
AcDbLine
 10
5.551776695296637
 20
0.9482233047033688
 30
0.0
 11
5.140165042944961
 21
1.359834957055046
 31
0.0
  0
LINE
  5
182
330
2
100
AcDbEntity
  8
0
100
AcDbLine
 10
5.55177669529664
 20
2.301776695296638
 30
0.0
 11
5.140165042944961
 21
1.890165042944954
 31
0.0
  0
ARC
  5
183
330
2
100
AcDbEntity
  8
0
100
AcDbCircle
 10
5.405330085889915
 20
1.625000000000004
 30
0.0
 40
0.25
100
AcDbArc
 50
135.0000000000004
 51
224.9999999999999
  0
ARC
  5
184
330
2
100
AcDbEntity
  8
0
100
AcDbCircle
 10
5.217451696697683
 20
3.350031734378948
 30
0.0
 40
0.2247303314272199
100
AcDbArc
 50
206.4309508891875
 51
272.6005676679956
  0
ARC
  5
185
330
2
100
AcDbEntity
  8
0
100
AcDbCircle
 10
5.375
 20
2.478553390593273
 30
0.0
 40
0.375
100
AcDbArc
 50
315.0000000000002
 51
0.0
  0
LINE
  5
186
330
2
100
AcDbEntity
  8
0
100
AcDbLine
 10
5.750000000000002
 20
0.0
 30
0.0
 11
5.750000000000002
 21
0.7714466094067305
 31
0.0
  0
LINE
  5
187
330
2
100
AcDbEntity
  8
0
100
AcDbLine
 10
5.625000000000002
 20
0.0
 30
0.0
 11
5.625
 21
0.7714466094067305
 31
0.0
  0
LINE
  5
188
330
2
100
AcDbEntity
  8
0
100
AcDbLine
 10
5.750000000000002
 20
0.0
 30
0.0
 11
5.625000000000002
 21
0.0
 31
0.0
  0
ARC
  5
189
330
2
100
AcDbEntity
  8
0
100
AcDbCircle
 10
5.375000000000002
 20
0.7714466094067305
 30
0.0
 40
0.375
100
AcDbArc
 50
0.0000000000000509
 51
44.99999999999992
  0
ARC
  5
18A
330
2
100
AcDbEntity
  8
0
100
AcDbCircle
 10
5.641212103226408
 20
3.625
 30
0.0
 40
0.5
100
AcDbArc
 50
270.0000000000001
 51
337.8281021523124
  0
ARC
  5
18B
330
2
100
AcDbEntity
  8
0
100
AcDbCircle
 10
5.628586206018452
 20
3.625
 30
0.0
 40
0.375
100
AcDbArc
 50
270.0
 51
0.0
  0
LINE
  5
18C
330
2
100
AcDbEntity
  8
0
100
AcDbLine
 10
5.75
 20
2.478553390593273
 30
0.0
 11
5.750000000000002
 21
3.0
 31
0.0
  0
LINE
  5
18D
330
2
100
AcDbEntity
  8
0
100
AcDbLine
 10
5.625000000000004
 20
2.478553390593277
 30
0.0
 11
5.625000000000004
 21
3.0
 31
0.0
  0
ARC
  5
18E
330
2
100
AcDbEntity
  8
0
100
AcDbCircle
 10
5.375000000000002
 20
3.0
 30
0.0
 40
0.375
100
AcDbArc
 50
0.0000000000000509
 51
20.64671056303946
  0
ARC
  5
18F
330
2
100
AcDbEntity
  8
0
100
AcDbCircle
 10
5.628586206018452
 20
3.625
 30
0.0
 40
0.25
100
AcDbArc
 50
270.0
 51
0.0
  0
ARC
  5
190
330
2
100
AcDbEntity
  8
0
100
AcDbCircle
 10
5.809448353868483
 20
3.523099760330894
 30
0.0
 40
0.3069771437915365
100
AcDbArc
 50
343.2776094601875
 51
47.6585278801253
  0
LINE
  5
191
330
2
100
AcDbEntity
  8
0
100
AcDbLine
 10
-0.25
 20
7.249999999999996
 30
0.0
 11
-0.125
 21
7.249999999999996
 31
0.0
  0
LINE
  5
192
330
2
100
AcDbEntity
  8
0
100
AcDbLine
 10
-0.25
 20
7.874999999999996
 30
0.0
 11
-0.125
 21
7.874999999999996
 31
0.0
  0
LINE
  5
193
330
2
100
AcDbEntity
  8
0
100
AcDbLine
 10
5.878586206018452
 20
7.25
 30
0.0
 11
6.003586206018452
 21
7.25
 31
0.0
  0
LINE
  5
194
330
2
100
AcDbEntity
  8
0
100
AcDbLine
 10
5.878586206018452
 20
7.875
 30
0.0
 11
6.003586206018452
 21
7.875
 31
0.0
  0
LINE
  5
195
330
2
100
AcDbEntity
  8
0
100
AcDbLine
 10
14.2930369122118
 20
5.801776456878043
 30
0.0
 11
13.41803667379322
 21
6.676776695296635
 31
0.0
  0
LINE
  5
196
330
2
100
AcDbEntity
  8
0
100
AcDbLine
 10
12.18948328319994
 20
5.801776695296628
 30
0.0
 11
13.06448328319995
 21
6.676776695296635
 31
0.0
  0
LINE
  5
197
330
2
100
AcDbEntity
  8
0
100
AcDbLine
 10
10.61625997849658
 20
3.250000000000007
 30
0.0
 11
10.61625997849658
 21
7.250050000000009
 31
0.0
  0
LINE
  5
198
330
2
100
AcDbEntity
  8
0
100
AcDbLine
 10
15.86625997849658
 20
3.250000000000007
 30
0.0
 11
15.86625997849659
 21
7.250050000000009
 31
0.0
  0
ARC
  5
199
330
2
100
AcDbEntity
  8
0
100
AcDbCircle
 10
14.8921483261449
 20
3.187500000000007
 30
0.0
 40
0.0625
100
AcDbArc
 50
224.9999999999991
 51
269.9999999999999
  0
LINE
  5
19A
330
2
100
AcDbEntity
  8
0
100
AcDbLine
 10
14.9088837607053
 20
3.259152913087927
 30
0.0
 11
14.82964832614491
 21
3.338388347648326
 31
0.0
  0
ARC
  5
19B
330
2
100
AcDbEntity
  8
0
100
AcDbCircle
 10
15.1162599784966
 20
3.375000000000057
 30
0.0
 40
0.3749999999999929
100
AcDbArc
 50
359.9999999999973
 51
180.0000000000028
  0
CIRCLE
  5
19C
330
2
100
AcDbEntity
  8
0
100
AcDbCircle
 10
14.86625997849659
 20
4.062550000000009
 30
0.0
 40
0.0859375
  0
LINE
  5
19D
330
2
100
AcDbEntity
  8
0
100
AcDbLine
 10
12.11625997849658
 20
1.125000238418586
 30
0.0
 11
12.11625997849658
 21
5.625000412953082
 31
0.0
  0
LINE
  5
19E
330
2
100
AcDbEntity
  8
0
100
AcDbLine
 10
14.36625997849659
 20
1.125000238418586
 30
0.0
 11
14.36625997849659
 21
5.625000238418568
 31
0.0
  0
LINE
  5
19F
330
2
100
AcDbEntity
  8
0
100
AcDbLine
 10
12.30375997849658
 20
1.5625
 30
0.0
 11
14.24125997849658
 21
1.5625
 31
0.0
  0
LINE
  5
1A0
330
2
100
AcDbEntity
  8
0
100
AcDbLine
 10
12.30375997849658
 20
1.8125
 30
0.0
 11
14.24125997849658
 21
1.8125
 31
0.0
  0
LINE
  5
1A1
330
2
100
AcDbEntity
  8
0
100
AcDbLine
 10
12.30375997849658
 20
2.375
 30
0.0
 11
14.24125997849658
 21
2.375
 31
0.0
  0
ARC
  5
1A2
330
2
100
AcDbEntity
  8
0
100
AcDbCircle
 10
12.36625997849658
 20
1.125000000000007
 30
0.0
 40
0.25
100
AcDbArc
 50
180.0000000000001
 51
224.9999999999999
  0
LINE
  5
1A3
330
2
100
AcDbEntity
  8
0
100
AcDbLine
 10
12.83490997849658
 20
0.8125
 30
0.0
 11
13.64740997849658
 21
0.8125
 31
0.0
  0
LINE
  5
1A4
330
2
100
AcDbEntity
  8
0
100
AcDbLine
 10
12.83490997849658
 20
1.0625
 30
0.0
 11
13.64740997849658
 21
1.0625
 31
0.0
  0
LINE
  5
1A5
330
2
100
AcDbEntity
  8
0
100
AcDbLine
 10
12.67865997849658
 20
1.6875
 30
0.0
 11
13.89740997849658
 21
1.6875
 31
0.0
  0
LINE
  5
1A6
330
2
100
AcDbEntity
  8
0
100
AcDbLine
 10
12.67865997849658
 20
2.25
 30
0.0
 11
13.86615997849658
 21
2.25
 31
0.0
  0
LINE
  5
1A7
330
2
100
AcDbEntity
  8
0
100
AcDbLine
 10
12.55375997849658
 20
0.9375
 30
0.0
 11
13.92875997849658
 21
0.9375
 31
0.0
  0
ARC
  5
1A8
330
2
100
AcDbEntity
  8
0
100
AcDbCircle
 10
14.11625997849658
 20
1.125000000000007
 30
0.0
 40
0.25
100
AcDbArc
 50
315.0000000000002
 51
0.0
  0
LINE
  5
1A9
330
2
100
AcDbEntity
  8
0
100
AcDbLine
 10
12.39879885766736
 20
3.371538723138851
 30
0.0
 11
12.57233169679022
 21
2.92448773448994
 31
0.0
  0
LINE
  5
1AA
330
2
100
AcDbEntity
  8
0
100
AcDbLine
 10
12.11625997849658
 20
3.375000000000007
 30
0.0
 11
13.24125997849658
 21
3.375000000000007
 31
0.0
  0
ARC
  5
1AB
330
2
100
AcDbEntity
  8
0
100
AcDbCircle
 10
12.38450377577465
 20
3.343750000000007
 30
0.0
 40
0.03125
100
AcDbArc
 50
45.95137432586936
 51
90.00000000000003
  0
LINE
  5
1AC
330
2
100
AcDbEntity
  8
0
100
AcDbLine
 10
12.11625997849658
 20
3.250000000000007
 30
0.0
 11
13.12288517497352
 21
3.250000000000007
 31
0.0
  0
ARC
  5
1AD
330
2
100
AcDbEntity
  8
0
100
AcDbCircle
 10
11.36625997849657
 20
3.375000000000057
 30
0.0
 40
0.2499999999999929
100
AcDbArc
 50
359.9999999999973
 51
180.0000000000027
  0
LINE
  5
1AE
330
2
100
AcDbEntity
  8
0
100
AcDbLine
 10
11.1421483261449
 20
3.125000000000007
 30
0.0
 11
11.59037163084826
 21
3.125000000000007
 31
0.0
  0
ARC
  5
1AF
330
2
100
AcDbEntity
  8
0
100
AcDbCircle
 10
11.36625997849657
 20
3.375000000000057
 30
0.0
 40
0.3749999999999929
100
AcDbArc
 50
359.9999999999973
 51
180.0000000000027
  0
ARC
  5
1B0
330
2
100
AcDbEntity
  8
0
100
AcDbCircle
 10
11.18098084761737
 20
3.281250000000007
 30
0.0
 40
0.03125
100
AcDbArc
 50
225.0000000000001
 51
270.0
  0
LINE
  5
1B1
330
2
100
AcDbEntity
  8
0
100
AcDbLine
 10
10.99125997849658
 20
3.375000000000039
 30
0.0
 11
10.99125997849658
 21
3.250000000000007
 31
0.0
  0
LINE
  5
1B2
330
2
100
AcDbEntity
  8
0
100
AcDbLine
 10
11.15888376070529
 20
3.259152913087927
 30
0.0
 11
11.0796483261449
 21
3.338388347648326
 31
0.0
  0
LINE
  5
1B3
330
2
100
AcDbEntity
  8
0
100
AcDbLine
 10
10.61625997849658
 20
3.250000000000007
 30
0.0
 11
10.97831580467242
 21
3.250000000000007
 31
0.0
  0
LINE
  5
1B4
330
2
100
AcDbEntity
  8
0
100
AcDbLine
 10
11.09795415232074
 20
3.143305826175848
 30
0.0
 11
11.0004128915845
 21
3.240847086912087
 31
0.0
  0
ARC
  5
1B5
330
2
100
AcDbEntity
  8
0
100
AcDbCircle
 10
10.97831580467242
 20
3.218750000000007
 30
0.0
 40
0.03125
100
AcDbArc
 50
45.00000000000005
 51
90.0
  0
ARC
  5
1B6
330
2
100
AcDbEntity
  8
0
100
AcDbCircle
 10
11.1421483261449
 20
3.187500000000007
 30
0.0
 40
0.0625
100
AcDbArc
 50
225.0000000000001
 51
270.0
  0
LINE
  5
1B7
330
2
100
AcDbEntity
  8
0
100
AcDbLine
 10
10.61625997849658
 20
3.375000000000007
 30
0.0
 11
10.74388990539109
 21
3.375000000000007
 31
0.0
  0
LINE
  5
1B8
330
2
100
AcDbEntity
  8
0
100
AcDbLine
 10
10.8692057118377
 20
3.375000000000007
 30
0.0
 11
10.99125997849658
 21
3.375000000000007
 31
0.0
  0
ARC
  5
1B9
330
2
100
AcDbEntity
  8
0
100
AcDbCircle
 10
10.99125997849658
 20
3.250000000000007
 30
0.0
 40
0.125
100
AcDbArc
 50
45.00000000000005
 51
90.0
  0
LINE
  5
1BA
330
2
100
AcDbEntity
  8
0
100
AcDbLine
 10
11.74125997849658
 20
3.375000000000039
 30
0.0
 11
11.74125997849658
 21
3.250000000000007
 31
0.0
  0
LINE
  5
1BB
330
2
100
AcDbEntity
  8
0
100
AcDbLine
 10
11.57363619628785
 20
3.259152913087927
 30
0.0
 11
11.65287163084826
 21
3.338388347648326
 31
0.0
  0
LINE
  5
1BC
330
2
100
AcDbEntity
  8
0
100
AcDbLine
 10
11.75420415232073
 20
3.250000000000007
 30
0.0
 11
12.11625997849657
 21
3.250000000000007
 31
0.0
  0
LINE
  5
1BD
330
2
100
AcDbEntity
  8
0
100
AcDbLine
 10
11.55153910937578
 20
3.250000000000007
 30
0.0
 11
11.42961799826694
 21
3.250000000000007
 31
0.0
  0
LINE
  5
1BE
330
2
100
AcDbEntity
  8
0
100
AcDbLine
 10
11.2942769273046
 20
3.250000000000007
 30
0.0
 11
11.18098084761737
 21
3.250000000000007
 31
0.0
  0
LINE
  5
1BF
330
2
100
AcDbEntity
  8
0
100
AcDbLine
 10
11.63456580467242
 20
3.143305826175848
 30
0.0
 11
11.73210706540865
 21
3.240847086912087
 31
0.0
  0
ARC
  5
1C0
330
2
100
AcDbEntity
  8
0
100
AcDbCircle
 10
11.55153910937578
 20
3.281250000000007
 30
0.0
 40
0.03125
100
AcDbArc
 50
270.0000000000001
 51
315.0
  0
ARC
  5
1C1
330
2
100
AcDbEntity
  8
0
100
AcDbCircle
 10
11.75420415232073
 20
3.218750000000007
 30
0.0
 40
0.03125
100
AcDbArc
 50
90.0
 51
135.0
  0
ARC
  5
1C2
330
2
100
AcDbEntity
  8
0
100
AcDbCircle
 10
11.59037163084826
 20
3.187500000000007
 30
0.0
 40
0.0625
100
AcDbArc
 50
270.0000000000001
 51
315.0000000000009
  0
LINE
  5
1C3
330
2
100
AcDbEntity
  8
0
100
AcDbLine
 10
11.74125997849658
 20
3.375000000000007
 30
0.0
 11
11.85569174018541
 21
3.375000000000007
 31
0.0
  0
ARC
  5
1C4
330
2
100
AcDbEntity
  8
0
100
AcDbCircle
 10
11.74125997849658
 20
3.250000000000007
 30
0.0
 40
0.125
100
AcDbArc
 50
90.0
 51
135.0
  0
CIRCLE
  5
1C5
330
2
100
AcDbEntity
  8
0
100
AcDbCircle
 10
11.61625997849658
 20
4.062550000000009
 30
0.0
 40
0.0859375
  0
LINE
  5
1C6
330
2
100
AcDbEntity
  8
0
100
AcDbLine
 10
11.99103281114774
 20
3.375000000000007
 30
0.0
 11
12.11625997849658
 21
3.375000000000007
 31
0.0
  0
CIRCLE
  5
1C7
330
2
100
AcDbEntity
  8
0
100
AcDbCircle
 10
11.86625997849658
 20
5.812550000000009
 30
0.0
 40
0.0859375
  0
ARC
  5
1C8
330
2
100
AcDbEntity
  8
0
100
AcDbCircle
 10
12.36625997849658
 20
5.624999999999989
 30
0.0
 40
0.25
100
AcDbArc
 50
135.0000000000001
 51
180.0
  0
LINE
  5
1C9
330
2
100
AcDbEntity
  8
0
100
AcDbLine
 10
12.67865997849658
 20
2.5
 30
0.0
 11
13.86615997849658
 21
2.5
 31
0.0
  0
LINE
  5
1CA
330
2
100
AcDbEntity
  8
0
100
AcDbLine
 10
14.36625997849659
 20
3.250000000000007
 30
0.0
 11
13.34043341496483
 21
3.250000000000007
 31
0.0
  0
ARC
  5
1CB
330
2
100
AcDbEntity
  8
0
100
AcDbCircle
 10
13.63450377577454
 20
3.343750000000004
 30
0.0
 40
0.03125
100
AcDbArc
 50
45.95137432586935
 51
90.0
  0
LINE
  5
1CC
330
2
100
AcDbEntity
  8
0
100
AcDbLine
 10
14.36625997849659
 20
3.375000000000007
 30
0.0
 11
13.24125997849658
 21
3.375000000000007
 31
0.0
  0
ARC
  5
1CD
330
2
100
AcDbEntity
  8
0
100
AcDbCircle
 10
12.61625997849663
 20
3.583333333333226
 30
0.0
 40
0.3020833333332104
100
AcDbArc
 50
225.9513743258718
 51
314.0486256741273
  0
LINE
  5
1CE
330
2
100
AcDbEntity
  8
0
100
AcDbLine
 10
12.8337210993258
 20
3.371538723138887
 30
0.0
 11
12.66018826020293
 21
2.92448773448994
 31
0.0
  0
ARC
  5
1CF
330
2
100
AcDbEntity
  8
0
100
AcDbCircle
 10
12.61625997849658
 20
2.940845353244733
 30
0.0
 40
0.046875
100
AcDbArc
 50
200.4238721544559
 51
339.5761278455441
  0
ARC
  5
1D0
330
2
100
AcDbEntity
  8
0
100
AcDbCircle
 10
12.84801618121862
 20
3.343750000000004
 30
0.0
 40
0.03125
100
AcDbArc
 50
90.00000000000003
 51
134.0486256741307
  0
LINE
  5
1D1
330
2
100
AcDbEntity
  8
0
100
AcDbLine
 10
13.64879885766736
 20
3.371538723138887
 30
0.0
 11
13.82233169679023
 21
2.92448773448994
 31
0.0
  0
LINE
  5
1D2
330
2
100
AcDbEntity
  8
0
100
AcDbLine
 10
14.0837210993258
 20
3.371538723138851
 30
0.0
 11
13.91018826020294
 21
2.92448773448994
 31
0.0
  0
ARC
  5
1D3
330
2
100
AcDbEntity
  8
0
100
AcDbCircle
 10
13.86625997849653
 20
3.583333333333226
 30
0.0
 40
0.3020833333332104
100
AcDbArc
 50
225.9513743258727
 51
314.0486256741283
  0
LINE
  5
1D4
330
2
100
AcDbEntity
  8
0
100
AcDbLine
 10
14.74125997849658
 20
3.375000000000039
 30
0.0
 11
14.74125997849659
 21
3.250000000000007
 31
0.0
  0
ARC
  5
1D5
330
2
100
AcDbEntity
  8
0
100
AcDbCircle
 10
13.86625997849659
 20
2.940845353244733
 30
0.0
 40
0.046875
100
AcDbArc
 50
200.4238721544559
 51
339.5761278455441
  0
LINE
  5
1D6
330
2
100
AcDbEntity
  8
0
100
AcDbLine
 10
14.72831580467243
 20
3.250000000000007
 30
0.0
 11
14.36625997849659
 21
3.250000000000007
 31
0.0
  0
ARC
  5
1D7
330
2
100
AcDbEntity
  8
0
100
AcDbCircle
 10
14.72831580467243
 20
3.218750000000007
 30
0.0
 40
0.03125
100
AcDbArc
 50
45.0
 51
90.0
  0
LINE
  5
1D8
330
2
100
AcDbEntity
  8
0
100
AcDbLine
 10
14.84795415232074
 20
3.143305826175848
 30
0.0
 11
14.75041289158451
 21
3.240847086912087
 31
0.0
  0
ARC
  5
1D9
330
2
100
AcDbEntity
  8
0
100
AcDbCircle
 10
14.09801618121852
 20
3.343750000000007
 30
0.0
 40
0.03125
100
AcDbArc
 50
90.0
 51
134.0486256741307
  0
LINE
  5
1DA
330
2
100
AcDbEntity
  8
0
100
AcDbLine
 10
14.49333883427363
 20
3.375000000000007
 30
0.0
 11
14.36625997849658
 21
3.375000000000007
 31
0.0
  0
ARC
  5
1DB
330
2
100
AcDbEntity
  8
0
100
AcDbCircle
 10
14.74125997849659
 20
3.250000000000007
 30
0.0
 40
0.125
100
AcDbArc
 50
45.0
 51
90.0
  0
LINE
  5
1DC
330
2
100
AcDbEntity
  8
0
100
AcDbLine
 10
14.74125997849659
 20
3.375000000000007
 30
0.0
 11
14.649732960719
 21
3.375000000000007
 31
0.0
  0
ARC
  5
1DD
330
2
100
AcDbEntity
  8
0
100
AcDbCircle
 10
14.11625997849659
 20
5.624999999999989
 30
0.0
 40
0.25
100
AcDbArc
 50
0.0
 51
44.99999999999984
  0
CIRCLE
  5
1DE
330
2
100
AcDbEntity
  8
0
100
AcDbCircle
 10
14.61625997849659
 20
5.718749999999996
 30
0.0
 40
0.0859375
  0
ARC
  5
1DF
330
2
100
AcDbEntity
  8
0
100
AcDbCircle
 10
15.1162599784966
 20
3.375000000000057
 30
0.0
 40
0.2499999999999929
100
AcDbArc
 50
359.9999999999973
 51
180.0000000000028
  0
LINE
  5
1E0
330
2
100
AcDbEntity
  8
0
100
AcDbLine
 10
15.32363619628787
 20
3.259152913087927
 30
0.0
 11
15.40287163084826
 21
3.338388347648326
 31
0.0
  0
LINE
  5
1E1
330
2
100
AcDbEntity
  8
0
100
AcDbLine
 10
15.49125997849659
 20
3.375000000000039
 30
0.0
 11
15.49125997849658
 21
3.250000000000007
 31
0.0
  0
ARC
  5
1E2
330
2
100
AcDbEntity
  8
0
100
AcDbCircle
 10
15.50420415232074
 20
3.218750000000007
 30
0.0
 40
0.03125
100
AcDbArc
 50
90.0
 51
134.9999999999999
  0
LINE
  5
1E3
330
2
100
AcDbEntity
  8
0
100
AcDbLine
 10
15.38456580467242
 20
3.143305826175848
 30
0.0
 11
15.48210706540867
 21
3.240847086912087
 31
0.0
  0
LINE
  5
1E4
330
2
100
AcDbEntity
  8
0
100
AcDbLine
 10
15.34037163084826
 20
3.125000000000007
 30
0.0
 11
14.8921483261449
 21
3.125000000000007
 31
0.0
  0
ARC
  5
1E5
330
2
100
AcDbEntity
  8
0
100
AcDbCircle
 10
14.93098084761739
 20
3.281250000000007
 30
0.0
 40
0.03125
100
AcDbArc
 50
225.0
 51
269.9999999999999
  0
LINE
  5
1E6
330
2
100
AcDbEntity
  8
0
100
AcDbLine
 10
14.93098084761739
 20
3.250000000000007
 30
0.0
 11
15.06477891167016
 21
3.250000000000007
 31
0.0
  0
LINE
  5
1E7
330
2
100
AcDbEntity
  8
0
100
AcDbLine
 10
15.21014524714823
 20
3.250000000000007
 30
0.0
 11
15.30153910937579
 21
3.250000000000007
 31
0.0
  0
ARC
  5
1E8
330
2
100
AcDbEntity
  8
0
100
AcDbCircle
 10
15.34037163084826
 20
3.187500000000007
 30
0.0
 40
0.0625
100
AcDbArc
 50
270.0
 51
314.9999999999999
  0
ARC
  5
1E9
330
2
100
AcDbEntity
  8
0
100
AcDbCircle
 10
15.30153910937579
 20
3.281250000000007
 30
0.0
 40
0.03125
100
AcDbArc
 50
270.0
 51
314.9999999999999
  0
LINE
  5
1EA
330
2
100
AcDbEntity
  8
0
100
AcDbLine
 10
15.86625997849658
 20
3.250000000000007
 30
0.0
 11
15.50420415232074
 21
3.250000000000007
 31
0.0
  0
ARC
  5
1EB
330
2
100
AcDbEntity
  8
0
100
AcDbCircle
 10
15.49125997849658
 20
3.250000000000007
 30
0.0
 40
0.125
100
AcDbArc
 50
90.0
 51
134.9999999999999
  0
LINE
  5
1EC
330
2
100
AcDbEntity
  8
0
100
AcDbLine
 10
15.86625997849658
 20
3.375000000000007
 30
0.0
 11
15.72945394906298
 21
3.375000000000007
 31
0.0
  0
LINE
  5
1ED
330
2
100
AcDbEntity
  8
0
100
AcDbLine
 10
15.58408761358491
 20
3.375000000000007
 30
0.0
 11
15.49125997849658
 21
3.375000000000007
 31
0.0
  0
LINE
  5
1EE
330
2
100
AcDbEntity
  8
0
100
AcDbLine
 10
11.24125997849658
 20
7.875050000000009
 30
0.0
 11
15.24125997849659
 21
7.875050000000009
 31
0.0
  0
CIRCLE
  5
1EF
330
2
100
AcDbEntity
  8
0
100
AcDbCircle
 10
14.86625997849659
 20
7.562550000000009
 30
0.0
 40
0.0859375
  0
CIRCLE
  5
1F0
330
2
100
AcDbEntity
  8
0
100
AcDbCircle
 10
12.24125997849658
 20
6.999999999999996
 30
0.0
 40
0.28125
  0
LINE
  5
1F1
330
2
100
AcDbEntity
  8
0
100
AcDbLine
 10
10.61625997849658
 20
7.250050000000009
 30
0.0
 11
11.24125997849658
 21
7.875050000000009
 31
0.0
  0
CIRCLE
  5
1F2
330
2
100
AcDbEntity
  8
0
100
AcDbCircle
 10
11.61625997849658
 20
7.562550000000009
 30
0.0
 40
0.0859375
  0
ARC
  5
1F3
330
2
100
AcDbEntity
  8
0
100
AcDbCircle
 10
13.24125997849658
 20
6.499999999999996
 30
0.0
 40
0.25
100
AcDbArc
 50
44.99999999999994
 51
135.0
  0
CIRCLE
  5
1F4
330
2
100
AcDbEntity
  8
0
100
AcDbCircle
 10
14.24125997849659
 20
6.999999999999996
 30
0.0
 40
0.28125
  0
LINE
  5
1F5
330
2
100
AcDbEntity
  8
0
100
AcDbLine
 10
15.86625997849659
 20
7.250050000000009
 30
0.0
 11
15.24125997849659
 21
7.875050000000009
 31
0.0
  0
LINE
  5
1F6
330
2
100
AcDbEntity
  8
0
100
AcDbLine
 10
12.18948328319994
 20
0.9482233047033688
 30
0.0
 11
13.06448328319994
 21
0.0732233047033617
 31
0.0
  0
LINE
  5
1F7
330
2
100
AcDbEntity
  8
0
100
AcDbLine
 10
14.29303667379322
 20
0.9482233047033688
 30
0.0
 11
13.41803667379322
 21
0.0732233047033617
 31
0.0
  0
ARC
  5
1F8
330
2
100
AcDbEntity
  8
0
100
AcDbCircle
 10
13.24125997849658
 20
0.25
 30
0.0
 40
0.25
100
AcDbArc
 50
225.0
 51
315.0000000000001
  0
ARC
  5
1F9
330
2
100
AcDbEntity
  8
0
100
AcDbCircle
 10
0.3436999999999983
 20
10.875
 30
0.0
 40
0.375
100
AcDbArc
 50
270.0000000000001
 51
89.99996136261612
  0
ARC
  5
1FA
330
2
100
AcDbEntity
  8
0
100
AcDbCircle
 10
0.343699999999993
 20
14.625
 30
0.0
 40
0.375
100
AcDbArc
 50
270.0000000000001
 51
89.99996136261612
  0
LINE
  5
1FB
330
2
100
AcDbEntity
  8
0
100
AcDbLine
 10
-0.2500000000000053
 20
10.125
 30
0.0
 11
5.999999999999991
 21
10.125
 31
0.0
  0
LINE
  5
1FC
330
2
100
AcDbEntity
  8
0
100
AcDbLine
 10
-0.2500000000000071
 20
15.375
 30
0.0
 11
6.0
 21
15.375
 31
0.0
  0
LINE
  5
1FD
330
2
100
AcDbEntity
  8
0
100
AcDbLine
 10
-0.2500000000000053
 20
14.81142694259919
 30
0.0
 11
-0.2500000000000053
 21
10.125
 31
0.0
  0
LINE
  5
1FE
330
2
100
AcDbEntity
  8
0
100
AcDbLine
 10
-0.1250000000000053
 20
14.85677642244201
 30
0.0
 11
-0.1250000000000053
 21
10.125
 31
0.0
  0
LINE
  5
1FF
330
2
100
AcDbEntity
  8
0
100
AcDbLine
 10
0.0
 20
13.875
 30
0.0
 11
0.0
 21
12.75
 31
0.0
  0
LINE
  5
200
330
2
100
AcDbEntity
  8
0
100
AcDbLine
 10
0.0000000000000036
 20
11.62499999999999
 30
0.0
 11
0.0
 21
12.75000000000001
 31
0.0
  0
ARC
  5
201
330
2
100
AcDbEntity
  8
0
100
AcDbCircle
 10
0.3436999999999983
 20
10.875
 30
0.0
 40
0.25
100
AcDbArc
 50
270.0000000000001
 51
89.99996136261612
  0
ARC
  5
202
330
2
100
AcDbEntity
  8
0
100
AcDbCircle
 10
0.1977445095946138
 20
10.87499999999997
 30
0.0
 40
0.5415445095946648
100
AcDbArc
 50
145.7705655526785
 51
214.2294344473111
  0
ARC
  5
203
330
2
100
AcDbEntity
  8
0
100
AcDbCircle
 10
0.3436999999999983
 20
10.875
 30
0.0
 40
0.25
100
AcDbArc
 50
270.0000386373841
 51
90.00000000000006
  0
LINE
  5
204
330
2
100
AcDbEntity
  8
0
100
AcDbLine
 10
0.3436999999999983
 20
10.625
 30
0.0
 11
-0.0313000000000017
 21
10.625
 31
0.0
  0
LINE
  5
205
330
2
100
AcDbEntity
  8
0
100
AcDbLine
 10
-0.2500000000000062
 20
10.75
 30
0.0
 11
-0.1250000000000053
 21
10.75
 31
0.0
  0
ARC
  5
206
330
2
100
AcDbEntity
  8
0
100
AcDbCircle
 10
-0.0313000000000017
 20
10.875
 30
0.0
 40
0.25
100
AcDbArc
 50
247.9880478418498
 51
270.0000000000001
  0
ARC
  5
207
330
2
100
AcDbEntity
  8
0
100
AcDbCircle
 10
-0.0313000000000017
 20
10.875
 30
0.0
 40
0.375
100
AcDbArc
 50
255.5303776507171
 51
270.0000000000001
  0
LINE
  5
208
330
2
100
AcDbEntity
  8
0
100
AcDbLine
 10
0.0439539378655915
 20
10.5
 30
0.0
 11
-0.0313000000000017
 21
10.5
 31
0.0
  0
LINE
  5
209
330
2
100
AcDbEntity
  8
0
100
AcDbLine
 10
0.3436999999999983
 20
10.5
 30
0.0
 11
0.1903227997952328
 21
10.5
 31
0.0
  0
LINE
  5
20A
330
2
100
AcDbEntity
  8
0
100
AcDbLine
 10
0.3436999999999983
 20
11.125
 30
0.0
 11
-0.0313000000000017
 21
11.125
 31
0.0
  0
LINE
  5
20B
330
2
100
AcDbEntity
  8
0
100
AcDbLine
 10
0.375000000000302
 20
11.62499999999999
 30
0.0
 11
-0.1250000000000053
 21
11.62499999999999
 31
0.0
  0
ARC
  5
20C
330
2
100
AcDbEntity
  8
0
100
AcDbCircle
 10
-0.0313000000000017
 20
10.875
 30
0.0
 40
0.25
100
AcDbArc
 50
90.00003863738409
 51
112.0119521581501
  0
ARC
  5
20D
330
2
100
AcDbEntity
  8
0
100
AcDbCircle
 10
-0.0313000000000017
 20
10.875
 30
0.0
 40
0.375
100
AcDbArc
 50
90.00003863738409
 51
104.4696223492829
  0
LINE
  5
20E
330
2
100
AcDbEntity
  8
0
100
AcDbLine
 10
0.0128756178668326
 20
11.25
 30
0.0
 11
-0.0313000000000017
 21
11.25
 31
0.0
  0
LINE
  5
20F
330
2
100
AcDbEntity
  8
0
100
AcDbLine
 10
0.3436999999999983
 20
11.25
 30
0.0
 11
0.1833051146342228
 21
11.25
 31
0.0
  0
CIRCLE
  5
210
330
2
100
AcDbEntity
  8
0
100
AcDbCircle
 10
0.5000000000000036
 20
11.625
 30
0.0
 40
0.125
  0
LINE
  5
211
330
2
100
AcDbEntity
  8
0
100
AcDbLine
 10
0.0034612768611222
 20
12.34246112082923
 30
0.0
 11
0.4505122655100688
 21
12.16892828170635
 31
0.0
  0
LINE
  5
212
330
2
100
AcDbEntity
  8
0
100
AcDbLine
 10
0.0034612768611577
 20
11.90753887917078
 30
0.0
 11
0.4505122655100688
 21
12.08107171829364
 31
0.0
  0
ARC
  5
213
330
2
100
AcDbEntity
  8
0
100
AcDbCircle
 10
-0.2083333333332185
 20
12.12500000000006
 30
0.0
 40
0.3020833333332104
100
AcDbArc
 50
315.9513743258719
 51
44.04862567412739
  0
ARC
  5
214
330
2
100
AcDbEntity
  8
0
100
AcDbCircle
 10
0.0312500000000018
 20
11.89324379727807
 30
0.0
 40
0.03125
100
AcDbArc
 50
135.9513743258694
 51
180.0000000000001
  0
ARC
  5
215
330
2
100
AcDbEntity
  8
0
100
AcDbCircle
 10
0.0312500000000053
 20
12.35675620272204
 30
0.0
 40
0.03125
100
AcDbArc
 50
180.0000000000001
 51
224.0486256741308
  0
ARC
  5
216
330
2
100
AcDbEntity
  8
0
100
AcDbCircle
 10
0.4341546467552764
 20
12.12499999999999
 30
0.0
 40
0.046875
100
AcDbArc
 50
290.423872154456
 51
69.57612784554424
  0
ARC
  5
217
330
2
100
AcDbEntity
  8
0
100
AcDbCircle
 10
-0.2083333333332202
 20
13.37499999999995
 30
0.0
 40
0.3020833333332104
100
AcDbArc
 50
315.9513743258728
 51
44.0486256741283
  0
LINE
  5
218
330
2
100
AcDbEntity
  8
0
100
AcDbLine
 10
0.0034612768611559
 20
13.59246112082922
 30
0.0
 11
0.4505122655100671
 21
13.41892828170636
 31
0.0
  0
LINE
  5
219
330
2
100
AcDbEntity
  8
0
100
AcDbLine
 10
0.0034612768611204
 20
13.15753887917078
 30
0.0
 11
0.4505122655100671
 21
13.33107171829366
 31
0.0
  0
ARC
  5
21A
330
2
100
AcDbEntity
  8
0
100
AcDbCircle
 10
0.0312500000000036
 20
13.14324379727797
 30
0.0
 40
0.03125
100
AcDbArc
 50
135.9513743258694
 51
180.0000000000001
  0
ARC
  5
21B
330
2
100
AcDbEntity
  8
0
100
AcDbCircle
 10
0.03125
 20
13.60675620272193
 30
0.0
 40
0.03125
100
AcDbArc
 50
180.0000000000001
 51
224.0486256741307
  0
ARC
  5
21C
330
2
100
AcDbEntity
  8
0
100
AcDbCircle
 10
0.4341546467552746
 20
13.37500000000001
 30
0.0
 40
0.046875
100
AcDbArc
 50
290.423872154456
 51
69.57612784554424
  0
ARC
  5
21D
330
2
100
AcDbEntity
  8
0
100
AcDbCircle
 10
0.1977445095946102
 20
14.62499999999998
 30
0.0
 40
0.5415445095946648
100
AcDbArc
 50
145.7705655526785
 51
214.2294344473111
  0
ARC
  5
21E
330
2
100
AcDbEntity
  8
0
100
AcDbCircle
 10
0.343699999999993
 20
14.625
 30
0.0
 40
0.25
100
AcDbArc
 50
270.0000000000001
 51
89.99996136261612
  0
LINE
  5
21F
330
2
100
AcDbEntity
  8
0
100
AcDbLine
 10
0.375
 20
13.875
 30
0.0
 11
-0.1250000000000053
 21
13.875
 31
0.0
  0
LINE
  5
220
330
2
100
AcDbEntity
  8
0
100
AcDbLine
 10
0.343699999999993
 20
14.375
 30
0.0
 11
-0.031300000000007
 21
14.375
 31
0.0
  0
LINE
  5
221
330
2
100
AcDbEntity
  8
0
100
AcDbLine
 10
0.043953937865588
 20
14.25
 30
0.0
 11
-0.031300000000007
 21
14.25
 31
0.0
  0
ARC
  5
222
330
2
100
AcDbEntity
  8
0
100
AcDbCircle
 10
-0.031300000000007
 20
14.625
 30
0.0
 40
0.375
100
AcDbArc
 50
255.530377650718
 51
270.0000000000001
  0
ARC
  5
223
330
2
100
AcDbEntity
  8
0
100
AcDbCircle
 10
-0.031300000000007
 20
14.625
 30
0.0
 40
0.25
100
AcDbArc
 50
247.9880478418498
 51
270.0000000000001
  0
CIRCLE
  5
224
330
2
100
AcDbEntity
  8
0
100
AcDbCircle
 10
0.5
 20
13.875
 30
0.0
 40
0.125
  0
LINE
  5
225
330
2
100
AcDbEntity
  8
0
100
AcDbLine
 10
0.343699999999993
 20
14.25
 30
0.0
 11
0.1903227997952257
 21
14.25
 31
0.0
  0
LINE
  5
226
330
2
100
AcDbEntity
  8
0
100
AcDbLine
 10
0.343699999999993
 20
14.875
 30
0.0
 11
-0.031300000000007
 21
14.875
 31
0.0
  0
LINE
  5
227
330
2
100
AcDbEntity
  8
0
100
AcDbLine
 10
-0.2500000000000071
 20
15.375
 30
0.0
 11
-0.2500000000000053
 21
14.81142694259919
 31
0.0
  0
LINE
  5
228
330
2
100
AcDbEntity
  8
0
100
AcDbLine
 10
-0.1250000000000071
 20
15.375
 30
0.0
 11
-0.1250000000000053
 21
14.85677642244201
 31
0.0
  0
LINE
  5
229
330
2
100
AcDbEntity
  8
0
100
AcDbLine
 10
-0.2500000000000062
 20
14.75
 30
0.0
 11
-0.1250000000000053
 21
14.75
 31
0.0
  0
LINE
  5
22A
330
2
100
AcDbEntity
  8
0
100
AcDbLine
 10
0.012875617866829
 20
15.0
 30
0.0
 11
-0.031300000000007
 21
15.0
 31
0.0
  0
ARC
  5
22B
330
2
100
AcDbEntity
  8
0
100
AcDbCircle
 10
-0.031300000000007
 20
14.625
 30
0.0
 40
0.375
100
AcDbArc
 50
90.00003863738409
 51
104.469622349282
  0
ARC
  5
22C
330
2
100
AcDbEntity
  8
0
100
AcDbCircle
 10
-0.031300000000007
 20
14.625
 30
0.0
 40
0.25
100
AcDbArc
 50
90.00003863738409
 51
112.0119521581501
  0
LINE
  5
22D
330
2
100
AcDbEntity
  8
0
100
AcDbLine
 10
0.343699999999993
 20
15.0
 30
0.0
 11
0.1833051146342157
 21
15.0
 31
0.0
  0
LINE
  5
22E
330
2
100
AcDbEntity
  8
0
100
AcDbLine
 10
5.750000000000172
 20
13.875
 30
0.0
 11
5.750000000000172
 21
12.75
 31
0.0
  0
LINE
  5
22F
330
2
100
AcDbEntity
  8
0
100
AcDbLine
 10
5.875
 20
14.85677642244201
 30
0.0
 11
5.875
 21
10.125
 31
0.0
  0
LINE
  5
230
330
2
100
AcDbEntity
  8
0
100
AcDbLine
 10
6.0
 20
14.81142694259919
 30
0.0
 11
5.999999999999991
 21
10.125
 31
0.0
  0
LINE
  5
231
330
2
100
AcDbEntity
  8
0
100
AcDbLine
 10
5.406299999999995
 20
11.125
 30
0.0
 11
5.781299999999995
 21
11.125
 31
0.0
  0
LINE
  5
232
330
2
100
AcDbEntity
  8
0
100
AcDbLine
 10
5.406299999999995
 20
10.625
 30
0.0
 11
5.781299999999995
 21
10.625
 31
0.0
  0
LINE
  5
233
330
2
100
AcDbEntity
  8
0
100
AcDbLine
 10
5.746538723139016
 20
11.90753887917079
 30
0.0
 11
5.299487734490105
 21
12.08107171829365
 31
0.0
  0
LINE
  5
234
330
2
100
AcDbEntity
  8
0
100
AcDbLine
 10
5.746538723139052
 20
12.34246112082923
 30
0.0
 11
5.299487734490105
 21
12.16892828170635
 31
0.0
  0
LINE
  5
235
330
2
100
AcDbEntity
  8
0
100
AcDbLine
 10
5.746538723139052
 20
13.15753887917078
 30
0.0
 11
5.299487734490105
 21
13.33107171829366
 31
0.0
  0
LINE
  5
236
330
2
100
AcDbEntity
  8
0
100
AcDbLine
 10
5.746538723139016
 20
13.59246112082923
 30
0.0
 11
5.299487734490105
 21
13.41892828170637
 31
0.0
  0
LINE
  5
237
330
2
100
AcDbEntity
  8
0
100
AcDbLine
 10
5.375000000000227
 20
11.625
 30
0.0
 11
5.875
 21
11.625
 31
0.0
  0
ARC
  5
238
330
2
100
AcDbEntity
  8
0
100
AcDbCircle
 10
5.406299999999995
 20
10.875
 30
0.0
 40
0.25
100
AcDbArc
 50
89.99999999999993
 51
269.999961362616
  0
ARC
  5
239
330
2
100
AcDbEntity
  8
0
100
AcDbCircle
 10
5.406299999999995
 20
10.875
 30
0.0
 40
0.375
100
AcDbArc
 50
90.0000386373839
 51
269.9999999999999
  0
ARC
  5
23A
330
2
100
AcDbEntity
  8
0
100
AcDbCircle
 10
5.406299999999995
 20
10.875
 30
0.0
 40
0.25
100
AcDbArc
 50
90.0000386373839
 51
269.9999999999999
  0
LINE
  5
23B
330
2
100
AcDbEntity
  8
0
100
AcDbLine
 10
5.406299999999995
 20
10.5
 30
0.0
 11
5.55967720020476
 21
10.5
 31
0.0
  0
LINE
  5
23C
330
2
100
AcDbEntity
  8
0
100
AcDbLine
 10
5.406299999999995
 20
11.25
 30
0.0
 11
5.56669488536577
 21
11.25
 31
0.0
  0
CIRCLE
  5
23D
330
2
100
AcDbEntity
  8
0
100
AcDbCircle
 10
5.25
 20
11.625
 30
0.0
 40
0.125
  0
ARC
  5
23E
330
2
100
AcDbEntity
  8
0
100
AcDbCircle
 10
5.315845353244898
 20
12.125
 30
0.0
 40
0.046875
100
AcDbArc
 50
110.4238721544558
 51
249.5761278455441
  0
ARC
  5
23F
330
2
100
AcDbEntity
  8
0
100
AcDbCircle
 10
5.315845353244898
 20
13.37500000000002
 30
0.0
 40
0.046875
100
AcDbArc
 50
110.4238721544558
 51
249.5761278455441
  0
LINE
  5
240
330
2
100
AcDbEntity
  8
0
100
AcDbLine
 10
5.750000000000172
 20
11.625
 30
0.0
 11
5.750000000000172
 21
12.75000000000001
 31
0.0
  0
ARC
  5
241
330
2
100
AcDbEntity
  8
0
100
AcDbCircle
 10
5.552255490405379
 20
10.87499999999997
 30
0.0
 40
0.5415445095946648
100
AcDbArc
 50
325.770565552689
 51
34.22943444732149
  0
LINE
  5
242
330
2
100
AcDbEntity
  8
0
100
AcDbLine
 10
5.875
 20
10.75
 30
0.0
 11
5.999999999999991
 21
10.75
 31
0.0
  0
LINE
  5
243
330
2
100
AcDbEntity
  8
0
100
AcDbLine
 10
5.706046062134401
 20
10.5
 30
0.0
 11
5.781299999999995
 21
10.5
 31
0.0
  0
ARC
  5
244
330
2
100
AcDbEntity
  8
0
100
AcDbCircle
 10
5.781299999999995
 20
10.875
 30
0.0
 40
0.375
100
AcDbArc
 50
269.9999999999999
 51
284.4696223492832
  0
ARC
  5
245
330
2
100
AcDbEntity
  8
0
100
AcDbCircle
 10
5.781299999999995
 20
10.875
 30
0.0
 40
0.25
100
AcDbArc
 50
269.9999999999999
 51
292.0119521581503
  0
LINE
  5
246
330
2
100
AcDbEntity
  8
0
100
AcDbLine
 10
5.73712438213316
 20
11.25
 30
0.0
 11
5.781299999999995
 21
11.25
 31
0.0
  0
ARC
  5
247
330
2
100
AcDbEntity
  8
0
100
AcDbCircle
 10
5.781299999999995
 20
10.875
 30
0.0
 40
0.375
100
AcDbArc
 50
75.53037765071686
 51
89.99996136261592
  0
ARC
  5
248
330
2
100
AcDbEntity
  8
0
100
AcDbCircle
 10
5.781299999999995
 20
10.875
 30
0.0
 40
0.25
100
AcDbArc
 50
67.98804784184989
 51
89.99996136261592
  0
ARC
  5
249
330
2
100
AcDbEntity
  8
0
100
AcDbCircle
 10
5.958333333333393
 20
12.12500000000006
 30
0.0
 40
0.3020833333332104
100
AcDbArc
 50
135.9513743258727
 51
224.0486256741283
  0
ARC
  5
24A
330
2
100
AcDbEntity
  8
0
100
AcDbCircle
 10
5.718750000000172
 20
11.89324379727808
 30
0.0
 40
0.03125
100
AcDbArc
 50
0.0
 51
44.04862567413066
  0
ARC
  5
24B
330
2
100
AcDbEntity
  8
0
100
AcDbCircle
 10
5.718750000000169
 20
12.35675620272204
 30
0.0
 40
0.03125
100
AcDbArc
 50
315.9513743258693
 51
0.0
  0
ARC
  5
24C
330
2
100
AcDbEntity
  8
0
100
AcDbCircle
 10
5.718750000000169
 20
13.14324379727797
 30
0.0
 40
0.03125
100
AcDbArc
 50
0.0
 51
44.04862567413066
  0
ARC
  5
24D
330
2
100
AcDbEntity
  8
0
100
AcDbCircle
 10
5.718750000000172
 20
13.60675620272194
 30
0.0
 40
0.03125
100
AcDbArc
 50
315.9513743258694
 51
0.0
  0
ARC
  5
24E
330
2
100
AcDbEntity
  8
0
100
AcDbCircle
 10
5.958333333333393
 20
13.37499999999995
 30
0.0
 40
0.3020833333332104
100
AcDbArc
 50
135.9513743258718
 51
224.0486256741273
  0
LINE
  5
24F
330
2
100
AcDbEntity
  8
0
100
AcDbLine
 10
5.4063
 20
14.375
 30
0.0
 11
5.7813
 21
14.375
 31
0.0
  0
LINE
  5
250
330
2
100
AcDbEntity
  8
0
100
AcDbLine
 10
5.4063
 20
14.875
 30
0.0
 11
5.7813
 21
14.875
 31
0.0
  0
LINE
  5
251
330
2
100
AcDbEntity
  8
0
100
AcDbLine
 10
5.375
 20
13.875
 30
0.0
 11
5.875
 21
13.87500000000001
 31
0.0
  0
ARC
  5
252
330
2
100
AcDbEntity
  8
0
100
AcDbCircle
 10
5.4063
 20
14.625
 30
0.0
 40
0.25
100
AcDbArc
 50
90.0000386373839
 51
269.9999999999999
  0
ARC
  5
253
330
2
100
AcDbEntity
  8
0
100
AcDbCircle
 10
5.4063
 20
14.625
 30
0.0
 40
0.375
100
AcDbArc
 50
90.0000386373839
 51
269.9999999999999
  0
CIRCLE
  5
254
330
2
100
AcDbEntity
  8
0
100
AcDbCircle
 10
5.25
 20
13.875
 30
0.0
 40
0.125
  0
LINE
  5
255
330
2
100
AcDbEntity
  8
0
100
AcDbLine
 10
5.4063
 20
14.25
 30
0.0
 11
5.559677200204767
 21
14.25
 31
0.0
  0
LINE
  5
256
330
2
100
AcDbEntity
  8
0
100
AcDbLine
 10
5.4063
 20
15.0
 30
0.0
 11
5.566694885365777
 21
15.0
 31
0.0
  0
ARC
  5
257
330
2
100
AcDbEntity
  8
0
100
AcDbCircle
 10
5.552255490405383
 20
14.62499999999998
 30
0.0
 40
0.5415445095946648
100
AcDbArc
 50
325.770565552689
 51
34.22943444732149
  0
ARC
  5
258
330
2
100
AcDbEntity
  8
0
100
AcDbCircle
 10
5.7813
 20
14.625
 30
0.0
 40
0.25
100
AcDbArc
 50
269.9999999999999
 51
292.0119521581503
  0
ARC
  5
259
330
2
100
AcDbEntity
  8
0
100
AcDbCircle
 10
5.7813
 20
14.625
 30
0.0
 40
0.375
100
AcDbArc
 50
269.9999999999999
 51
284.4696223492822
  0
LINE
  5
25A
330
2
100
AcDbEntity
  8
0
100
AcDbLine
 10
5.706046062134405
 20
14.25
 30
0.0
 11
5.7813
 21
14.25
 31
0.0
  0
LINE
  5
25B
330
2
100
AcDbEntity
  8
0
100
AcDbLine
 10
5.875
 20
15.375
 30
0.0
 11
5.875
 21
14.85677642244201
 31
0.0
  0
LINE
  5
25C
330
2
100
AcDbEntity
  8
0
100
AcDbLine
 10
6.0
 20
15.375
 30
0.0
 11
6.0
 21
14.81142694259919
 31
0.0
  0
LINE
  5
25D
330
2
100
AcDbEntity
  8
0
100
AcDbLine
 10
5.874999999999998
 20
14.75
 30
0.0
 11
6.0
 21
14.75
 31
0.0
  0
ARC
  5
25E
330
2
100
AcDbEntity
  8
0
100
AcDbCircle
 10
5.7813
 20
14.625
 30
0.0
 40
0.25
100
AcDbArc
 50
67.98804784184989
 51
89.99996136261592
  0
ARC
  5
25F
330
2
100
AcDbEntity
  8
0
100
AcDbCircle
 10
5.7813
 20
14.625
 30
0.0
 40
0.375
100
AcDbArc
 50
75.53037765071764
 51
89.99996136261592
  0
LINE
  5
260
330
2
100
AcDbEntity
  8
0
100
AcDbLine
 10
5.737124382133164
 20
15.0
 30
0.0
 11
5.7813
 21
15.0
 31
0.0
  0
ENDSEC
  0
SECTION
  2
OBJECTS
  0
DICTIONARY
  5
7
330
0
100
AcDbDictionary
281
     1
  3
ACAD_COLOR
350
14E
  3
ACAD_GROUP
350
1F
  3
ACAD_LAYOUT
350
B
  3
ACAD_MATERIAL
350
14D
  3
ACAD_MLINESTYLE
350
20
  3
ACAD_PLOTSETTINGS
350
21
  3
ACAD_PLOTSTYLENAME
350
6
  3
ACAD_TABLESTYLE
350
14F
  3
ACDBHEADERROUNDTRIPXREC
350
276
  3
AcDbVariableDictionary
350
149
  0
DICTIONARY
  5
156
330
2
100
AcDbDictionary
280
     1
281
     1
  3
ACAD_SORTENTS
360
157
  0
DICTIONARY
  5
14E
102
{ACAD_REACTORS
330
7
102
}
330
7
100
AcDbDictionary
281
     1
  0
DICTIONARY
  5
1F
102
{ACAD_REACTORS
330
7
102
}
330
7
100
AcDbDictionary
281
     1
  0
DICTIONARY
  5
B
102
{ACAD_REACTORS
330
7
102
}
330
7
100
AcDbDictionary
281
     1
  3
Layout1
350
F
  3
Model
350
A
  0
DICTIONARY
  5
14D
102
{ACAD_REACTORS
330
7
102
}
330
7
100
AcDbDictionary
281
     1
  0
DICTIONARY
  5
20
102
{ACAD_REACTORS
330
7
102
}
330
7
100
AcDbDictionary
281
     1
  3
Standard
350
23
  0
DICTIONARY
  5
21
102
{ACAD_REACTORS
330
7
102
}
330
7
100
AcDbDictionary
281
     1
  0
ACDBDICTIONARYWDFLT
  5
6
102
{ACAD_REACTORS
330
7
102
}
330
7
100
AcDbDictionary
281
     1
  3
Normal
350
5
100
AcDbDictionaryWithDefault
340
5
  0
DICTIONARY
  5
14F
102
{ACAD_REACTORS
330
7
102
}
330
7
100
AcDbDictionary
281
     1
  3
Standard
350
150
  0
DICTIONARY
  5
276
102
{ACAD_REACTORS
330
7
102
}
330
7
100
AcDbDictionary
281
     1
  3
COLORDICT
350
277
  3
MATERIALDICT
350
278
  0
DICTIONARY
  5
149
102
{ACAD_REACTORS
330
7
102
}
330
7
100
AcDbDictionary
281
     1
  3
CTABLESTYLE
350
267
  3
DIMASSOC
350
14B
  3
HIDETEXT
350
14A
  0
SORTENTSTABLE
  5
157
102
{ACAD_REACTORS
330
156
102
}
330
156
100
AcDbSortentsTable
330
2
331
243
  5
1DF
331
19E
  5
206
331
1BF
  5
227
331
1A5
  5
20D
331
207
  5
1A3
331
15E
  5
15C
331
1A4
  5
20C
331
173
  5
171
331
181
  5
17F
331
1FD
  5
199
331
208
  5
1A4
331
216
  5
1B2
331
19F
  5
207
331
1AC
  5
214
331
23E
  5
1DA
331
1EF
  5
257
331
1B3
  5
21B
331
18F
  5
18D
331
1F5
  5
25D
331
218
  5
1B4
331
24B
  5
1E7
331
178
  5
176
331
203
  5
19F
331
184
  5
182
331
1F0
  5
258
331
1E2
  5
24A
331
21A
  5
1B6
331
242
  5
1DE
331
25D
  5
1F9
331
197
  5
1FF
331
19D
  5
205
331
15D
  5
15B
331
257
  5
1F3
331
180
  5
17E
331
162
  5
160
331
1AA
  5
212
331
182
  5
180
331
201
  5
19D
331
1C4
  5
22C
331
18A
  5
188
331
17F
  5
17D
331
171
  5
16F
331
16E
  5
16C
331
251
  5
1ED
331
259
  5
1F5
331
1BA
  5
222
331
1DC
  5
244
331
1AF
  5
217
331
1A1
  5
209
331
1C6
  5
22E
331
1BE
  5
226
331
252
  5
1EE
331
1F1
  5
259
331
223
  5
1BF
331
1D7
  5
23F
331
25C
  5
1F8
331
17C
  5
17A
331
21B
  5
1B7
331
204
  5
1A0
331
23C
  5
1D8
331
20C
  5
1A8
331
25B
  5
1F7
331
1CB
  5
233
331
169
  5
167
331
1CA
  5
232
331
229
  5
1C5
331
23B
  5
1D7
331
222
  5
1BE
331
1E7
  5
24F
331
21F
  5
1BB
331
226
  5
1C2
331
15F
  5
15D
331
1ED
  5
255
331
19A
  5
202
331
17E
  5
17C
331
245
  5
1E1
331
18D
  5
18B
331
1D9
  5
241
331
236
  5
1D2
331
221
  5
1BD
331
1FE
  5
19A
331
15B
  5
159
331
202
  5
19E
331
172
  5
170
331
209
  5
1A5
331
1CC
  5
234
331
196
  5
1FE
331
20E
  5
1AA
331
18B
  5
189
331
1DA
  5
242
331
186
  5
184
331
192
  5
190
331
20A
  5
1A6
331
16F
  5
16D
331
241
  5
1DD
331
24D
  5
1E9
331
1D5
  5
23D
331
232
  5
1CE
331
231
  5
1CD
331
1E8
  5
250
331
1C3
  5
22B
331
160
  5
15E
331
16A
  5
168
331
249
  5
1E5
331
1F8
  5
260
331
1EB
  5
253
331
179
  5
177
331
205
  5
1A1
331
22A
  5
1C6
331
190
  5
18E
331
253
  5
1EF
331
19C
  5
204
331
18E
  5
18C
331
22C
  5
1C8
331
168
  5
166
331
163
  5
161
331
166
  5
164
331
1C0
  5
228
331
19B
  5
203
331
164
  5
162
331
24C
  5
1E8
331
1E5
  5
24D
331
258
  5
1F4
331
24E
  5
1EA
331
1E6
  5
24E
331
24A
  5
1E6
331
1A9
  5
211
331
23D
  5
1D9
331
1D1
  5
239
331
1B9
  5
221
331
1F2
  5
25A
331
1C7
  5
22F
331
1EA
  5
252
331
194
  5
192
331
1B8
  5
220
331
234
  5
1D0
331
254
  5
1F0
331
1B1
  5
219
331
1E4
  5
24C
331
20B
  5
1A7
331
1AE
  5
216
331
212
  5
1AE
331
1A6
  5
20E
331
1DD
  5
245
331
1D6
  5
23E
331
20D
  5
1A9
331
17B
  5
179
331
1B0
  5
218
331
23A
  5
1D6
331
255
  5
1F1
331
1B5
  5
21D
331
220
  5
1BC
331
187
  5
185
331
177
  5
175
331
1B2
  5
21A
331
247
  5
1E3
331
1D0
  5
238
331
260
  5
1FC
331
174
  5
172
331
188
  5
186
331
25E
  5
1FA
331
1F7
  5
25F
331
167
  5
165
331
1B4
  5
21C
331
25F
  5
1FB
331
1C2
  5
22A
331
22F
  5
1CB
331
1EC
  5
254
331
240
  5
1DC
331
170
  5
16E
331
1CF
  5
237
331
25A
  5
1F6
331
191
  5
18F
331
1D8
  5
240
331
1BD
  5
225
331
17A
  5
178
331
1FA
  5
196
331
22E
  5
1CA
331
1FC
  5
198
331
1DB
  5
243
331
225
  5
1C1
331
1F6
  5
25E
331
1B6
  5
21E
331
230
  5
1CC
331
200
  5
19C
331
1C8
  5
230
331
237
  5
1D3
331
250
  5
1EC
331
215
  5
1B1
331
1BC
  5
224
331
1A2
  5
20A
331
206
  5
1A2
331
175
  5
173
331
18C
  5
18A
331
16B
  5
169
331
1AD
  5
215
331
16D
  5
16B
331
1F9
  5
195
331
24F
  5
1EB
331
1FF
  5
19B
331
15C
  5
15A
331
17D
  5
17B
331
199
  5
201
331
20F
  5
1AB
331
219
  5
1B5
331
214
  5
1B0
331
195
  5
1FD
331
1F3
  5
25B
331
21C
  5
1B8
331
161
  5
15F
331
185
  5
183
331
239
  5
1D5
331
224
  5
1C0
331
211
  5
1AD
331
1C9
  5
231
331
16C
  5
16A
331
189
  5
187
331
1DE
  5
246
331
1A3
  5
20B
331
1A7
  5
20F
331
1E3
  5
24B
331
176
  5
174
331
193
  5
191
331
1D4
  5
23C
331
165
  5
163
331
238
  5
1D4
331
227
  5
1C3
331
248
  5
1E4
331
1C1
  5
229
331
1F4
  5
25C
331
1CE
  5
236
331
217
  5
1B3
331
23F
  5
1DB
331
1FB
  5
197
331
21D
  5
1B9
331
1E0
  5
248
331
1D3
  5
23B
331
1B7
  5
21F
331
210
  5
1AC
331
1EE
  5
256
331
198
  5
200
331
1BB
  5
223
331
1D2
  5
23A
331
1DF
  5
247
331
22B
  5
1C7
331
1E9
  5
251
331
22D
  5
1C9
331
1A0
  5
208
331
256
  5
1F2
331
1E1
  5
249
331
1C5
  5
22D
331
228
  5
1C4
331
244
  5
1E0
331
1AB
  5
213
331
21E
  5
1BA
331
246
  5
1E2
331
233
  5
1CF
331
183
  5
181
331
1A8
  5
210
331
235
  5
1D1
331
1CD
  5
235
331
213
  5
1AF
  0
LAYOUT
  5
F
102
{ACAD_REACTORS
330
B
102
}
102
{ACAD_XDICTIONARY
360
279
102
}
330
B
100
AcDbPlotSettings
  1

  2
X:\Program Files\AutoCAD2002\plotters\DWF ePlot (optimized for plotting).pc3
  4

  6

 40
0.0
 41
0.0
 42
0.0
 43
0.0
 44
0.0
 45
0.0
 46
0.0
 47
0.0
 48
0.0
 49
0.0
140
0.0
141
0.0
142
1.0
143
1.0
 70
   688
 72
     0
 73
     0
 74
     5
  7

 75
    16
147
1.0
148
0.0
149
0.0
100
AcDbLayout
  1
Layout1
 70
     0
 71
     1
 10
0.0
 20
0.0
 11
12.0
 21
9.0
 12
0.0
 22
0.0
 32
0.0
 14
1.000000000000000E+20
 24
1.000000000000000E+20
 34
1.000000000000000E+20
 15
-1.000000000000000E+20
 25
-1.000000000000000E+20
 35
-1.000000000000000E+20
146
0.0
 13
0.0
 23
0.0
 33
0.0
 16
1.0
 26
0.0
 36
0.0
 17
0.0
 27
1.0
 37
0.0
 76
     0
330
C
  0
LAYOUT
  5
A
102
{ACAD_REACTORS
330
B
102
}
102
{ACAD_XDICTIONARY
360
27B
102
}
330
B
100
AcDbPlotSettings
  1

  2
X:\Program Files\AutoCAD2002\plotters\DWF ePlot (optimized for plotting).pc3
  4

  6

 40
0.0
 41
0.0
 42
0.0
 43
0.0
 44
0.0
 45
0.0
 46
0.0
 47
0.0
 48
0.0
 49
0.0
140
0.0
141
0.0
142
1.0
143
1.0
 70
  1712
 72
     0
 73
     0
 74
     0
  7

 75
     0
147
1.0
148
0.0
149
0.0
100
AcDbLayout
  1
Model
 70
     1
 71
     0
 10
0.0
 20
0.0
 11
12.0
 21
9.0
 12
0.0
 22
0.0
 32
0.0
 14
0.0
 24
0.0
 34
0.0
 15
0.0
 25
0.0
 35
0.0
146
0.0
 13
0.0
 23
0.0
 33
0.0
 16
1.0
 26
0.0
 36
0.0
 17
0.0
 27
1.0
 37
0.0
 76
     0
330
2
  0
MLINESTYLE
  5
23
102
{ACAD_REACTORS
330
20
102
}
330
20
100
AcDbMlineStyle
  2
STANDARD
 70
     0
  3

 62
   256
 51
90.0
 52
90.0
 71
     2
 49
0.5
 62
   256
  6
BYLAYER
 49
-0.5
 62
   256
  6
BYLAYER
  0
ACDBPLACEHOLDER
  5
5
102
{ACAD_REACTORS
330
6
102
}
330
6
  0
ACAD_PROXY_OBJECT
  5
150
102
{ACAD_REACTORS
330
14F
102
}
330
14F
100
AcDbProxyObject
 90
      499
 91
      504
 95
   983063
 70
     0
 93
     1841
310
4214DD185B99185C9928B81E85EB51B8AE3F2E07A17AD46E2B8FC02B5E8DC0F42B1CFD028000000C1008070000C3001FDFF8000000C1003FBFF000000182007F7FE00000030400FEFFC00000060801FDFF8000000C1003FBFF00000018200000000000000681FA0B0000001820100E000186003FBFF000000182007F7FE000
310
00030400FEFFC00000060801FDFF8000000C1003FBFF000000182007F7FE000000304000AD7A3703D0AC73F4160000003040201C00030C007F7FE00000030400FEFFC00000060801FDFF8000000C1003FBFF000000182007F7FE00000030400FEFFC000000608000
340
12
340
12
340
12
 94
        0
  0
XRECORD
  5
277
102
{ACAD_REACTORS
330
276
102
}
330
276
100
AcDbXrecord
340
14E
  0
XRECORD
  5
278
102
{ACAD_REACTORS
330
276
102
}
330
276
100
AcDbXrecord
340
14D
  0
DICTIONARYVAR
  5
267
102
{ACAD_REACTORS
330
149
102
}
330
149
100
DictionaryVariables
280
     0
  1
STANDARD
  0
DICTIONARYVAR
  5
14B
102
{ACAD_REACTORS
330
149
102
}
330
149
100
DictionaryVariables
280
     0
  1
2
  0
DICTIONARYVAR
  5
14A
102
{ACAD_REACTORS
330
149
102
}
330
149
100
DictionaryVariables
280
     0
  1
1
  0
DICTIONARY
  5
279
330
F
100
AcDbDictionary
280
     1
281
     1
  3
ACAD_XREC_ROUNDTRIP
360
27A
  0
DICTIONARY
  5
27B
330
A
100
AcDbDictionary
280
     1
281
     1
  3
ACAD_XREC_ROUNDTRIP
360
27C
  0
XRECORD
  5
27A
102
{ACAD_REACTORS
330
279
102
}
330
279
100
AcDbXrecord
102
SHADEPLOT
 70
     0
102
SHADEPLOTRESLEVEL
 70
     2
102
SHADEPLOTCUSTOMDPI
 70
   300
  0
XRECORD
  5
27C
102
{ACAD_REACTORS
330
27B
102
}
330
27B
100
AcDbXrecord
102
SHADEPLOT
 70
     0
102
SHADEPLOTRESLEVEL
 70
     2
102
SHADEPLOTCUSTOMDPI
 70
   300
  0
ENDSEC
  0
EOF
