  0
SECTION
  2
HEADER
  9
$ACADVER
  1
AC1015
  9
$ACADMAINTVER
 70
     6
  9
$DWGCODEPAGE
  3
ANSI_1252
  9
$INSBASE
 10
0.0
 20
0.0
 30
0.0
  9
$EXTMIN
 10
-8.522903674702938
 20
-6.668344806808534
 30
-0.0000000000000058
  9
$EXTMAX
 10
8.868068789743354
 20
23.99722857328287
 30
0.0000000000000104
  9
$LIMMIN
 10
0.0
 20
0.0
  9
$LIMMAX
 10
20.0
 20
26.25
  9
$ORTHOMODE
 70
     1
  9
$REGENMODE
 70
     1
  9
$FILLMODE
 70
     1
  9
$QTEXTMODE
 70
     0
  9
$MIRRTEXT
 70
     0
  9
$LTSCALE
 40
0.5
  9
$ATTMODE
 70
     1
  9
$TEXTSIZE
 40
0.225
  9
$TRACEWID
 40
0.05
  9
$TEXTSTYLE
  7
STANDARD
  9
$CLAYER
  8
0
  9
$CELTYPE
  6
ByLayer
  9
$CECOLOR
 62
   256
  9
$CELTSCALE
 40
1.0
  9
$DISPSILH
 70
     0
  9
$DIMSCALE
 40
2.5
  9
$DIMASZ
 40
0.125
  9
$DIMEXO
 40
0.062
  9
$DIMDLI
 40
0.375
  9
$DIMRND
 40
0.0
  9
$DIMDLE
 40
0.0
  9
$DIMEXE
 40
0.08
  9
$DIMTP
 40
0.0
  9
$DIMTM
 40
0.0
  9
$DIMTXT
 40
0.09
  9
$DIMCEN
 40
-0.03125
  9
$DIMTSZ
 40
0.0
  9
$DIMTOL
 70
     0
  9
$DIMLIM
 70
     0
  9
$DIMTIH
 70
     1
  9
$DIMTOH
 70
     1
  9
$DIMSE1
 70
     0
  9
$DIMSE2
 70
     0
  9
$DIMTAD
 70
     0
  9
$DIMZIN
 70
     0
  9
$DIMBLK
  1

  9
$DIMASO
 70
     0
  9
$DIMSHO
 70
     0
  9
$DIMPOST
  1

  9
$DIMAPOST
  1

  9
$DIMALT
 70
     0
  9
$DIMALTD
 70
     2
  9
$DIMALTF
 40
25.4
  9
$DIMLFAC
 40
1.0
  9
$DIMTOFL
 70
     0
  9
$DIMTVP
 40
0.0
  9
$DIMTIX
 70
     0
  9
$DIMSOXD
 70
     0
  9
$DIMSAH
 70
     0
  9
$DIMBLK1
  1

  9
$DIMBLK2
  1

  9
$DIMSTYLE
  2
Standard
  9
$DIMCLRD
 70
     0
  9
$DIMCLRE
 70
     0
  9
$DIMCLRT
 70
     0
  9
$DIMTFAC
 40
1.0
  9
$DIMGAP
 40
0.09
  9
$DIMJUST
 70
     0
  9
$DIMSD1
 70
     0
  9
$DIMSD2
 70
     0
  9
$DIMTOLJ
 70
     1
  9
$DIMTZIN
 70
     0
  9
$DIMALTZ
 70
     0
  9
$DIMALTTZ
 70
     0
  9
$DIMUPT
 70
     0
  9
$DIMDEC
 70
     4
  9
$DIMTDEC
 70
     4
  9
$DIMALTU
 70
     2
  9
$DIMALTTD
 70
     2
  9
$DIMTXSTY
  7
STANDARD
  9
$DIMAUNIT
 70
     0
  9
$DIMADEC
 70
     0
  9
$DIMALTRND
 40
0.0
  9
$DIMAZIN
 70
     0
  9
$DIMDSEP
 70
    46
  9
$DIMATFIT
 70
     3
  9
$DIMFRAC
 70
     0
  9
$DIMLDRBLK
  1

  9
$DIMLUNIT
 70
     2
  9
$DIMLWD
 70
    -2
  9
$DIMLWE
 70
    -2
  9
$DIMTMOVE
 70
     2
  9
$LUNITS
 70
     2
  9
$LUPREC
 70
     4
  9
$SKETCHINC
 40
0.1
  9
$FILLETRAD
 40
0.0
  9
$AUNITS
 70
     0
  9
$AUPREC
 70
     0
  9
$MENU
  1
qa
  9
$ELEVATION
 40
0.0
  9
$PELEVATION
 40
0.0
  9
$THICKNESS
 40
0.0
  9
$LIMCHECK
 70
     0
  9
$CHAMFERA
 40
0.0
  9
$CHAMFERB
 40
0.0
  9
$CHAMFERC
 40
0.0
  9
$CHAMFERD
 40
0.0
  9
$SKPOLY
 70
     0
  9
$TDCREATE
 40
2449812.002040162
  9
$TDUCREATE
 40
2449812.335373495
  9
$TDUPDATE
 40
2454946.916642419
  9
$TDUUPDATE
 40
2454947.249975752
  9
$TDINDWG
 40
0.2196428935
  9
$TDUSRTIMER
 40
0.2196428935
  9
$USRTIMER
 70
     1
  9
$ANGBASE
 50
0.0
  9
$ANGDIR
 70
     0
  9
$PDMODE
 70
     0
  9
$PDSIZE
 40
0.0
  9
$PLINEWID
 40
0.0
  9
$SPLFRAME
 70
     0
  9
$SPLINETYPE
 70
     6
  9
$SPLINESEGS
 70
     8
  9
$HANDSEED
  5
8C6
  9
$SURFTAB1
 70
     6
  9
$SURFTAB2
 70
     6
  9
$SURFTYPE
 70
     6
  9
$SURFU
 70
     6
  9
$SURFV
 70
     6
  9
$UCSBASE
  2

  9
$UCSNAME
  2

  9
$UCSORG
 10
0.0
 20
0.0
 30
0.0
  9
$UCSXDIR
 10
1.0
 20
0.0
 30
0.0
  9
$UCSYDIR
 10
0.0
 20
1.0
 30
0.0
  9
$UCSORTHOREF
  2

  9
$UCSORTHOVIEW
 70
     0
  9
$UCSORGTOP
 10
0.0
 20
0.0
 30
0.0
  9
$UCSORGBOTTOM
 10
0.0
 20
0.0
 30
0.0
  9
$UCSORGLEFT
 10
0.0
 20
0.0
 30
0.0
  9
$UCSORGRIGHT
 10
0.0
 20
0.0
 30
0.0
  9
$UCSORGFRONT
 10
0.0
 20
0.0
 30
0.0
  9
$UCSORGBACK
 10
0.0
 20
0.0
 30
0.0
  9
$PUCSBASE
  2

  9
$PUCSNAME
  2

  9
$PUCSORG
 10
0.0
 20
0.0
 30
0.0
  9
$PUCSXDIR
 10
1.0
 20
0.0
 30
0.0
  9
$PUCSYDIR
 10
0.0
 20
1.0
 30
0.0
  9
$PUCSORTHOREF
  2

  9
$PUCSORTHOVIEW
 70
     0
  9
$PUCSORGTOP
 10
0.0
 20
0.0
 30
0.0
  9
$PUCSORGBOTTOM
 10
0.0
 20
0.0
 30
0.0
  9
$PUCSORGLEFT
 10
0.0
 20
0.0
 30
0.0
  9
$PUCSORGRIGHT
 10
0.0
 20
0.0
 30
0.0
  9
$PUCSORGFRONT
 10
0.0
 20
0.0
 30
0.0
  9
$PUCSORGBACK
 10
0.0
 20
0.0
 30
0.0
  9
$USERI1
 70
     0
  9
$USERI2
 70
     0
  9
$USERI3
 70
     0
  9
$USERI4
 70
     0
  9
$USERI5
 70
     0
  9
$USERR1
 40
0.0
  9
$USERR2
 40
0.0
  9
$USERR3
 40
0.0
  9
$USERR4
 40
0.0
  9
$USERR5
 40
0.0
  9
$WORLDVIEW
 70
     1
  9
$SHADEDGE
 70
     3
  9
$SHADEDIF
 70
    70
  9
$TILEMODE
 70
     1
  9
$MAXACTVP
 70
    16
  9
$PINSBASE
 10
0.0
 20
0.0
 30
0.0
  9
$PLIMCHECK
 70
     0
  9
$PEXTMIN
 10
1.000000000000000E+20
 20
1.000000000000000E+20
 30
1.000000000000000E+20
  9
$PEXTMAX
 10
-1.000000000000000E+20
 20
-1.000000000000000E+20
 30
-1.000000000000000E+20
  9
$PLIMMIN
 10
0.0
 20
0.0
  9
$PLIMMAX
 10
12.0
 20
9.0
  9
$UNITMODE
 70
     0
  9
$VISRETAIN
 70
     0
  9
$PLINEGEN
 70
     0
  9
$PSLTSCALE
 70
     0
  9
$TREEDEPTH
 70
  3020
  9
$CMLSTYLE
  2
Standard
  9
$CMLJUST
 70
     0
  9
$CMLSCALE
 40
1.0
  9
$PROXYGRAPHICS
 70
     1
  9
$MEASUREMENT
 70
     0
  9
$CELWEIGHT
370
    -1
  9
$ENDCAPS
280
     0
  9
$JOINSTYLE
280
     0
  9
$LWDISPLAY
290
     0
  9
$INSUNITS
 70
     0
  9
$HYPERLINKBASE
  1

  9
$STYLESHEET
  1

  9
$XEDIT
290
     1
  9
$CEPSNTYPE
380
     0
  9
$PSTYLEMODE
290
     1
  9
$FINGERPRINTGUID
  2
{36260137-DC21-11D6-BE3F-00508B5FCD51}
  9
$VERSIONGUID
  2
{B3586F27-1BDF-4E30-8565-A0CAB7C2459D}
  9
$EXTNAMES
290
     1
  9
$PSVPSCALE
 40
0.0
  9
$OLESTARTUP
290
     0
  0
ENDSEC
  0
SECTION
  2
CLASSES
  0
CLASS
  1
ACDBDICTIONARYWDFLT
  2
AcDbDictionaryWithDefault
  3
AutoCAD 2000
 90
        0
280
     0
281
     0
  0
CLASS
  1
ACDBPLACEHOLDER
  2
AcDbPlaceHolder
  3
ObjectDBX Classes
 90
        0
280
     0
281
     0
  0
CLASS
  1
LAYOUT
  2
AcDbLayout
  3
ObjectDBX Classes
 90
        0
280
     0
281
     0
  0
CLASS
  1
LONG_TRANSACTION
  2
AcDbLongTransaction
  3
ObjectDBX Classes
 90
   -65536
280
     1
281
     0
  0
CLASS
  1
LWPOLYLINE
  2
AcDbPolyline
  3
AutoCAD 2000
 90
        0
280
     0
281
     1
  0
CLASS
  1
HATCH
  2
AcDbHatch
  3
AutoCAD 2000
 90
        0
280
     0
281
     1
  0
CLASS
  1
XRECORD
  2
AcDbXrecord
  3
AutoCAD 2000
 90
        0
280
     0
281
     0
  0
CLASS
  1
LONG_TRANSACTION
  2
AcDbLongTransaction
  3
ObjectDBX Classes
 90
   -65536
280
     1
281
     0
  0
CLASS
  1
LWPOLYLINE
  2
AcDbPolyline
  3
AutoCAD 2000
 90
        0
280
     0
281
     1
  0
CLASS
  1
HATCH
  2
AcDbHatch
  3
AutoCAD 2000
 90
        0
280
     0
281
     1
  0
CLASS
  1
XRECORD
  2
AcDbXrecord
  3
AutoCAD 2000
 90
        0
280
     0
281
     0
  0
CLASS
  1
DICTIONARYVAR
  2
AcDbDictionaryVar
  3
AutoCAD 2000
 90
        0
280
     0
281
     0
  0
CLASS
  1
TABLESTYLE
  2
AcDbTableStyle
  3
ObjectDBX Classes
 90
     2047
280
     1
281
     0
  0
CLASS
  1
SORTENTSTABLE
  2
AcDbSortentsTable
  3
AutoCAD 2000
 90
        0
280
     0
281
     0
  0
ENDSEC
  0
SECTION
  2
TABLES
  0
TABLE
  2
VPORT
  5
8
330
0
100
AcDbSymbolTable
 70
     8
  0
VPORT
  5
8B7
330
8
100
AcDbSymbolTableRecord
100
AcDbViewportTableRecord
  2
*Active
 70
     0
 10
0.0
 20
0.0
 11
1.0
 21
1.0
 12
7.450395604691774
 22
5.646569380368756
 13
0.0
 23
0.0
 14
0.063
 24
0.063
 15
0.25
 25
0.25
 16
0.0
 26
0.0
 36
1.0
 17
0.0
 27
0.0
 37
0.0
 40
28.66054028840943
 41
1.87741935483871
 42
50.0
 43
0.0
 44
0.0
 50
0.0
 51
0.0
 71
     0
 72
   100
 73
     1
 74
     0
 75
     0
 76
     0
 77
     0
 78
     0
281
     0
 65
     1
110
0.0
120
0.0
130
0.0
111
1.0
121
0.0
131
0.0
112
0.0
122
1.0
132
0.0
 79
     0
146
0.0
  0
ENDTAB
  0
TABLE
  2
LTYPE
  5
5
330
0
100
AcDbSymbolTable
 70
     4
  0
LTYPE
  5
13
330
5
100
AcDbSymbolTableRecord
100
AcDbLinetypeTableRecord
  2
ByBlock
 70
     0
  3

 72
    65
 73
     0
 40
0.0
  0
LTYPE
  5
14
330
5
100
AcDbSymbolTableRecord
100
AcDbLinetypeTableRecord
  2
ByLayer
 70
     0
  3

 72
    65
 73
     0
 40
0.0
  0
LTYPE
  5
15
330
5
100
AcDbSymbolTableRecord
100
AcDbLinetypeTableRecord
  2
CONTINUOUS
 70
     0
  3
Solid line
 72
    65
 73
     0
 40
0.0
  0
LTYPE
  5
39
330
5
100
AcDbSymbolTableRecord
100
AcDbLinetypeTableRecord
  2
HIDDEN
 70
     0
  3
_ _ _ _ _ _ _ _ _ _ _ _ _ _ _ _ _ _ _ _ _ _ _
 72
    65
 73
     2
 40
0.375
 49
0.25
 74
     0
 49
-0.125
 74
     0
  0
ENDTAB
  0
TABLE
  2
LAYER
  5
2
102
{ACAD_XDICTIONARY
360
7F7
102
}
330
0
100
AcDbSymbolTable
 70
    12
  0
LAYER
  5
10
330
2
100
AcDbSymbolTableRecord
100
AcDbLayerTableRecord
  2
0
 70
     0
 62
     7
  6
CONTINUOUS
370
    -3
390
F
  0
LAYER
  5
48
330
2
100
AcDbSymbolTableRecord
100
AcDbLayerTableRecord
  2
HIDDEN
 70
     0
 62
   253
  6
HIDDEN
370
    -3
390
F
  0
ENDTAB
  0
TABLE
  2
STYLE
  5
3
330
0
100
AcDbSymbolTable
 70
     4
  0
STYLE
  5
11
330
3
100
AcDbSymbolTableRecord
100
AcDbTextStyleTableRecord
  2
STANDARD
 70
     0
 40
0.0
 41
1.0
 50
0.0
 71
     0
 42
0.225
  3
TXT
  4

  0
ENDTAB
  0
TABLE
  2
VIEW
  5
6
330
0
100
AcDbSymbolTable
 70
     0
  0
ENDTAB
  0
TABLE
  2
UCS
  5
7
330
0
100
AcDbSymbolTable
 70
     0
  0
ENDTAB
  0
TABLE
  2
APPID
  5
9
330
0
100
AcDbSymbolTable
 70
     1
  0
APPID
  5
12
330
9
100
AcDbSymbolTableRecord
100
AcDbRegAppTableRecord
  2
ACAD
 70
     0
  0
ENDTAB
  0
TABLE
  2
DIMSTYLE
  5
A
330
0
100
AcDbSymbolTable
 70
     1
100
AcDbDimStyleTable
  0
DIMSTYLE
105
51E
330
A
100
AcDbSymbolTableRecord
100
AcDbDimStyleTableRecord
  2
Standard
 70
     0
  3

  4

340
11
  0
ENDTAB
  0
TABLE
  2
BLOCK_RECORD
  5
1
330
0
100
AcDbSymbolTable
 70
    13
  0
BLOCK_RECORD
  5
1E
102
{ACAD_XDICTIONARY
360
5AD
102
}
330
1
100
AcDbSymbolTableRecord
100
AcDbBlockTableRecord
  2
*Model_Space
340
21
  0
BLOCK_RECORD
  5
1A
330
1
100
AcDbSymbolTableRecord
100
AcDbBlockTableRecord
  2
*Paper_Space
340
1D
  0
BLOCK_RECORD
  5
30
330
1
100
AcDbSymbolTableRecord
100
AcDbBlockTableRecord
  2
BOTMTABS
340
0
  0
ENDTAB
  0
ENDSEC
  0
SECTION
  2
BLOCKS
  0
BLOCK
  5
53
330
1E
100
AcDbEntity
  8
0
100
AcDbBlockBegin
  2
*Model_Space
 70
     0
 10
0.0
 20
0.0
 30
0.0
  3
*Model_Space
  1

  4

  0
ENDBLK
  5
54
330
1E
100
AcDbEntity
  8
0
100
AcDbBlockEnd
  0
BLOCK
  5
51
330
1A
100
AcDbEntity
 67
     1
  8
0
100
AcDbBlockBegin
  2
*Paper_Space
 70
     0
 10
0.0
 20
0.0
 30
0.0
  3
*Paper_Space
  1

  4

  0
ENDBLK
  5
52
330
1A
100
AcDbEntity
 67
     1
  8
0
100
AcDbBlockEnd
  0
BLOCK
  5
2F1
330
30
100
AcDbEntity
  8
0
100
AcDbBlockBegin
  2
BOTMTABS
 70
     0
 10
0.0
 20
0.0
 30
0.0
  3
BOTMTABS
  1

  4

  0
LINE
  5
2F2
330
30
100
AcDbEntity
  8
HIDDEN
100
AcDbLine
 10
-1.611749892439889
 20
1.051776695296637
 30
0.0
 11
-1.562252417756831
 21
1.002279220613578
 31
0.0
  0
LINE
  5
2F3
330
30
100
AcDbEntity
  8
HIDDEN
100
AcDbLine
 10
-1.768024062419585
 20
0.7965075759508249
 30
0.0
 11
-1.562252417756831
 21
1.002279220613578
 31
0.0
  0
LINE
  5
2F4
330
30
100
AcDbEntity
  8
HIDDEN
100
AcDbLine
 10
-1.817521537102643
 20
0.8460050506338854
 30
0.0
 11
-1.611749892439889
 21
1.051776695296637
 31
0.0
  0
ARC
  5
2F5
330
30
100
AcDbEntity
  8
HIDDEN
100
AcDbCircle
 10
-1.718526587736527
 20
0.7470101012677661
 30
0.0
 40
0.07
100
AcDbArc
 50
134.9999999999997
 51
179.9999999999999
  0
ARC
  5
2F6
330
30
100
AcDbEntity
  8
HIDDEN
100
AcDbCircle
 10
-1.718526587736527
 20
0.7470101012677679
 30
0.0
 40
0.14
100
AcDbArc
 50
134.9999999999997
 51
179.9999999999999
  0
LINE
  5
2F7
330
30
100
AcDbEntity
  8
HIDDEN
100
AcDbLine
 10
1.817521537102646
 20
0.8460050506338854
 30
0.0
 11
1.611749892439892
 21
1.051776695296637
 31
0.0
  0
LINE
  5
2F8
330
30
100
AcDbEntity
  8
HIDDEN
100
AcDbLine
 10
1.611749892439892
 20
1.051776695296637
 30
0.0
 11
1.562252417756834
 21
1.002279220613578
 31
0.0
  0
LINE
  5
2F9
330
30
100
AcDbEntity
  8
HIDDEN
100
AcDbLine
 10
1.768024062419588
 20
0.7965075759508249
 30
0.0
 11
1.562252417756834
 21
1.002279220613578
 31
0.0
  0
ARC
  5
2FA
330
30
100
AcDbEntity
  8
HIDDEN
100
AcDbCircle
 10
1.71852658773653
 20
0.7470101012677661
 30
0.0
 40
0.07
100
AcDbArc
 50
0.0000000000001018
 51
45.0000000000003
  0
ARC
  5
2FB
330
30
100
AcDbEntity
  8
HIDDEN
100
AcDbCircle
 10
1.71852658773653
 20
0.7470101012677679
 30
0.0
 40
0.14
100
AcDbArc
 50
0.0000000000001018
 51
45.0000000000003
  0
ARC
  5
2FC
330
30
100
AcDbEntity
  8
HIDDEN
100
AcDbCircle
 10
1.71852658773653
 20
-0.7470101012677679
 30
0.0
 40
0.14
100
AcDbArc
 50
314.9999999999997
 51
359.9999999999999
  0
LINE
  5
2FD
330
30
100
AcDbEntity
  8
HIDDEN
100
AcDbLine
 10
1.817521537102646
 20
-0.8460050506338854
 30
0.0
 11
1.611749892439892
 21
-1.051776695296637
 31
0.0
  0
ARC
  5
2FE
330
30
100
AcDbEntity
  8
HIDDEN
100
AcDbCircle
 10
1.71852658773653
 20
-0.7470101012677661
 30
0.0
 40
0.07
100
AcDbArc
 50
314.9999999999997
 51
359.9999999999999
  0
LINE
  5
2FF
330
30
100
AcDbEntity
  8
HIDDEN
100
AcDbLine
 10
1.768024062419588
 20
-0.7965075759508249
 30
0.0
 11
1.562252417756834
 21
-1.002279220613578
 31
0.0
  0
LINE
  5
300
330
30
100
AcDbEntity
  8
HIDDEN
100
AcDbLine
 10
1.611749892439892
 20
-1.051776695296637
 30
0.0
 11
1.562252417756834
 21
-1.002279220613578
 31
0.0
  0
ARC
  5
301
330
30
100
AcDbEntity
  8
HIDDEN
100
AcDbCircle
 10
-1.718526587736527
 20
-0.7470101012677661
 30
0.0
 40
0.07
100
AcDbArc
 50
180.0000000000001
 51
225.0000000000003
  0
LINE
  5
302
330
30
100
AcDbEntity
  8
HIDDEN
100
AcDbLine
 10
-1.768024062419585
 20
-0.7965075759508249
 30
0.0
 11
-1.562252417756831
 21
-1.002279220613578
 31
0.0
  0
ARC
  5
303
330
30
100
AcDbEntity
  8
HIDDEN
100
AcDbCircle
 10
-1.718526587736527
 20
-0.7470101012677679
 30
0.0
 40
0.14
100
AcDbArc
 50
180.0000000000001
 51
225.0000000000003
  0
LINE
  5
304
330
30
100
AcDbEntity
  8
HIDDEN
100
AcDbLine
 10
-1.817521537102643
 20
-0.8460050506338854
 30
0.0
 11
-1.611749892439889
 21
-1.051776695296637
 31
0.0
  0
LINE
  5
305
330
30
100
AcDbEntity
  8
HIDDEN
100
AcDbLine
 10
-1.611749892439889
 20
-1.051776695296637
 30
0.0
 11
-1.562252417756831
 21
-1.002279220613578
 31
0.0
  0
ENDBLK
  5
306
330
30
100
AcDbEntity
  8
0
100
AcDbBlockEnd
  0
ENDSEC
  0
SECTION
  2
ENTITIES
  0
LINE
  5
361
330
1E
100
AcDbEntity
  8
0
100
AcDbLine
 10
-1.927515794281504
 20
2.65849239423893
 30
0.0
 11
-1.927515794281504
 21
3.8978439128106
 31
0.0
  0
LINE
  5
362
330
1E
100
AcDbEntity
  8
0
100
AcDbLine
 10
1.92751579428149
 20
2.658492394238932
 30
0.0
 11
1.92751579428149
 21
3.8978439128106
 31
0.0
  0
LINE
  5
363
330
1E
100
AcDbEntity
  8
0
100
AcDbLine
 10
-1.787515794281504
 20
2.240518574030906
 30
0.0
 11
-1.787515794281504
 21
3.675992394238936
 31
0.0
  0
LINE
  5
364
330
1E
100
AcDbEntity
  8
0
100
AcDbLine
 10
-1.857515794281504
 20
2.248838310352699
 30
0.0
 11
-1.8575157942815
 21
3.882220576487033
 31
0.0
  0
LINE
  5
365
330
1E
100
AcDbEntity
  8
0
100
AcDbLine
 10
1.787515794281497
 20
2.240518574030913
 30
0.0
 11
1.787515794281497
 21
3.675992394238939
 31
0.0
  0
LINE
  5
366
330
1E
100
AcDbEntity
  8
0
100
AcDbLine
 10
1.857515794281497
 20
2.248838310352708
 30
0.0
 11
1.857515794281497
 21
3.882220576487033
 31
0.0
  0
ARC
  5
367
330
1E
100
AcDbEntity
  8
0
100
AcDbCircle
 10
1.607458554020269
 20
2.019908770462083
 30
0.0
 40
0.125
100
AcDbArc
 50
255.6015495990204
 51
329.0000000000003
  0
LINE
  5
368
330
1E
100
AcDbEntity
  8
0
100
AcDbLine
 10
1.651175308782378
 20
1.985877446995033
 30
0.0
 11
1.773232524351709
 21
2.189014766539907
 31
0.0
  0
LINE
  5
369
330
1E
100
AcDbEntity
  8
0
100
AcDbLine
 10
0.703314077396886
 20
0.2724591656359454
 30
0.0
 11
1.714604466608037
 21
1.955529011098326
 31
0.0
  0
ARC
  5
36A
330
1E
100
AcDbEntity
  8
0
100
AcDbCircle
 10
1.687515794281495
 20
2.240518574030913
 30
0.0
 40
0.1
100
AcDbArc
 50
329.0000000000002
 51
0.0
  0
ARC
  5
36B
330
1E
100
AcDbEntity
  8
0
100
AcDbCircle
 10
1.657515794281498
 20
2.248838310352708
 30
0.0
 40
0.2
100
AcDbArc
 50
329.0000000000002
 51
0.0
  0
LINE
  5
36C
330
1E
100
AcDbEntity
  8
0
100
AcDbLine
 10
1.714604466608037
 20
1.955529011098326
 30
0.0
 11
1.828949254421922
 21
2.145830695370698
 31
0.0
  0
ARC
  5
36D
330
1E
100
AcDbEntity
  8
0
100
AcDbCircle
 10
1.85751579428149
 20
2.658492394238932
 30
0.0
 40
0.07
100
AcDbArc
 50
270.0
 51
0.0
  0
LINE
  5
36E
330
1E
100
AcDbEntity
  8
0
100
AcDbLine
 10
-1.230803407669967
 20
1.757100093421473
 30
0.0
 11
-0.6513855733961513
 21
0.7927868801315992
 31
0.0
  0
LINE
  5
36F
330
1E
100
AcDbEntity
  8
0
100
AcDbLine
 10
-1.187945042634858
 20
1.782851997166974
 30
0.0
 11
-0.6085272083610462
 21
0.8185387838771003
 31
0.0
  0
LINE
  5
370
330
1E
100
AcDbEntity
  8
HIDDEN
100
AcDbLine
 10
-0.6976545966074355
 20
0.3989524897260193
 30
0.0
 11
-1.596789875035183
 21
1.895364885470835
 31
0.0
  0
LINE
  5
371
330
1E
100
AcDbEntity
  8
0
100
AcDbLine
 10
-0.7033140773968967
 20
0.2724591656359454
 30
0.0
 11
-1.714604466608044
 21
1.955529011098324
 31
0.0
  0
ARC
  5
372
330
1E
100
AcDbEntity
  8
0
100
AcDbCircle
 10
1.498668189139373
 20
1.596150695012078
 30
0.0
 40
0.3125
100
AcDbArc
 50
75.60154959901958
 51
148.9999999999992
  0
LINE
  5
373
330
1E
100
AcDbEntity
  8
HIDDEN
100
AcDbLine
 10
0.6976545966074284
 20
0.398952489726021
 30
0.0
 11
1.600260525299198
 21
1.901141017495661
 31
0.0
  0
LINE
  5
374
330
1E
100
AcDbEntity
  8
0
100
AcDbLine
 10
1.187945042634851
 20
1.782851997166974
 30
0.0
 11
0.6085272083610391
 21
0.8185387838771021
 31
0.0
  0
LINE
  5
375
330
1E
100
AcDbEntity
  8
0
100
AcDbLine
 10
0.4434227221812215
 20
0.0700000000000003
 30
0.0
 11
-0.443422722181225
 21
0.0699999999999985
 31
0.0
  0
LINE
  5
376
330
1E
100
AcDbEntity
  8
0
100
AcDbLine
 10
0.4264495388355911
 20
0.0000000000000018
 30
0.0
 11
-0.4264495388355911
 21
0.0
 31
0.0
  0
LINE
  5
377
330
1E
100
AcDbEntity
  8
0
100
AcDbLine
 10
1.23080340766996
 20
1.757100093421473
 30
0.0
 11
0.6513855733961442
 21
0.7927868801316009
 31
0.0
  0
ARC
  5
378
330
1E
100
AcDbEntity
  8
0
100
AcDbCircle
 10
0.5395939005365378
 20
0.3785958195904939
 30
0.0
 40
0.125
100
AcDbArc
 50
329.0000000000003
 51
38.80229631012679
  0
ARC
  5
379
330
1E
100
AcDbEntity
  8
0
100
AcDbCircle
 10
0.5961681648091251
 20
0.3368389249997037
 30
0.0
 40
0.125
100
AcDbArc
 50
328.9999999999995
 51
42.39845040098226
  0
LINE
  5
37A
330
1E
100
AcDbEntity
  8
0
100
AcDbLine
 10
0.5978829989760115
 20
0.0969923850179892
 30
0.0
 11
0.703314077396886
 21
0.2724591656359454
 31
0.0
  0
LINE
  5
37B
330
1E
100
AcDbEntity
  8
0
100
AcDbLine
 10
0.5291394522514317
 20
0.1184961925089976
 30
0.0
 11
0.6467398131243058
 21
0.3142160602267374
 31
0.0
  0
ARC
  5
37C
330
1E
100
AcDbEntity
  8
0
100
AcDbCircle
 10
0.4434227221812215
 20
0.1700000000000035
 30
0.0
 40
0.1
100
AcDbArc
 50
270.0000000000002
 51
329.0000000000004
  0
ARC
  5
37D
330
1E
100
AcDbEntity
  8
0
100
AcDbCircle
 10
0.4264495388355911
 20
0.2000000000000011
 30
0.0
 40
0.2
100
AcDbArc
 50
270.0000000000002
 51
328.9999999999999
  0
ARC
  5
37E
330
1E
100
AcDbEntity
  8
0
100
AcDbCircle
 10
0.9192503548655537
 20
0.6318374817222097
 30
0.0
 40
0.3125
100
AcDbArc
 50
148.9999999999998
 51
222.3984504009812
  0
ARC
  5
37F
330
1E
100
AcDbEntity
  8
0
100
AcDbCircle
 10
0.8878307954700233
 20
0.6586084513660691
 30
0.0
 40
0.3218512156712223
100
AcDbArc
 50
150.2043779463934
 51
218.8022963101265
  0
ARC
  5
380
330
1E
100
AcDbEntity
  8
0
100
AcDbCircle
 10
-0.5395939005365449
 20
0.3785958195904939
 30
0.0
 40
0.125
100
AcDbArc
 50
141.1977036898732
 51
210.9999999999997
  0
ARC
  5
381
330
1E
100
AcDbEntity
  8
0
100
AcDbCircle
 10
-0.5961681648091322
 20
0.3368389249997019
 30
0.0
 40
0.125
100
AcDbArc
 50
137.6015495990177
 51
211.0000000000005
  0
LINE
  5
382
330
1E
100
AcDbEntity
  8
0
100
AcDbLine
 10
-0.5978829989760151
 20
0.0969923850179875
 30
0.0
 11
-0.7033140773968967
 21
0.2724591656359454
 31
0.0
  0
ARC
  5
383
330
1E
100
AcDbEntity
  8
0
100
AcDbCircle
 10
-0.443422722181225
 20
0.1699999999999982
 30
0.0
 40
0.1
100
AcDbArc
 50
210.9999999999996
 51
270.0000000000002
  0
ARC
  5
384
330
1E
100
AcDbEntity
  8
0
100
AcDbCircle
 10
-0.4264495388355911
 20
0.1999999999999993
 30
0.0
 40
0.2
100
AcDbArc
 50
211.0000000000002
 51
270.0000000000002
  0
LINE
  5
385
330
1E
100
AcDbEntity
  8
0
100
AcDbLine
 10
-0.5291394522514352
 20
0.1184961925089922
 30
0.0
 11
-0.646739813124313
 21
0.3142160602267357
 31
0.0
  0
ARC
  5
386
330
1E
100
AcDbEntity
  8
0
100
AcDbCircle
 10
-0.9192503548655608
 20
0.6318374817222079
 30
0.0
 40
0.3125
100
AcDbArc
 50
317.6015495990187
 51
31.00000000000021
  0
ARC
  5
387
330
1E
100
AcDbEntity
  8
0
100
AcDbCircle
 10
-0.8878307954700304
 20
0.6586084513660673
 30
0.0
 40
0.3218512156712223
100
AcDbArc
 50
321.1977036898735
 51
29.79562205360656
  0
ARC
  5
388
330
1E
100
AcDbEntity
  8
0
100
AcDbCircle
 10
1.460280236282365
 20
1.611324310393039
 30
0.0
 40
0.3218512156712223
100
AcDbArc
 50
79.19770368987031
 51
147.7956220536051
  0
ARC
  5
389
330
1E
100
AcDbEntity
  8
0
100
AcDbCircle
 10
1.54402939619461
 20
2.050257206358792
 30
0.0
 40
0.125
100
AcDbArc
 50
259.1977036898707
 51
329.0000000000003
  0
ARC
  5
38A
330
1E
100
AcDbEntity
  8
0
100
AcDbCircle
 10
-1.49866818913938
 20
1.596150695012078
 30
0.0
 40
0.3125
100
AcDbArc
 50
31.00000000000077
 51
104.3984504009804
  0
LINE
  5
38B
330
1E
100
AcDbEntity
  8
0
100
AcDbLine
 10
-1.714604466608044
 20
1.955529011098324
 30
0.0
 11
-1.828949254421922
 21
2.145830695370687
 31
0.0
  0
ARC
  5
38C
330
1E
100
AcDbEntity
  8
0
100
AcDbCircle
 10
-1.687515794281502
 20
2.240518574030906
 30
0.0
 40
0.1
100
AcDbArc
 50
179.9999999999999
 51
211.0000000000003
  0
ARC
  5
38D
330
1E
100
AcDbEntity
  8
0
100
AcDbCircle
 10
-1.460280236282372
 20
1.611324310393037
 30
0.0
 40
0.3218512156712223
100
AcDbArc
 50
32.20437794639493
 51
100.8022963101297
  0
LINE
  5
38E
330
1E
100
AcDbEntity
  8
0
100
AcDbLine
 10
-1.651175308782385
 20
1.985877446995033
 30
0.0
 11
-1.773232524351712
 21
2.1890147665399
 31
0.0
  0
ARC
  5
38F
330
1E
100
AcDbEntity
  8
0
100
AcDbCircle
 10
-1.607458554020276
 20
2.019908770462083
 30
0.0
 40
0.125
100
AcDbArc
 50
210.9999999999997
 51
284.3984504009796
  0
ARC
  5
390
330
1E
100
AcDbEntity
  8
0
100
AcDbCircle
 10
-1.544029396194617
 20
2.05025720635879
 30
0.0
 40
0.125
100
AcDbArc
 50
210.9999999999997
 51
280.8022963101294
  0
ARC
  5
391
330
1E
100
AcDbEntity
  8
0
100
AcDbCircle
 10
-1.657515794281501
 20
2.248838310352699
 30
0.0
 40
0.2
100
AcDbArc
 50
180.0
 51
211.0000000000004
  0
ARC
  5
392
330
1E
100
AcDbEntity
  8
0
100
AcDbCircle
 10
-1.857515794281497
 20
2.658492394238932
 30
0.0
 40
0.07
100
AcDbArc
 50
180.0
 51
270.0
  0
LINE
  5
393
330
1E
100
AcDbEntity
  8
HIDDEN
100
AcDbLine
 10
1.876698765217775
 20
4.521173767111357
 30
0.0
 11
1.857515794281497
 21
4.740436128235359
 31
0.0
  0
LINE
  5
394
330
1E
100
AcDbEntity
  8
0
100
AcDbLine
 10
1.949648738215604
 20
4.490511687458
 30
0.0
 11
1.927515794281497
 21
4.743492394238928
 31
0.0
  0
ARC
  5
395
330
1E
100
AcDbEntity
  8
0
100
AcDbCircle
 10
1.857515794281493
 20
7.080992394238933
 30
0.0
 40
0.07
100
AcDbArc
 50
0.0
 51
89.99999999999997
  0
LINE
  5
396
330
1E
100
AcDbEntity
  8
0
100
AcDbLine
 10
1.857515794281497
 20
10.52599239423893
 30
0.0
 11
1.787515794281497
 21
10.52599239423893
 31
0.0
  0
LINE
  5
397
330
1E
100
AcDbEntity
  8
0
100
AcDbLine
 10
1.857515794281497
 20
10.77599239423893
 30
0.0
 11
1.787515794281497
 21
10.77599239423893
 31
0.0
  0
LINE
  5
398
330
1E
100
AcDbEntity
  8
0
100
AcDbLine
 10
1.662515794281497
 20
3.675992394238936
 30
0.0
 11
1.662515794281497
 21
3.840860758864416
 31
0.0
  0
LINE
  5
399
330
1E
100
AcDbEntity
  8
0
100
AcDbLine
 10
-1.662515794281504
 20
3.675992394238936
 30
0.0
 11
-1.662515794281504
 21
3.840860758864416
 31
0.0
  0
ARC
  5
39A
330
1E
100
AcDbEntity
  8
0
100
AcDbCircle
 10
-1.857515794281497
 20
7.080992394238933
 30
0.0
 40
0.07
100
AcDbArc
 50
89.99999999999997
 51
180.0
  0
LINE
  5
39B
330
1E
100
AcDbEntity
  8
0
100
AcDbLine
 10
-1.787515794281497
 20
10.52599239423893
 30
0.0
 11
-1.857515794281497
 21
10.52599239423893
 31
0.0
  0
LINE
  5
39C
330
1E
100
AcDbEntity
  8
0
100
AcDbLine
 10
-1.787515794281497
 20
10.77599239423893
 30
0.0
 11
-1.857515794281497
 21
10.77599239423893
 31
0.0
  0
LINE
  5
3C3
330
1E
100
AcDbEntity
  8
HIDDEN
100
AcDbLine
 10
1.8575157942815
 20
4.425992394238932
 30
0.0
 11
1.662515794281493
 21
4.425992394238932
 31
0.0
  0
LINE
  5
3C4
330
1E
100
AcDbEntity
  8
0
100
AcDbLine
 10
1.8575157942815
 20
3.675992394238939
 30
0.0
 11
1.662515794281493
 21
3.675992394238936
 31
0.0
  0
LINE
  5
3C5
330
1E
100
AcDbEntity
  8
HIDDEN
100
AcDbLine
 10
-1.857515794281502
 20
4.425992394238932
 30
0.0
 11
-1.6625157942815
 21
4.425992394238932
 31
0.0
  0
LINE
  5
3C6
330
1E
100
AcDbEntity
  8
0
100
AcDbLine
 10
-1.8575157942815
 20
3.675992394238939
 30
0.0
 11
-1.662515794281497
 21
3.675992394238936
 31
0.0
  0
LINE
  5
48A
330
1E
100
AcDbEntity
  8
0
100
AcDbLine
 10
-1.787515794281502
 20
5.295898759139465
 30
0.0
 11
-1.787515794281502
 21
5.340898759139463
 31
0.0
  0
LINE
  5
48B
330
1E
100
AcDbEntity
  8
0
100
AcDbLine
 10
1.787515794281497
 20
5.295898759139465
 30
0.0
 11
1.787515794281497
 21
5.340898759139463
 31
0.0
  0
LINE
  5
491
330
1E
100
AcDbEntity
  8
HIDDEN
100
AcDbLine
 10
-1.838000000000008
 20
4.425992394238932
 30
0.0
 11
1.838000000000001
 21
4.425992394238932
 31
0.0
  0
LINE
  5
492
330
1E
100
AcDbEntity
  8
0
100
AcDbLine
 10
-1.333446609406739
 20
3.524992394238932
 30
0.0
 11
1.333446609406732
 21
3.524992394238936
 31
0.0
  0
LINE
  5
493
330
1E
100
AcDbEntity
  8
0
100
AcDbLine
 10
-1.838000000000008
 20
4.524992394238932
 30
0.0
 11
1.838000000000001
 21
4.524992394238932
 31
0.0
  0
LINE
  5
494
330
1E
100
AcDbEntity
  8
0
100
AcDbLine
 10
-1.645946609406733
 20
3.837492394238932
 30
0.0
 11
-1.333446609406739
 21
3.524992394238936
 31
0.0
  0
ARC
  5
495
330
1E
100
AcDbEntity
  8
HIDDEN
100
AcDbCircle
 10
-1.838000000000008
 20
4.326992394238932
 30
0.0
 40
0.099
100
AcDbArc
 50
90.0
 51
180.0
  0
ARC
  5
496
330
1E
100
AcDbEntity
  8
0
100
AcDbCircle
 10
-1.838000000000008
 20
4.326992394238932
 30
0.0
 40
0.198
100
AcDbArc
 50
90.0
 51
180.0
  0
ARC
  5
497
330
1E
100
AcDbEntity
  8
0
100
AcDbCircle
 10
0.8959967059941363
 20
16.38389853393825
 30
0.0
 40
12.8013195742078
100
AcDbArc
 50
257.2143034065146
 51
258.5467182137048
  0
LINE
  5
498
330
1E
100
AcDbEntity
  8
0
100
AcDbLine
 10
-1.937000000000008
 20
3.899992394238936
 30
0.0
 11
-1.937000000000008
 21
3.524992394238936
 31
0.0
  0
LINE
  5
499
330
1E
100
AcDbEntity
  8
0
100
AcDbLine
 10
-2.036000000000009
 20
4.326992394238932
 30
0.0
 11
-2.036000000000009
 21
3.524992394238936
 31
0.0
  0
LINE
  5
49A
330
1E
100
AcDbEntity
  8
0
100
AcDbLine
 10
-1.937000000000008
 20
3.524992394238936
 30
0.0
 11
-2.036000000000009
 21
3.524992394238936
 31
0.0
  0
LINE
  5
49B
330
1E
100
AcDbEntity
  8
0
100
AcDbLine
 10
-1.937000000000008
 20
3.899992394238936
 30
0.0
 11
-2.036000000000009
 21
3.899992394238936
 31
0.0
  0
LINE
  5
49C
330
1E
100
AcDbEntity
  8
HIDDEN
100
AcDbLine
 10
-1.937000000000008
 20
4.326992394238932
 30
0.0
 11
-1.937000000000008
 21
3.899992394238936
 31
0.0
  0
LINE
  5
49D
330
1E
100
AcDbEntity
  8
0
100
AcDbLine
 10
1.645946609406728
 20
3.837492394238936
 30
0.0
 11
1.333446609406732
 21
3.524992394238936
 31
0.0
  0
LINE
  5
49E
330
1E
100
AcDbEntity
  8
0
100
AcDbLine
 10
1.937000000000001
 20
3.899992394238936
 30
0.0
 11
1.937000000000001
 21
3.524992394238936
 31
0.0
  0
LINE
  5
49F
330
1E
100
AcDbEntity
  8
0
100
AcDbLine
 10
2.036000000000001
 20
4.326992394238932
 30
0.0
 11
2.036000000000001
 21
3.524992394238936
 31
0.0
  0
ARC
  5
4A0
330
1E
100
AcDbEntity
  8
0
100
AcDbCircle
 10
-0.8959967059941327
 20
16.38389853393834
 30
0.0
 40
12.80131957420789
100
AcDbArc
 50
281.453281786295
 51
282.7856965934853
  0
LINE
  5
4A1
330
1E
100
AcDbEntity
  8
0
100
AcDbLine
 10
1.937000000000001
 20
3.524992394238936
 30
0.0
 11
2.036000000000001
 21
3.524992394238936
 31
0.0
  0
LINE
  5
4A2
330
1E
100
AcDbEntity
  8
0
100
AcDbLine
 10
1.937000000000001
 20
3.899992394238936
 30
0.0
 11
2.036000000000001
 21
3.899992394238936
 31
0.0
  0
ARC
  5
4A3
330
1E
100
AcDbEntity
  8
HIDDEN
100
AcDbCircle
 10
1.838000000000001
 20
4.326992394238932
 30
0.0
 40
0.099
100
AcDbArc
 50
0.0
 51
90.0
  0
ARC
  5
4A4
330
1E
100
AcDbEntity
  8
0
100
AcDbCircle
 10
1.838000000000001
 20
4.326992394238932
 30
0.0
 40
0.198
100
AcDbArc
 50
0.0
 51
90.0
  0
LINE
  5
4A5
330
1E
100
AcDbEntity
  8
HIDDEN
100
AcDbLine
 10
1.937000000000001
 20
4.326992394238932
 30
0.0
 11
1.937000000000001
 21
3.899992394238936
 31
0.0
  0
LINE
  5
4A6
330
1E
100
AcDbEntity
  8
HIDDEN
100
AcDbLine
 10
-1.662515794281504
 20
3.840860758864416
 30
0.0
 11
-1.662515794281504
 21
4.425992394238932
 31
0.0
  0
LINE
  5
4A7
330
1E
100
AcDbEntity
  8
0
100
AcDbLine
 10
-1.7875157942815
 20
4.524992394238932
 30
0.0
 11
-1.787515794281497
 21
10.77599239423893
 31
0.0
  0
LINE
  5
4A8
330
1E
100
AcDbEntity
  8
0
100
AcDbLine
 10
1.787515794281497
 20
4.524992394238932
 30
0.0
 11
1.787515794281497
 21
10.77599239423893
 31
0.0
  0
LINE
  5
4A9
330
1E
100
AcDbEntity
  8
HIDDEN
100
AcDbLine
 10
1.662515794281497
 20
3.840860758864416
 30
0.0
 11
1.662515794281497
 21
4.425992394238932
 31
0.0
  0
LINE
  5
4AA
330
1E
100
AcDbEntity
  8
0
100
AcDbLine
 10
-1.857515794281502
 20
4.524028263495172
 30
0.0
 11
-1.857515794281497
 21
10.77599239423893
 31
0.0
  0
LINE
  5
4AB
330
1E
100
AcDbEntity
  8
0
100
AcDbLine
 10
-1.949648738215611
 20
4.490511687458
 30
0.0
 11
-1.927515794281504
 21
4.743492394238928
 31
0.0
  0
LINE
  5
4AC
330
1E
100
AcDbEntity
  8
0
100
AcDbLine
 10
-1.927515794281504
 20
4.503601914294201
 30
0.0
 11
-1.927515794281504
 21
7.080992394238933
 31
0.0
  0
LINE
  5
4AD
330
1E
100
AcDbEntity
  8
HIDDEN
100
AcDbLine
 10
-1.927515794281504
 20
3.8978439128106
 30
0.0
 11
-1.927515794281504
 21
4.369276227723525
 31
0.0
  0
LINE
  5
4AE
330
1E
100
AcDbEntity
  8
HIDDEN
100
AcDbLine
 10
-1.876698765217782
 20
4.521173767111357
 30
0.0
 11
-1.857515794281504
 21
4.740436128235359
 31
0.0
  0
LINE
  5
4AF
330
1E
100
AcDbEntity
  8
0
100
AcDbLine
 10
1.92751579428149
 20
4.503601914294205
 30
0.0
 11
1.927515794281494
 21
7.080992394238933
 31
0.0
  0
LINE
  5
4B0
330
1E
100
AcDbEntity
  8
HIDDEN
100
AcDbLine
 10
1.92751579428149
 20
3.8978439128106
 30
0.0
 11
1.92751579428149
 21
4.369276227723539
 31
0.0
  0
LINE
  5
4DE
330
1E
100
AcDbEntity
  8
HIDDEN
100
AcDbLine
 10
-1.8575157942815
 20
3.882220576487033
 30
0.0
 11
-1.8575157942815
 21
4.425992394238936
 31
0.0
  0
LINE
  5
4DF
330
1E
100
AcDbEntity
  8
0
100
AcDbLine
 10
1.857515794281497
 20
4.524028263495172
 30
0.0
 11
1.857515794281497
 21
10.77599239423893
 31
0.0
  0
LINE
  5
4E0
330
1E
100
AcDbEntity
  8
HIDDEN
100
AcDbLine
 10
1.857515794281497
 20
3.882220576487033
 30
0.0
 11
1.857515794281497
 21
4.425992394238932
 31
0.0
  0
ARC
  5
506
330
1E
100
AcDbEntity
  8
0
100
AcDbCircle
 10
0.5318748794936887
 20
0.0730388268201825
 30
0.0
 40
0.085
100
AcDbArc
 50
27.63380319065385
 51
76.63928912476163
  0
ARC
  5
507
330
1E
100
AcDbEntity
  8
0
100
AcDbCircle
 10
0.5318748794936887
 20
0.0730388268201825
 30
0.0
 40
0.085
100
AcDbArc
 50
182.007385183883
 51
231.0974428663103
  0
ARC
  5
508
330
1E
100
AcDbEntity
  8
0
100
AcDbCircle
 10
-0.5318748794936958
 20
0.0730388268201292
 30
0.0
 40
0.085
100
AcDbArc
 50
308.9025571336955
 51
357.9926148161229
  0
ARC
  5
509
330
1E
100
AcDbEntity
  8
0
100
AcDbCircle
 10
-0.5318748794936958
 20
0.0730388268201292
 30
0.0
 40
0.085
100
AcDbArc
 50
103.3607108752442
 51
152.366196809352
  0
ENDSEC
  0
SECTION
  2
OBJECTS
  0
DICTIONARY
  5
C
330
0
100
AcDbDictionary
281
     1
  3
ACAD_COLOR
350
6E0
  3
ACAD_GROUP
350
D
  3
ACAD_LAYOUT
350
19
  3
ACAD_MATERIAL
350
6DF
  3
ACAD_MLINESTYLE
350
16
  3
ACAD_PLOTSETTINGS
350
18
  3
ACAD_PLOTSTYLENAME
350
E
  3
ACAD_TABLESTYLE
350
6E1
  3
ACDBHEADERROUNDTRIPXREC
350
8BF
  3
AcDbVariableDictionary
350
695
  0
DICTIONARY
  5
7F7
330
2
100
AcDbDictionary
280
     1
281
     1
  3
ACAD_LAYERFILTERS
360
7F9
  3
ACLYDICTIONARY
360
7F8
  0
DICTIONARY
  5
5AD
330
1E
100
AcDbDictionary
280
     1
281
     1
  3
ACAD_SORTENTS
360
7F6
  0
DICTIONARY
  5
6E0
102
{ACAD_REACTORS
330
C
102
}
330
C
100
AcDbDictionary
281
     1
  0
DICTIONARY
  5
D
102
{ACAD_REACTORS
330
C
102
}
330
C
100
AcDbDictionary
281
     1
  0
DICTIONARY
  5
19
102
{ACAD_REACTORS
330
C
102
}
330
C
100
AcDbDictionary
281
     1
  3
Layout1
350
1D
  3
Model
350
21
  0
DICTIONARY
  5
6DF
102
{ACAD_REACTORS
330
C
102
}
330
C
100
AcDbDictionary
281
     1
  0
DICTIONARY
  5
16
102
{ACAD_REACTORS
330
C
102
}
330
C
100
AcDbDictionary
281
     1
  3
Standard
350
17
  0
DICTIONARY
  5
18
102
{ACAD_REACTORS
330
C
102
}
330
C
100
AcDbDictionary
281
     1
  0
ACDBDICTIONARYWDFLT
  5
E
102
{ACAD_REACTORS
330
C
102
}
330
C
100
AcDbDictionary
281
     1
  3
Normal
350
F
100
AcDbDictionaryWithDefault
340
F
  0
DICTIONARY
  5
6E1
102
{ACAD_REACTORS
330
C
102
}
330
C
100
AcDbDictionary
281
     1
  3
Standard
350
6E2
  0
DICTIONARY
  5
8BF
102
{ACAD_REACTORS
330
C
102
}
330
C
100
AcDbDictionary
281
     1
  3
COLORDICT
350
8C0
  3
MATERIALDICT
350
8C1
  0
DICTIONARY
  5
695
102
{ACAD_REACTORS
330
C
102
}
330
C
100
AcDbDictionary
281
     1
  3
CTABLESTYLE
350
7E1
  0
DICTIONARY
  5
7F9
102
{ACAD_REACTORS
330
7F7
102
}
330
7F7
100
AcDbDictionary
281
     1
  0
DICTIONARY
  5
7F8
102
{ACAD_REACTORS
330
7F7
102
}
330
7F7
100
AcDbDictionary
281
     1
1001
ACAD
1000
<All
  0
SORTENTSTABLE
  5
7F6
102
{ACAD_REACTORS
330
5AD
102
}
330
5AD
100
AcDbSortentsTable
330
1E
331
0
  5
770
331
3C4
  5
45D
331
398
  5
398
331
393
  5
393
331
381
  5
381
331
380
  5
380
331
49C
  5
4D8
331
4A8
  5
4FB
331
362
  5
362
331
385
  5
385
331
38D
  5
38D
331
37E
  5
37E
331
506
  5
78B
331
36B
  5
36B
331
49A
  5
4D6
331
36E
  5
36E
331
387
  5
387
331
497
  5
4D3
331
4A0
  5
4DC
331
4E0
  5
761
331
375
  5
375
331
4A6
  5
4F9
331
397
  5
397
331
4A3
  5
4DF
331
508
  5
78D
331
4DE
  5
75F
331
492
  5
4CE
331
48A
  5
4CB
331
38C
  5
38C
331
38B
  5
38B
331
4A2
  5
4DE
331
383
  5
383
331
4A1
  5
4DD
331
372
  5
372
331
394
  5
394
331
49D
  5
4D9
331
39C
  5
39C
331
493
  5
4CF
331
3C3
  5
45C
331
378
  5
378
331
499
  5
4D5
331
37F
  5
37F
331
4AC
  5
4FF
331
391
  5
391
331
36C
  5
36C
331
36A
  5
36A
331
38F
  5
38F
331
363
  5
363
331
374
  5
374
331
49B
  5
4D7
331
365
  5
365
331
4A9
  5
4FC
331
495
  5
4D1
331
49E
  5
4DA
331
4AB
  5
4FE
331
4A7
  5
4FA
331
496
  5
4D2
331
37C
  5
37C
331
4AF
  5
503
331
361
  5
361
331
4B0
  5
504
331
494
  5
4D0
331
4AD
  5
501
331
389
  5
389
331
507
  5
78C
331
384
  5
384
331
491
  5
4CD
331
390
  5
390
331
39A
  5
39A
331
36D
  5
36D
331
509
  5
78E
331
4AE
  5
502
331
39B
  5
39B
331
3C6
  5
45F
331
376
  5
376
331
377
  5
377
331
369
  5
369
331
368
  5
368
331
367
  5
367
331
366
  5
366
331
4DF
  5
760
331
364
  5
364
331
37B
  5
37B
331
4A5
  5
4F8
331
370
  5
370
331
36F
  5
36F
331
395
  5
395
331
396
  5
396
331
38E
  5
38E
331
49F
  5
4DB
331
37D
  5
37D
331
399
  5
399
331
386
  5
386
331
392
  5
392
331
498
  5
4D4
331
3C5
  5
45E
331
382
  5
382
331
379
  5
379
331
388
  5
388
331
37A
  5
37A
331
48B
  5
4CC
331
4AA
  5
4FD
331
4A4
  5
4E0
331
38A
  5
38A
331
373
  5
373
331
371
  5
371
  0
LAYOUT
  5
1D
102
{ACAD_REACTORS
330
19
102
}
102
{ACAD_XDICTIONARY
360
8C2
102
}
330
19
100
AcDbPlotSettings
  1

  2
HP LaserJet 2100 Series PS
  4

  6

 40
0.0
 41
0.0
 42
0.0
 43
0.0
 44
0.0
 45
0.0
 46
0.0
 47
0.0
 48
0.0
 49
0.0
140
0.0
141
0.0
142
1.0
143
1.0
 70
   688
 72
     0
 73
     0
 74
     5
  7

 75
    16
147
1.0
148
0.0
149
0.0
100
AcDbLayout
  1
Layout1
 70
     0
 71
     1
 10
0.0
 20
0.0
 11
12.0
 21
9.0
 12
0.0
 22
0.0
 32
0.0
 14
1.000000000000000E+20
 24
1.000000000000000E+20
 34
1.000000000000000E+20
 15
-1.000000000000000E+20
 25
-1.000000000000000E+20
 35
-1.000000000000000E+20
146
0.0
 13
0.0
 23
0.0
 33
0.0
 16
1.0
 26
0.0
 36
0.0
 17
0.0
 27
1.0
 37
0.0
 76
     0
330
1A
  0
LAYOUT
  5
21
102
{ACAD_REACTORS
330
19
102
}
102
{ACAD_XDICTIONARY
360
8C4
102
}
330
19
100
AcDbPlotSettings
  1

  2
HP LaserJet 2100 Series PS
  4
Letter
  6

 40
5.365749835968018
 41
5.408084392547607
 42
5.4080810546875
 43
5.365753173828125
 44
215.8999938964844
 45
279.3999938964844
 46
0.0
 47
0.0
 48
0.0
 49
0.0
140
0.0
141
0.0
142
1.0
143
2.482074006153913
 70
 28336
 72
     0
 73
     0
 74
     2
  7

 75
     0
147
0.4028888733859896
148
0.0
149
0.0
100
AcDbLayout
  1
Model
 70
     1
 71
     0
 10
0.0
 20
0.0
 11
12.0
 21
9.0
 12
0.0
 22
0.0
 32
0.0
 14
0.0
 24
0.0
 34
0.0
 15
0.0
 25
0.0
 35
0.0
146
0.0
 13
0.0
 23
0.0
 33
0.0
 16
1.0
 26
0.0
 36
0.0
 17
0.0
 27
1.0
 37
0.0
 76
     0
330
1E
  0
MLINESTYLE
  5
17
102
{ACAD_REACTORS
330
16
102
}
330
16
100
AcDbMlineStyle
  2
STANDARD
 70
     0
  3

 62
   256
 51
90.0
 52
90.0
 71
     2
 49
0.5
 62
   256
  6
BYLAYER
 49
-0.5
 62
   256
  6
BYLAYER
  0
ACDBPLACEHOLDER
  5
F
102
{ACAD_REACTORS
330
E
102
}
330
E
  0
ACAD_PROXY_OBJECT
  5
6E2
102
{ACAD_REACTORS
330
6E1
102
}
330
6E1
100
AcDbProxyObject
 90
      499
 91
      512
 95
   983063
 70
     0
 93
     1841
310
4214DD185B99185C9928B81E85EB51B8AE3F2E07A17AD46E2B8FC02B5E8DC0F42B1CFD028000000C1008070000C3001FDFF8000000C1003FBFF000000182007F7FE00000030400FEFFC00000060801FDFF8000000C1003FBFF00000018200000000000000681FA0B0000001820100E000186003FBFF000000182007F7FE000
310
00030400FEFFC00000060801FDFF8000000C1003FBFF000000182007F7FE000000304000AD7A3703D0AC73F4160000003040201C00030C007F7FE00000030400FEFFC00000060801FDFF8000000C1003FBFF000000182007F7FE00000030400FEFFC000000608000
340
11
340
11
340
11
 94
        0
  0
XRECORD
  5
8C0
102
{ACAD_REACTORS
330
8BF
102
}
330
8BF
100
AcDbXrecord
340
6E0
  0
XRECORD
  5
8C1
102
{ACAD_REACTORS
330
8BF
102
}
330
8BF
100
AcDbXrecord
340
6DF
  0
DICTIONARYVAR
  5
7E1
102
{ACAD_REACTORS
330
695
102
}
330
695
100
DictionaryVariables
280
     0
  1
STANDARD
  0
DICTIONARY
  5
8C2
330
1D
100
AcDbDictionary
280
     1
281
     1
  3
ACAD_XREC_ROUNDTRIP
360
8C3
  0
DICTIONARY
  5
8C4
330
21
100
AcDbDictionary
280
     1
281
     1
  3
ACAD_XREC_ROUNDTRIP
360
8C5
  0
XRECORD
  5
8C3
102
{ACAD_REACTORS
330
8C2
102
}
330
8C2
100
AcDbXrecord
102
SHADEPLOT
 70
     0
102
SHADEPLOTRESLEVEL
 70
     2
102
SHADEPLOTCUSTOMDPI
 70
   300
  0
XRECORD
  5
8C5
102
{ACAD_REACTORS
330
8C4
102
}
330
8C4
100
AcDbXrecord
102
SHADEPLOT
 70
     0
102
SHADEPLOTRESLEVEL
 70
     2
102
SHADEPLOTCUSTOMDPI
 70
   300
  0
ENDSEC
  0
EOF
