  0
SECTION
  2
HEADER
  9
$ACADVER
  1
AC1015
  9
$ACADMAINTVER
 70
     6
  9
$DWGCODEPAGE
  3
ANSI_1252
  9
$INSBASE
 10
0.0
 20
0.0
 30
0.0
  9
$EXTMIN
 10
-8.522792759448246
 20
-6.666426551210074
 30
0.0
  9
$EXTMAX
 10
8.865933499332051
 20
17.48406104015085
 30
0.0
  9
$LIMMIN
 10
0.0
 20
0.0
  9
$LIMMAX
 10
20.0
 20
26.25
  9
$ORTHOMODE
 70
     1
  9
$REGENMODE
 70
     1
  9
$FILLMODE
 70
     1
  9
$QTEXTMODE
 70
     0
  9
$MIRRTEXT
 70
     0
  9
$LTSCALE
 40
0.5
  9
$ATTMODE
 70
     1
  9
$TEXTSIZE
 40
0.225
  9
$TRACEWID
 40
0.05
  9
$TEXTSTYLE
  7
STANDARD
  9
$CLAYER
  8
0
  9
$CELTYPE
  6
ByLayer
  9
$CECOLOR
 62
   256
  9
$CELTSCALE
 40
1.0
  9
$DISPSILH
 70
     0
  9
$DIMSCALE
 40
2.5
  9
$DIMASZ
 40
0.125
  9
$DIMEXO
 40
0.062
  9
$DIMDLI
 40
0.375
  9
$DIMRND
 40
0.0
  9
$DIMDLE
 40
0.0
  9
$DIMEXE
 40
0.08
  9
$DIMTP
 40
0.0
  9
$DIMTM
 40
0.0
  9
$DIMTXT
 40
0.09
  9
$DIMCEN
 40
-0.03125
  9
$DIMTSZ
 40
0.0
  9
$DIMTOL
 70
     0
  9
$DIMLIM
 70
     0
  9
$DIMTIH
 70
     1
  9
$DIMTOH
 70
     1
  9
$DIMSE1
 70
     0
  9
$DIMSE2
 70
     0
  9
$DIMTAD
 70
     0
  9
$DIMZIN
 70
     0
  9
$DIMBLK
  1

  9
$DIMASO
 70
     0
  9
$DIMSHO
 70
     0
  9
$DIMPOST
  1

  9
$DIMAPOST
  1

  9
$DIMALT
 70
     0
  9
$DIMALTD
 70
     2
  9
$DIMALTF
 40
25.4
  9
$DIMLFAC
 40
1.0
  9
$DIMTOFL
 70
     0
  9
$DIMTVP
 40
0.0
  9
$DIMTIX
 70
     0
  9
$DIMSOXD
 70
     0
  9
$DIMSAH
 70
     0
  9
$DIMBLK1
  1

  9
$DIMBLK2
  1

  9
$DIMSTYLE
  2
Standard
  9
$DIMCLRD
 70
     0
  9
$DIMCLRE
 70
     0
  9
$DIMCLRT
 70
     0
  9
$DIMTFAC
 40
1.0
  9
$DIMGAP
 40
0.09
  9
$DIMJUST
 70
     0
  9
$DIMSD1
 70
     0
  9
$DIMSD2
 70
     0
  9
$DIMTOLJ
 70
     1
  9
$DIMTZIN
 70
     0
  9
$DIMALTZ
 70
     0
  9
$DIMALTTZ
 70
     0
  9
$DIMUPT
 70
     0
  9
$DIMDEC
 70
     4
  9
$DIMTDEC
 70
     4
  9
$DIMALTU
 70
     2
  9
$DIMALTTD
 70
     2
  9
$DIMTXSTY
  7
STANDARD
  9
$DIMAUNIT
 70
     0
  9
$DIMADEC
 70
     0
  9
$DIMALTRND
 40
0.0
  9
$DIMAZIN
 70
     0
  9
$DIMDSEP
 70
    46
  9
$DIMATFIT
 70
     3
  9
$DIMFRAC
 70
     0
  9
$DIMLDRBLK
  1

  9
$DIMLUNIT
 70
     2
  9
$DIMLWD
 70
    -2
  9
$DIMLWE
 70
    -2
  9
$DIMTMOVE
 70
     2
  9
$LUNITS
 70
     2
  9
$LUPREC
 70
     4
  9
$SKETCHINC
 40
0.1
  9
$FILLETRAD
 40
0.0
  9
$AUNITS
 70
     0
  9
$AUPREC
 70
     0
  9
$MENU
  1
qa
  9
$ELEVATION
 40
0.0
  9
$PELEVATION
 40
0.0
  9
$THICKNESS
 40
0.0
  9
$LIMCHECK
 70
     0
  9
$CHAMFERA
 40
0.0
  9
$CHAMFERB
 40
0.0
  9
$CHAMFERC
 40
0.0
  9
$CHAMFERD
 40
0.0
  9
$SKPOLY
 70
     0
  9
$TDCREATE
 40
2449812.002040162
  9
$TDUCREATE
 40
2449812.335373495
  9
$TDUPDATE
 40
2454946.917167245
  9
$TDUUPDATE
 40
2454947.250500579
  9
$TDINDWG
 40
0.2196318634
  9
$TDUSRTIMER
 40
0.2196318634
  9
$USRTIMER
 70
     1
  9
$ANGBASE
 50
0.0
  9
$ANGDIR
 70
     0
  9
$PDMODE
 70
     0
  9
$PDSIZE
 40
0.0
  9
$PLINEWID
 40
0.0
  9
$SPLFRAME
 70
     0
  9
$SPLINETYPE
 70
     6
  9
$SPLINESEGS
 70
     8
  9
$HANDSEED
  5
8C7
  9
$SURFTAB1
 70
     6
  9
$SURFTAB2
 70
     6
  9
$SURFTYPE
 70
     6
  9
$SURFU
 70
     6
  9
$SURFV
 70
     6
  9
$UCSBASE
  2

  9
$UCSNAME
  2

  9
$UCSORG
 10
0.0
 20
0.0
 30
0.0
  9
$UCSXDIR
 10
1.0
 20
0.0
 30
0.0
  9
$UCSYDIR
 10
0.0
 20
1.0
 30
0.0
  9
$UCSORTHOREF
  2

  9
$UCSORTHOVIEW
 70
     0
  9
$UCSORGTOP
 10
0.0
 20
0.0
 30
0.0
  9
$UCSORGBOTTOM
 10
0.0
 20
0.0
 30
0.0
  9
$UCSORGLEFT
 10
0.0
 20
0.0
 30
0.0
  9
$UCSORGRIGHT
 10
0.0
 20
0.0
 30
0.0
  9
$UCSORGFRONT
 10
0.0
 20
0.0
 30
0.0
  9
$UCSORGBACK
 10
0.0
 20
0.0
 30
0.0
  9
$PUCSBASE
  2

  9
$PUCSNAME
  2

  9
$PUCSORG
 10
0.0
 20
0.0
 30
0.0
  9
$PUCSXDIR
 10
1.0
 20
0.0
 30
0.0
  9
$PUCSYDIR
 10
0.0
 20
1.0
 30
0.0
  9
$PUCSORTHOREF
  2

  9
$PUCSORTHOVIEW
 70
     0
  9
$PUCSORGTOP
 10
0.0
 20
0.0
 30
0.0
  9
$PUCSORGBOTTOM
 10
0.0
 20
0.0
 30
0.0
  9
$PUCSORGLEFT
 10
0.0
 20
0.0
 30
0.0
  9
$PUCSORGRIGHT
 10
0.0
 20
0.0
 30
0.0
  9
$PUCSORGFRONT
 10
0.0
 20
0.0
 30
0.0
  9
$PUCSORGBACK
 10
0.0
 20
0.0
 30
0.0
  9
$USERI1
 70
     0
  9
$USERI2
 70
     0
  9
$USERI3
 70
     0
  9
$USERI4
 70
     0
  9
$USERI5
 70
     0
  9
$USERR1
 40
0.0
  9
$USERR2
 40
0.0
  9
$USERR3
 40
0.0
  9
$USERR4
 40
0.0
  9
$USERR5
 40
0.0
  9
$WORLDVIEW
 70
     1
  9
$SHADEDGE
 70
     3
  9
$SHADEDIF
 70
    70
  9
$TILEMODE
 70
     1
  9
$MAXACTVP
 70
    16
  9
$PINSBASE
 10
0.0
 20
0.0
 30
0.0
  9
$PLIMCHECK
 70
     0
  9
$PEXTMIN
 10
1.000000000000000E+20
 20
1.000000000000000E+20
 30
1.000000000000000E+20
  9
$PEXTMAX
 10
-1.000000000000000E+20
 20
-1.000000000000000E+20
 30
-1.000000000000000E+20
  9
$PLIMMIN
 10
0.0
 20
0.0
  9
$PLIMMAX
 10
12.0
 20
9.0
  9
$UNITMODE
 70
     0
  9
$VISRETAIN
 70
     0
  9
$PLINEGEN
 70
     0
  9
$PSLTSCALE
 70
     0
  9
$TREEDEPTH
 70
  3020
  9
$CMLSTYLE
  2
Standard
  9
$CMLJUST
 70
     0
  9
$CMLSCALE
 40
1.0
  9
$PROXYGRAPHICS
 70
     1
  9
$MEASUREMENT
 70
     0
  9
$CELWEIGHT
370
    -1
  9
$ENDCAPS
280
     0
  9
$JOINSTYLE
280
     0
  9
$LWDISPLAY
290
     0
  9
$INSUNITS
 70
     0
  9
$HYPERLINKBASE
  1

  9
$STYLESHEET
  1

  9
$XEDIT
290
     1
  9
$CEPSNTYPE
380
     0
  9
$PSTYLEMODE
290
     1
  9
$FINGERPRINTGUID
  2
{36260137-DC21-11D6-BE3F-00508B5FCD51}
  9
$VERSIONGUID
  2
{9F00EDE4-FC96-4B94-A651-B54B6E05341C}
  9
$EXTNAMES
290
     1
  9
$PSVPSCALE
 40
0.0
  9
$OLESTARTUP
290
     0
  0
ENDSEC
  0
SECTION
  2
CLASSES
  0
CLASS
  1
ACDBDICTIONARYWDFLT
  2
AcDbDictionaryWithDefault
  3
AutoCAD 2000
 90
        0
280
     0
281
     0
  0
CLASS
  1
ACDBPLACEHOLDER
  2
AcDbPlaceHolder
  3
ObjectDBX Classes
 90
        0
280
     0
281
     0
  0
CLASS
  1
LAYOUT
  2
AcDbLayout
  3
ObjectDBX Classes
 90
        0
280
     0
281
     0
  0
CLASS
  1
LONG_TRANSACTION
  2
AcDbLongTransaction
  3
ObjectDBX Classes
 90
   -65536
280
     1
281
     0
  0
CLASS
  1
LWPOLYLINE
  2
AcDbPolyline
  3
AutoCAD 2000
 90
        0
280
     0
281
     1
  0
CLASS
  1
HATCH
  2
AcDbHatch
  3
AutoCAD 2000
 90
        0
280
     0
281
     1
  0
CLASS
  1
XRECORD
  2
AcDbXrecord
  3
AutoCAD 2000
 90
        0
280
     0
281
     0
  0
CLASS
  1
LONG_TRANSACTION
  2
AcDbLongTransaction
  3
ObjectDBX Classes
 90
   -65536
280
     1
281
     0
  0
CLASS
  1
LWPOLYLINE
  2
AcDbPolyline
  3
AutoCAD 2000
 90
        0
280
     0
281
     1
  0
CLASS
  1
HATCH
  2
AcDbHatch
  3
AutoCAD 2000
 90
        0
280
     0
281
     1
  0
CLASS
  1
XRECORD
  2
AcDbXrecord
  3
AutoCAD 2000
 90
        0
280
     0
281
     0
  0
CLASS
  1
DICTIONARYVAR
  2
AcDbDictionaryVar
  3
AutoCAD 2000
 90
        0
280
     0
281
     0
  0
CLASS
  1
TABLESTYLE
  2
AcDbTableStyle
  3
ObjectDBX Classes
 90
     2047
280
     1
281
     0
  0
CLASS
  1
SORTENTSTABLE
  2
AcDbSortentsTable
  3
AutoCAD 2000
 90
        0
280
     0
281
     0
  0
ENDSEC
  0
SECTION
  2
TABLES
  0
TABLE
  2
VPORT
  5
8
330
0
100
AcDbSymbolTable
 70
     3
  0
VPORT
  5
8B9
330
8
100
AcDbSymbolTableRecord
100
AcDbViewportTableRecord
  2
*Active
 70
     0
 10
0.0
 20
0.0
 11
1.0
 21
1.0
 12
7.450395604691774
 22
5.646569380368756
 13
0.0
 23
0.0
 14
0.063
 24
0.063
 15
0.25
 25
0.25
 16
0.0
 26
0.0
 36
1.0
 17
0.0
 27
0.0
 37
0.0
 40
28.66054028840943
 41
1.87741935483871
 42
50.0
 43
0.0
 44
0.0
 50
0.0
 51
0.0
 71
     0
 72
   100
 73
     1
 74
     0
 75
     0
 76
     0
 77
     0
 78
     0
281
     0
 65
     1
110
0.0
120
0.0
130
0.0
111
1.0
121
0.0
131
0.0
112
0.0
122
1.0
132
0.0
 79
     0
146
0.0
  0
ENDTAB
  0
TABLE
  2
LTYPE
  5
5
330
0
100
AcDbSymbolTable
 70
     2
  0
LTYPE
  5
13
330
5
100
AcDbSymbolTableRecord
100
AcDbLinetypeTableRecord
  2
ByBlock
 70
     0
  3

 72
    65
 73
     0
 40
0.0
  0
LTYPE
  5
14
330
5
100
AcDbSymbolTableRecord
100
AcDbLinetypeTableRecord
  2
ByLayer
 70
     0
  3

 72
    65
 73
     0
 40
0.0
  0
LTYPE
  5
15
330
5
100
AcDbSymbolTableRecord
100
AcDbLinetypeTableRecord
  2
CONTINUOUS
 70
     0
  3
Solid line
 72
    65
 73
     0
 40
0.0
  0
LTYPE
  5
39
330
5
100
AcDbSymbolTableRecord
100
AcDbLinetypeTableRecord
  2
HIDDEN
 70
     0
  3
_ _ _ _ _ _ _ _ _ _ _ _ _ _ _ _ _ _ _ _ _ _ _
 72
    65
 73
     2
 40
0.375
 49
0.25
 74
     0
 49
-0.125
 74
     0
  0
ENDTAB
  0
TABLE
  2
LAYER
  5
2
102
{ACAD_XDICTIONARY
360
7F7
102
}
330
0
100
AcDbSymbolTable
 70
     2
  0
LAYER
  5
10
330
2
100
AcDbSymbolTableRecord
100
AcDbLayerTableRecord
  2
0
 70
     0
 62
     7
  6
CONTINUOUS
370
    -3
390
F
  0
LAYER
  5
48
330
2
100
AcDbSymbolTableRecord
100
AcDbLayerTableRecord
  2
HIDDEN
 70
     0
 62
   253
  6
HIDDEN
370
    -3
390
F
  0
ENDTAB
  0
TABLE
  2
STYLE
  5
3
330
0
100
AcDbSymbolTable
 70
     1
  0
STYLE
  5
11
330
3
100
AcDbSymbolTableRecord
100
AcDbTextStyleTableRecord
  2
STANDARD
 70
     0
 40
0.0
 41
1.0
 50
0.0
 71
     0
 42
0.225
  3
TXT
  4

  0
ENDTAB
  0
TABLE
  2
VIEW
  5
6
330
0
100
AcDbSymbolTable
 70
     0
  0
ENDTAB
  0
TABLE
  2
UCS
  5
7
330
0
100
AcDbSymbolTable
 70
     0
  0
ENDTAB
  0
TABLE
  2
APPID
  5
9
330
0
100
AcDbSymbolTable
 70
     1
  0
APPID
  5
12
330
9
100
AcDbSymbolTableRecord
100
AcDbRegAppTableRecord
  2
ACAD
 70
     0
  0
ENDTAB
  0
TABLE
  2
DIMSTYLE
  5
A
330
0
100
AcDbSymbolTable
 70
     1
100
AcDbDimStyleTable
  0
DIMSTYLE
105
51E
330
A
100
AcDbSymbolTableRecord
100
AcDbDimStyleTableRecord
  2
Standard
 70
     0
  3

  4

340
11
  0
ENDTAB
  0
TABLE
  2
BLOCK_RECORD
  5
1
330
0
100
AcDbSymbolTable
 70
     1
  0
BLOCK_RECORD
  5
1E
102
{ACAD_XDICTIONARY
360
5AD
102
}
330
1
100
AcDbSymbolTableRecord
100
AcDbBlockTableRecord
  2
*Model_Space
340
21
  0
BLOCK_RECORD
  5
1A
330
1
100
AcDbSymbolTableRecord
100
AcDbBlockTableRecord
  2
*Paper_Space
340
1D
  0
BLOCK_RECORD
  5
30
330
1
100
AcDbSymbolTableRecord
100
AcDbBlockTableRecord
  2
BOTMTABS
340
0
  0
ENDTAB
  0
ENDSEC
  0
SECTION
  2
BLOCKS
  0
BLOCK
  5
53
330
1E
100
AcDbEntity
  8
0
100
AcDbBlockBegin
  2
*Model_Space
 70
     0
 10
0.0
 20
0.0
 30
0.0
  3
*Model_Space
  1

  4

  0
ENDBLK
  5
54
330
1E
100
AcDbEntity
  8
0
100
AcDbBlockEnd
  0
BLOCK
  5
51
330
1A
100
AcDbEntity
 67
     1
  8
0
100
AcDbBlockBegin
  2
*Paper_Space
 70
     0
 10
0.0
 20
0.0
 30
0.0
  3
*Paper_Space
  1

  4

  0
ENDBLK
  5
52
330
1A
100
AcDbEntity
 67
     1
  8
0
100
AcDbBlockEnd
  0
BLOCK
  5
2F1
330
30
100
AcDbEntity
  8
0
100
AcDbBlockBegin
  2
BOTMTABS
 70
     0
 10
0.0
 20
0.0
 30
0.0
  3
BOTMTABS
  1

  4

  0
LINE
  5
2F2
330
30
100
AcDbEntity
  8
HIDDEN
100
AcDbLine
 10
-1.611749892439889
 20
1.051776695296637
 30
0.0
 11
-1.562252417756831
 21
1.002279220613578
 31
0.0
  0
LINE
  5
2F3
330
30
100
AcDbEntity
  8
HIDDEN
100
AcDbLine
 10
-1.768024062419585
 20
0.7965075759508249
 30
0.0
 11
-1.562252417756831
 21
1.002279220613578
 31
0.0
  0
LINE
  5
2F4
330
30
100
AcDbEntity
  8
HIDDEN
100
AcDbLine
 10
-1.817521537102643
 20
0.8460050506338854
 30
0.0
 11
-1.611749892439889
 21
1.051776695296637
 31
0.0
  0
ARC
  5
2F5
330
30
100
AcDbEntity
  8
HIDDEN
100
AcDbCircle
 10
-1.718526587736527
 20
0.7470101012677661
 30
0.0
 40
0.07
100
AcDbArc
 50
134.9999999999997
 51
179.9999999999999
  0
ARC
  5
2F6
330
30
100
AcDbEntity
  8
HIDDEN
100
AcDbCircle
 10
-1.718526587736527
 20
0.7470101012677679
 30
0.0
 40
0.14
100
AcDbArc
 50
134.9999999999997
 51
179.9999999999999
  0
LINE
  5
2F7
330
30
100
AcDbEntity
  8
HIDDEN
100
AcDbLine
 10
1.817521537102646
 20
0.8460050506338854
 30
0.0
 11
1.611749892439892
 21
1.051776695296637
 31
0.0
  0
LINE
  5
2F8
330
30
100
AcDbEntity
  8
HIDDEN
100
AcDbLine
 10
1.611749892439892
 20
1.051776695296637
 30
0.0
 11
1.562252417756834
 21
1.002279220613578
 31
0.0
  0
LINE
  5
2F9
330
30
100
AcDbEntity
  8
HIDDEN
100
AcDbLine
 10
1.768024062419588
 20
0.7965075759508249
 30
0.0
 11
1.562252417756834
 21
1.002279220613578
 31
0.0
  0
ARC
  5
2FA
330
30
100
AcDbEntity
  8
HIDDEN
100
AcDbCircle
 10
1.71852658773653
 20
0.7470101012677661
 30
0.0
 40
0.07
100
AcDbArc
 50
0.0000000000001018
 51
45.0000000000003
  0
ARC
  5
2FB
330
30
100
AcDbEntity
  8
HIDDEN
100
AcDbCircle
 10
1.71852658773653
 20
0.7470101012677679
 30
0.0
 40
0.14
100
AcDbArc
 50
0.0000000000001018
 51
45.0000000000003
  0
ARC
  5
2FC
330
30
100
AcDbEntity
  8
HIDDEN
100
AcDbCircle
 10
1.71852658773653
 20
-0.7470101012677679
 30
0.0
 40
0.14
100
AcDbArc
 50
314.9999999999997
 51
359.9999999999999
  0
LINE
  5
2FD
330
30
100
AcDbEntity
  8
HIDDEN
100
AcDbLine
 10
1.817521537102646
 20
-0.8460050506338854
 30
0.0
 11
1.611749892439892
 21
-1.051776695296637
 31
0.0
  0
ARC
  5
2FE
330
30
100
AcDbEntity
  8
HIDDEN
100
AcDbCircle
 10
1.71852658773653
 20
-0.7470101012677661
 30
0.0
 40
0.07
100
AcDbArc
 50
314.9999999999997
 51
359.9999999999999
  0
LINE
  5
2FF
330
30
100
AcDbEntity
  8
HIDDEN
100
AcDbLine
 10
1.768024062419588
 20
-0.7965075759508249
 30
0.0
 11
1.562252417756834
 21
-1.002279220613578
 31
0.0
  0
LINE
  5
300
330
30
100
AcDbEntity
  8
HIDDEN
100
AcDbLine
 10
1.611749892439892
 20
-1.051776695296637
 30
0.0
 11
1.562252417756834
 21
-1.002279220613578
 31
0.0
  0
ARC
  5
301
330
30
100
AcDbEntity
  8
HIDDEN
100
AcDbCircle
 10
-1.718526587736527
 20
-0.7470101012677661
 30
0.0
 40
0.07
100
AcDbArc
 50
180.0000000000001
 51
225.0000000000003
  0
LINE
  5
302
330
30
100
AcDbEntity
  8
HIDDEN
100
AcDbLine
 10
-1.768024062419585
 20
-0.7965075759508249
 30
0.0
 11
-1.562252417756831
 21
-1.002279220613578
 31
0.0
  0
ARC
  5
303
330
30
100
AcDbEntity
  8
HIDDEN
100
AcDbCircle
 10
-1.718526587736527
 20
-0.7470101012677679
 30
0.0
 40
0.14
100
AcDbArc
 50
180.0000000000001
 51
225.0000000000003
  0
LINE
  5
304
330
30
100
AcDbEntity
  8
HIDDEN
100
AcDbLine
 10
-1.817521537102643
 20
-0.8460050506338854
 30
0.0
 11
-1.611749892439889
 21
-1.051776695296637
 31
0.0
  0
LINE
  5
305
330
30
100
AcDbEntity
  8
HIDDEN
100
AcDbLine
 10
-1.611749892439889
 20
-1.051776695296637
 30
0.0
 11
-1.562252417756831
 21
-1.002279220613578
 31
0.0
  0
ENDBLK
  5
306
330
30
100
AcDbEntity
  8
0
100
AcDbBlockEnd
  0
ENDSEC
  0
SECTION
  2
ENTITIES
  0
LINE
  5
74A
330
1E
100
AcDbEntity
  8
0
100
AcDbLine
 10
5.949926356657109
 20
2.149838333156401
 30
0.0
 11
5.949926356657109
 21
3.543891723749656
 31
0.0
  0
LINE
  5
74B
330
1E
100
AcDbEntity
  8
0
100
AcDbLine
 10
8.199926356657112
 20
2.149838333156401
 30
0.0
 11
8.199926356657112
 21
3.543891723749656
 31
0.0
  0
LINE
  5
74C
330
1E
100
AcDbEntity
  8
0
100
AcDbLine
 10
6.199926356657109
 20
10.7123383331564
 30
0.0
 11
7.949926356657105
 21
10.7123383331564
 31
0.0
  0
LINE
  5
74D
330
1E
100
AcDbEntity
  8
0
100
AcDbLine
 10
5.949926356657102
 20
4.362338333156394
 30
0.0
 11
6.199926356657109
 21
4.362338333156394
 31
0.0
  0
LINE
  5
74E
330
1E
100
AcDbEntity
  8
HIDDEN
100
AcDbLine
 10
5.949926356657102
 20
3.612338333156401
 30
0.0
 11
6.199926356657109
 21
3.612338333156401
 31
0.0
  0
LINE
  5
74F
330
1E
100
AcDbEntity
  8
0
100
AcDbLine
 10
7.262426356657105
 20
4.679838333156397
 30
0.0
 11
7.262426356657105
 21
4.216338333156394
 31
0.0
  0
LINE
  5
750
330
1E
100
AcDbEntity
  8
0
100
AcDbLine
 10
6.887426356657102
 20
4.679838333156397
 30
0.0
 11
6.887426356657102
 21
4.216338333156394
 31
0.0
  0
LINE
  5
751
330
1E
100
AcDbEntity
  8
HIDDEN
100
AcDbLine
 10
6.199926356657109
 20
3.6376376421746
 30
0.0
 11
6.199926356657109
 21
4.216338333156394
 31
0.0
  0
LINE
  5
752
330
1E
100
AcDbEntity
  8
0
100
AcDbLine
 10
6.903275552533334
 20
4.679838333156397
 30
0.0
 11
7.251412215120798
 21
4.679838333156397
 31
0.0
  0
CIRCLE
  5
753
330
1E
100
AcDbEntity
  8
0
100
AcDbCircle
 10
6.199926356657102
 20
6.399838333156403
 30
0.0
 40
0.0855
  0
CIRCLE
  5
754
330
1E
100
AcDbEntity
  8
0
100
AcDbCircle
 10
6.199926356657102
 20
8.149838333156403
 30
0.0
 40
0.0855
  0
CIRCLE
  5
755
330
1E
100
AcDbEntity
  8
0
100
AcDbCircle
 10
7.074926356657102
 20
7.899838333156403
 30
0.0
 40
0.2815
  0
LINE
  5
756
330
1E
100
AcDbEntity
  8
0
100
AcDbLine
 10
5.949926356657109
 20
10.4623383331564
 30
0.0
 11
6.199926356657109
 21
10.7123383331564
 31
0.0
  0
CIRCLE
  5
757
330
1E
100
AcDbEntity
  8
0
100
AcDbCircle
 10
7.074926356657102
 20
9.899838333156403
 30
0.0
 40
0.2815
  0
CIRCLE
  5
758
330
1E
100
AcDbEntity
  8
0
100
AcDbCircle
 10
6.199926356657102
 20
9.899838333156403
 30
0.0
 40
0.0855
  0
LINE
  5
759
330
1E
100
AcDbEntity
  8
0
100
AcDbLine
 10
7.949926356657105
 20
4.362338333156394
 30
0.0
 11
8.199926356657105
 21
4.362338333156394
 31
0.0
  0
LINE
  5
75A
330
1E
100
AcDbEntity
  8
HIDDEN
100
AcDbLine
 10
7.949926356657105
 20
3.612338333156401
 30
0.0
 11
8.199926356657105
 21
3.612338333156401
 31
0.0
  0
LINE
  5
75B
330
1E
100
AcDbEntity
  8
HIDDEN
100
AcDbLine
 10
7.949926356657112
 20
3.641609541566616
 30
0.0
 11
7.949926356657105
 21
4.216338333156394
 31
0.0
  0
CIRCLE
  5
75C
330
1E
100
AcDbEntity
  8
0
100
AcDbCircle
 10
7.949926356657105
 20
5.274838333156403
 30
0.0
 40
0.0855
  0
CIRCLE
  5
75D
330
1E
100
AcDbEntity
  8
0
100
AcDbCircle
 10
7.949926356657105
 20
6.899838333156403
 30
0.0
 40
0.0855
  0
CIRCLE
  5
75E
330
1E
100
AcDbEntity
  8
0
100
AcDbCircle
 10
7.949926356657105
 20
8.649838333156403
 30
0.0
 40
0.0855
  0
LINE
  5
75F
330
1E
100
AcDbEntity
  8
0
100
AcDbLine
 10
7.949926356657105
 20
10.7123383331564
 30
0.0
 11
8.199926356657105
 21
10.4623383331564
 31
0.0
  0
CIRCLE
  5
760
330
1E
100
AcDbEntity
  8
0
100
AcDbCircle
 10
7.949926356657105
 20
10.3998383331564
 30
0.0
 40
0.0855
  0
LINE
  5
761
330
1E
100
AcDbEntity
  8
HIDDEN
100
AcDbLine
 10
8.199926356657105
 20
0.0063459389174376
 30
0.0
 11
5.949926356657102
 21
0.0063459389174376
 31
0.0
  0
LINE
  5
762
330
1E
100
AcDbEntity
  8
0
100
AcDbLine
 10
8.199926356657105
 20
-0.0636540610825627
 30
0.0
 11
5.949926356657102
 21
-0.0636540610825627
 31
0.0
  0
LINE
  5
763
330
1E
100
AcDbEntity
  8
0
100
AcDbLine
 10
8.148332083045087
 20
2.149838333156401
 30
0.0
 11
6.042030393678665
 21
2.149838333156401
 31
0.0
  0
LINE
  5
764
330
1E
100
AcDbEntity
  8
HIDDEN
100
AcDbLine
 10
8.126703051953744
 20
3.612338333156401
 30
0.0
 11
8.126703051953744
 21
4.231830968315016
 31
0.0
  0
LINE
  5
765
330
1E
100
AcDbEntity
  8
HIDDEN
100
AcDbLine
 10
6.023149661360467
 20
3.612338333156394
 30
0.0
 11
6.023149661360467
 21
4.23183096831502
 31
0.0
  0
LINE
  5
766
330
1E
100
AcDbEntity
  8
0
100
AcDbLine
 10
5.949926356657109
 20
4.362338333156394
 30
0.0
 11
5.949926356657109
 21
10.4623383331564
 31
0.0
  0
LINE
  5
767
330
1E
100
AcDbEntity
  8
0
100
AcDbLine
 10
8.199926356657112
 20
4.362338333156394
 30
0.0
 11
8.199926356657105
 21
10.4623383331564
 31
0.0
  0
LINE
  5
768
330
1E
100
AcDbEntity
  8
HIDDEN
100
AcDbLine
 10
7.262426356657105
 20
4.184785620099294
 30
0.0
 11
6.887426356657102
 21
4.184785620099294
 31
0.0
  0
LINE
  5
769
330
1E
100
AcDbEntity
  8
HIDDEN
100
AcDbLine
 10
6.887426356657102
 20
4.179838333156397
 30
0.0
 11
7.262426356657105
 21
4.179838333156397
 31
0.0
  0
LINE
  5
76A
330
1E
100
AcDbEntity
  8
0
100
AcDbLine
 10
7.991270679283307
 20
2.118588333156401
 30
0.0
 11
6.159510761365926
 21
2.118588333156401
 31
0.0
  0
ARC
  5
76B
330
1E
100
AcDbEntity
  8
0
100
AcDbCircle
 10
8.626926356657116
 20
4.263338333156394
 30
0.0
 40
0.198
100
AcDbArc
 50
0.0
 51
90.0
  0
LINE
  5
76C
330
1E
100
AcDbEntity
  8
0
100
AcDbLine
 10
6.090926356657111
 20
4.216338333156394
 30
0.0
 11
8.058926356657111
 21
4.216338333156394
 31
0.0
  0
LINE
  5
76D
330
1E
100
AcDbEntity
  8
0
100
AcDbLine
 10
8.626926356657116
 20
4.461338333156395
 30
0.0
 11
8.199926356657112
 21
4.461338333156395
 31
0.0
  0
LINE
  5
76E
330
1E
100
AcDbEntity
  8
0
100
AcDbLine
 10
8.214926356657113
 20
4.362338333156394
 30
0.0
 11
8.199926356657112
 21
4.362338333156394
 31
0.0
  0
LINE
  5
76F
330
1E
100
AcDbEntity
  8
0
100
AcDbLine
 10
6.032479747250395
 20
3.461338333156391
 30
0.0
 11
8.117372966063847
 21
3.461338333156391
 31
0.0
  0
ARC
  5
770
330
1E
100
AcDbEntity
  8
0
100
AcDbCircle
 10
5.285572885985811
 20
3.479925209798807
 30
0.0
 40
0.515
100
AcDbArc
 50
45.00000000000028
 51
65.04886002233032
  0
LINE
  5
771
330
1E
100
AcDbEntity
  8
0
100
AcDbLine
 10
5.423926356657113
 20
3.987930458320136
 30
0.0
 11
5.423926356657109
 21
3.461338333156398
 31
0.0
  0
LINE
  5
772
330
1E
100
AcDbEntity
  8
0
100
AcDbLine
 10
5.324926356657116
 20
4.263338333156394
 30
0.0
 11
5.324926356657109
 21
3.461338333156398
 31
0.0
  0
LINE
  5
773
330
1E
100
AcDbEntity
  8
0
100
AcDbLine
 10
5.649732878296884
 20
3.844085202109881
 30
0.0
 11
6.032479747250374
 21
3.461338333156391
 31
0.0
  0
LINE
  5
774
330
1E
100
AcDbEntity
  8
0
100
AcDbLine
 10
5.324926356657109
 20
3.461338333156398
 30
0.0
 11
5.423926356657116
 21
3.461338333156391
 31
0.0
  0
LINE
  5
775
330
1E
100
AcDbEntity
  8
HIDDEN
100
AcDbLine
 10
5.522926356657113
 20
4.362338333156394
 30
0.0
 11
5.934926356657105
 21
4.362338333156394
 31
0.0
  0
ARC
  5
776
330
1E
100
AcDbEntity
  8
0
100
AcDbCircle
 10
5.522926356657113
 20
4.263338333156391
 30
0.0
 40
0.198
100
AcDbArc
 50
90.0
 51
179.9999999999996
  0
ARC
  5
777
330
1E
100
AcDbEntity
  8
0
100
AcDbCircle
 10
5.924668421027018
 20
4.853527006933035
 30
0.0
 40
1.0
100
AcDbArc
 50
239.950893260667
 51
245.0488600223299
  0
ARC
  5
778
330
1E
100
AcDbEntity
  8
HIDDEN
100
AcDbCircle
 10
5.522926356657113
 20
4.263338333156394
 30
0.0
 40
0.099
100
AcDbArc
 50
90.0
 51
180.0
  0
LINE
  5
779
330
1E
100
AcDbEntity
  8
HIDDEN
100
AcDbLine
 10
5.423926356657113
 20
4.263338333156394
 30
0.0
 11
5.423926356657113
 21
3.987930458320136
 31
0.0
  0
LINE
  5
77A
330
1E
100
AcDbEntity
  8
0
100
AcDbLine
 10
5.324926356657112
 20
3.987930458320136
 30
0.0
 11
5.423926356657113
 21
3.987930458320136
 31
0.0
  0
LINE
  5
77B
330
1E
100
AcDbEntity
  8
0
100
AcDbLine
 10
5.934926356657105
 20
4.461338333156395
 30
0.0
 11
5.934926356657105
 21
4.372338333156392
 31
0.0
  0
ARC
  5
77C
330
1E
100
AcDbEntity
  8
0
100
AcDbCircle
 10
6.090926356657111
 20
4.372338333156392
 30
0.0
 40
0.156
100
AcDbArc
 50
180.0
 51
270.0
  0
ARC
  5
77D
330
1E
100
AcDbEntity
  8
0
100
AcDbCircle
 10
8.86427982732841
 20
3.479925209798807
 30
0.0
 40
0.515
100
AcDbArc
 50
114.9511399776728
 51
134.9999999999997
  0
LINE
  5
77E
330
1E
100
AcDbEntity
  8
0
100
AcDbLine
 10
8.725926356657116
 20
3.987930458320143
 30
0.0
 11
8.725926356657116
 21
3.461338333156391
 31
0.0
  0
LINE
  5
77F
330
1E
100
AcDbEntity
  8
0
100
AcDbLine
 10
8.824926356657116
 20
4.263338333156394
 30
0.0
 11
8.824926356657116
 21
3.461338333156395
 31
0.0
  0
LINE
  5
780
330
1E
100
AcDbEntity
  8
0
100
AcDbLine
 10
8.500119835017337
 20
3.844085202109881
 30
0.0
 11
8.117372966063847
 21
3.461338333156391
 31
0.0
  0
LINE
  5
781
330
1E
100
AcDbEntity
  8
0
100
AcDbLine
 10
8.824926356657116
 20
3.461338333156395
 30
0.0
 11
8.725926356657116
 21
3.461338333156391
 31
0.0
  0
LINE
  5
782
330
1E
100
AcDbEntity
  8
HIDDEN
100
AcDbLine
 10
8.626926356657126
 20
4.362338333156394
 30
0.0
 11
8.214926356657131
 21
4.362338333156394
 31
0.0
  0
LINE
  5
783
330
1E
100
AcDbEntity
  8
0
100
AcDbLine
 10
8.214926356657113
 20
4.461338333156398
 30
0.0
 11
8.214926356657113
 21
4.372338333156392
 31
0.0
  0
ARC
  5
784
330
1E
100
AcDbEntity
  8
0
100
AcDbCircle
 10
8.058926356657111
 20
4.372338333156392
 30
0.0
 40
0.156
100
AcDbArc
 50
270.0
 51
0.0
  0
LINE
  5
785
330
1E
100
AcDbEntity
  8
HIDDEN
100
AcDbLine
 10
8.725926356657126
 20
4.263338333156391
 30
0.0
 11
8.725926356657119
 21
3.987930458320143
 31
0.0
  0
LINE
  5
786
330
1E
100
AcDbEntity
  8
0
100
AcDbLine
 10
8.824926356657134
 20
3.987930458320143
 30
0.0
 11
8.725926356657119
 21
3.987930458320143
 31
0.0
  0
ARC
  5
787
330
1E
100
AcDbEntity
  8
0
100
AcDbCircle
 10
8.225184292287203
 20
4.853527006933035
 30
0.0
 40
1.0
100
AcDbArc
 50
294.9511399776731
 51
300.0491067393336
  0
ARC
  5
788
330
1E
100
AcDbEntity
  8
HIDDEN
100
AcDbCircle
 10
8.626926356657126
 20
4.263338333156394
 30
0.0
 40
0.099
100
AcDbArc
 50
359.9999999999986
 51
90.0
  0
LINE
  5
789
330
1E
100
AcDbEntity
  8
0
100
AcDbLine
 10
5.949926356657105
 20
4.461338333156391
 30
0.0
 11
5.522926356657113
 21
4.461338333156391
 31
0.0
  0
LINE
  5
78A
330
1E
100
AcDbEntity
  8
0
100
AcDbLine
 10
5.949926356657109
 20
4.362338333156394
 30
0.0
 11
5.934926356657105
 21
4.362338333156394
 31
0.0
  0
LINE
  5
78B
330
1E
100
AcDbEntity
  8
HIDDEN
100
AcDbLine
 10
7.262426356657105
 20
4.216338333156394
 30
0.0
 11
7.262426356657105
 21
4.179838333156397
 31
0.0
  0
LINE
  5
78C
330
1E
100
AcDbEntity
  8
HIDDEN
100
AcDbLine
 10
6.887426356657102
 20
4.216338333156394
 30
0.0
 11
6.887426356657102
 21
4.179838333156397
 31
0.0
  0
LINE
  5
78D
330
1E
100
AcDbEntity
  8
0
100
AcDbLine
 10
6.023149661360467
 20
4.23183096831502
 30
0.0
 11
6.023149661360467
 21
4.362338333156387
 31
0.0
  0
LINE
  5
78E
330
1E
100
AcDbEntity
  8
0
100
AcDbLine
 10
6.199926356657109
 20
4.216338333156394
 30
0.0
 11
6.199926356657109
 21
4.340678536111149
 31
0.0
  0
LINE
  5
78F
330
1E
100
AcDbEntity
  8
HIDDEN
100
AcDbLine
 10
5.949926356657109
 20
3.543891723749656
 30
0.0
 11
5.949926356657109
 21
3.612338333156401
 31
0.0
  0
LINE
  5
790
330
1E
100
AcDbEntity
  8
0
100
AcDbLine
 10
7.949926356657105
 20
4.216338333156394
 30
0.0
 11
7.949926356657105
 21
4.336706544834446
 31
0.0
  0
LINE
  5
791
330
1E
100
AcDbEntity
  8
0
100
AcDbLine
 10
8.126703051953744
 20
4.231830968315016
 30
0.0
 11
8.126703051953744
 21
4.362338333156394
 31
0.0
  0
LINE
  5
792
330
1E
100
AcDbEntity
  8
HIDDEN
100
AcDbLine
 10
8.199926356657112
 20
3.543891723749656
 30
0.0
 11
8.199926356657112
 21
3.612338333156401
 31
0.0
  0
ARC
  5
793
330
1E
100
AcDbEntity
  8
0
100
AcDbCircle
 10
7.074926356657102
 20
6.431088333156406
 30
0.0
 40
0.5862499999999999
100
AcDbArc
 50
0.0
 51
180.0
  0
ARC
  5
794
330
1E
100
AcDbEntity
  8
0
100
AcDbCircle
 10
7.074926356657102
 20
6.431088333156406
 30
0.0
 40
0.65625
100
AcDbArc
 50
0.0
 51
180.0
  0
LINE
  5
795
330
1E
100
AcDbEntity
  8
HIDDEN
100
AcDbLine
 10
6.488676356657102
 20
3.181088333156403
 30
0.0
 11
6.488676356657102
 21
3.461338333156391
 31
0.0
  0
LINE
  5
796
330
1E
100
AcDbEntity
  8
HIDDEN
100
AcDbLine
 10
7.661176356657101
 20
3.181088333156403
 30
0.0
 11
7.661176356657101
 21
3.461338333156391
 31
0.0
  0
LINE
  5
797
330
1E
100
AcDbEntity
  8
0
100
AcDbLine
 10
6.418676356657102
 20
3.181088333156403
 30
0.0
 11
6.418676356657102
 21
3.461338333156391
 31
0.0
  0
LINE
  5
798
330
1E
100
AcDbEntity
  8
0
100
AcDbLine
 10
7.731176356657102
 20
3.181088333156403
 30
0.0
 11
7.731176356657102
 21
3.461338333156391
 31
0.0
  0
ARC
  5
799
330
1E
100
AcDbEntity
  8
HIDDEN
100
AcDbCircle
 10
7.074926356657102
 20
3.181088333156403
 30
0.0
 40
0.5862499999999999
100
AcDbArc
 50
180.0
 51
0.0
  0
ARC
  5
79A
330
1E
100
AcDbEntity
  8
0
100
AcDbCircle
 10
7.074926356657102
 20
3.181088333156403
 30
0.0
 40
0.65625
100
AcDbArc
 50
180.0
 51
0.0
  0
LINE
  5
79B
330
1E
100
AcDbEntity
  8
0
100
AcDbLine
 10
7.731176356657102
 20
4.216338333156397
 30
0.0
 11
7.731176356657102
 21
6.431088333156406
 31
0.0
  0
LINE
  5
79C
330
1E
100
AcDbEntity
  8
HIDDEN
100
AcDbLine
 10
7.661176356657101
 20
4.216338333156397
 30
0.0
 11
7.661176356657101
 21
6.431088333156406
 31
0.0
  0
LINE
  5
79D
330
1E
100
AcDbEntity
  8
HIDDEN
100
AcDbLine
 10
6.488676356657102
 20
4.216338333156397
 30
0.0
 11
6.488676356657102
 21
6.431088333156406
 31
0.0
  0
LINE
  5
79E
330
1E
100
AcDbEntity
  8
0
100
AcDbLine
 10
6.418676356657102
 20
4.216338333156397
 30
0.0
 11
6.418676356657102
 21
6.431088333156406
 31
0.0
  0
LINE
  5
831
330
1E
100
AcDbEntity
  8
0
100
AcDbLine
 10
6.265893011687707
 20
1.876174619028699
 30
0.0
 11
6.265893011687707
 21
0.3466820810638538
 31
0.0
  0
LINE
  5
832
330
1E
100
AcDbEntity
  8
0
100
AcDbLine
 10
6.371399415462811
 20
1.876174619028699
 30
0.0
 11
6.371399415462811
 21
0.3466820810638538
 31
0.0
  0
LINE
  5
833
330
1E
100
AcDbEntity
  8
0
100
AcDbLine
 10
6.324926356657111
 20
1.821713333156401
 30
0.0
 11
6.32492635665711
 21
0.8998383331564028
 31
0.0
  0
LINE
  5
834
330
1E
100
AcDbEntity
  8
0
100
AcDbLine
 10
6.324926356657111
 20
0.3309364581564314
 30
0.0
 11
6.32492635665711
 21
0.8998383331564028
 31
0.0
  0
ARC
  5
835
330
1E
100
AcDbEntity
  8
0
100
AcDbCircle
 10
6.188884532877343
 20
0.3637986686297161
 30
0.0
 40
0.1399546451337564
100
AcDbArc
 50
255.1651247443794
 51
346.4198041301774
  0
ARC
  5
836
330
1E
100
AcDbEntity
  8
0
100
AcDbCircle
 10
6.186316537853455
 20
1.841068457173915
 30
0.0
 40
0.1399546451337564
100
AcDbArc
 50
352.0507629249946
 51
103.749973229516
  0
ARC
  5
837
330
1E
100
AcDbEntity
  8
0
100
AcDbCircle
 10
7.074926356657104
 20
1.356067011433616
 30
0.0
 40
0.375
100
AcDbArc
 50
9.381557439039582
 51
170.6184425609604
  0
ARC
  5
838
330
1E
100
AcDbEntity
  8
0
100
AcDbCircle
 10
7.074926356657104
 20
1.478323305863562
 30
0.0
 40
0.375
100
AcDbArc
 50
189.3815574390396
 51
350.6184425609604
  0
ARC
  5
839
330
1E
100
AcDbEntity
  8
0
100
AcDbCircle
 10
7.075192136093726
 20
1.70480787830676
 30
0.0
 40
0.4684152307000224
100
AcDbArc
 50
217.7928567330115
 51
322.1198117351944
  0
LINE
  5
83A
330
1E
100
AcDbEntity
  8
0
100
AcDbLine
 10
7.778453297851412
 20
1.876174619028701
 30
0.0
 11
7.778453297851412
 21
0.3466820810638538
 31
0.0
  0
LINE
  5
83B
330
1E
100
AcDbEntity
  8
0
100
AcDbLine
 10
7.883959701626516
 20
1.876174619028701
 30
0.0
 11
7.883959701626515
 21
0.3466820810638538
 31
0.0
  0
LINE
  5
83C
330
1E
100
AcDbEntity
  8
0
100
AcDbLine
 10
7.824926356657104
 20
1.876174619028701
 30
0.0
 11
7.824926356657104
 21
0.8998383331564028
 31
0.0
  0
LINE
  5
83D
330
1E
100
AcDbEntity
  8
0
100
AcDbLine
 10
7.824926356657104
 20
0.3309364581563834
 30
0.0
 11
7.824926356657104
 21
0.8998383331564028
 31
0.0
  0
ARC
  5
83E
330
1E
100
AcDbEntity
  8
0
100
AcDbCircle
 10
7.960513500082197
 20
0.3656269357019415
 30
0.0
 40
0.1399546451337564
100
AcDbArc
 50
194.351471528099
 51
285.0275206047753
  0
ARC
  5
83F
330
1E
100
AcDbEntity
  8
0
100
AcDbCircle
 10
7.960972830318866
 20
1.842197253071433
 30
0.0
 40
0.1399546451337564
100
AcDbArc
 50
75.16709398168041
 51
166.4279136482509
  0
ARC
  5
840
330
1E
100
AcDbEntity
  8
0
100
AcDbCircle
 10
8.830519067626666
 20
1.175932985292498
 30
0.0
 40
1.073867394173319
100
AcDbArc
 50
125.9597342430514
 51
130.4167233310407
  0
LINE
  5
841
330
1E
100
AcDbEntity
  8
0
100
AcDbLine
 10
8.199926356657112
 20
2.234838333156327
 30
0.0
 11
8.199926356657112
 21
2.045153333156412
 31
0.0
  0
ARC
  5
842
330
1E
100
AcDbEntity
  8
0
100
AcDbCircle
 10
5.31964090743893
 20
1.175710159180991
 30
0.0
 40
1.073867394173319
100
AcDbArc
 50
49.60480583314855
 51
54.06051671540703
  0
LINE
  5
843
330
1E
100
AcDbEntity
  8
0
100
AcDbLine
 10
5.949926356657111
 20
2.234838333156441
 30
0.0
 11
5.949926356657111
 21
2.045153333156399
 31
0.0
  0
LINE
  5
844
330
1E
100
AcDbEntity
  8
0
100
AcDbLine
 10
6.015567139887997
 20
0.2120795178961394
 30
0.0
 11
6.015567139887997
 21
1.993559692565857
 31
0.0
  0
ARC
  5
845
330
1E
100
AcDbEntity
  8
0
100
AcDbCircle
 10
5.949926356657102
 20
0.0063459389174376
 30
0.0
 40
0.085
100
AcDbArc
 50
304.5603217799805
 51
89.99999999999881
  0
LINE
  5
846
330
1E
100
AcDbEntity
  8
0
100
AcDbLine
 10
5.949926356657102
 20
0.0063459389174376
 30
0.0
 11
5.949926356657102
 21
-0.0636540610825644
 31
0.0
  0
LINE
  5
847
330
1E
100
AcDbEntity
  8
0
100
AcDbLine
 10
5.949926356657101
 20
0.150876641720302
 30
0.0
 11
5.949926356657101
 21
0.0913459389174385
 31
0.0
  0
ARC
  5
848
330
1E
100
AcDbEntity
  8
0
100
AcDbCircle
 10
5.251062720293464
 20
0.9662175508112156
 30
0.0
 40
1.073867394173319
100
AcDbArc
 50
310.6012946450045
 51
315.3910999456639
  0
LINE
  5
849
330
1E
100
AcDbEntity
  8
0
100
AcDbLine
 10
8.134285573426226
 20
0.2120795178961252
 30
0.0
 11
8.134285573426226
 21
1.99352096332424
 31
0.0
  0
ARC
  5
84A
330
1E
100
AcDbEntity
  8
0
100
AcDbCircle
 10
8.199926356657105
 20
0.0063459389174376
 30
0.0
 40
0.085
100
AcDbArc
 50
90.0
 51
235.4396782199869
  0
LINE
  5
84B
330
1E
100
AcDbEntity
  8
0
100
AcDbLine
 10
8.199926356657105
 20
0.0063459389174376
 30
0.0
 11
8.199926356657105
 21
-0.0636540610825627
 31
0.0
  0
ARC
  5
84C
330
1E
100
AcDbEntity
  8
0
100
AcDbCircle
 10
8.832952639478089
 20
1.02758887472968
 30
0.0
 40
1.073867394173319
100
AcDbArc
 50
229.4125173516242
 51
233.8796902824346
  0
LINE
  5
84D
330
1E
100
AcDbEntity
  8
0
100
AcDbLine
 10
8.199926356657105
 20
0.160139218826556
 30
0.0
 11
8.199926356657105
 21
0.0913459389174385
 31
0.0
  0
ENDSEC
  0
SECTION
  2
OBJECTS
  0
DICTIONARY
  5
C
330
0
100
AcDbDictionary
281
     1
  3
ACAD_COLOR
350
6E0
  3
ACAD_GROUP
350
D
  3
ACAD_LAYOUT
350
19
  3
ACAD_MATERIAL
350
6DF
  3
ACAD_MLINESTYLE
350
16
  3
ACAD_PLOTSETTINGS
350
18
  3
ACAD_PLOTSTYLENAME
350
E
  3
ACAD_TABLESTYLE
350
6E1
  3
ACDBHEADERROUNDTRIPXREC
350
8C0
  3
AcDbVariableDictionary
350
695
  0
DICTIONARY
  5
7F7
330
2
100
AcDbDictionary
280
     1
281
     1
  3
ACAD_LAYERFILTERS
360
7F9
  3
ACLYDICTIONARY
360
7F8
  0
DICTIONARY
  5
5AD
330
1E
100
AcDbDictionary
280
     1
281
     1
  3
ACAD_SORTENTS
360
7F6
  0
DICTIONARY
  5
6E0
102
{ACAD_REACTORS
330
C
102
}
330
C
100
AcDbDictionary
281
     1
  0
DICTIONARY
  5
D
102
{ACAD_REACTORS
330
C
102
}
330
C
100
AcDbDictionary
281
     1
  0
DICTIONARY
  5
19
102
{ACAD_REACTORS
330
C
102
}
330
C
100
AcDbDictionary
281
     1
  3
Layout1
350
1D
  3
Model
350
21
  0
DICTIONARY
  5
6DF
102
{ACAD_REACTORS
330
C
102
}
330
C
100
AcDbDictionary
281
     1
  0
DICTIONARY
  5
16
102
{ACAD_REACTORS
330
C
102
}
330
C
100
AcDbDictionary
281
     1
  3
Standard
350
17
  0
DICTIONARY
  5
18
102
{ACAD_REACTORS
330
C
102
}
330
C
100
AcDbDictionary
281
     1
  0
ACDBDICTIONARYWDFLT
  5
E
102
{ACAD_REACTORS
330
C
102
}
330
C
100
AcDbDictionary
281
     1
  3
Normal
350
F
100
AcDbDictionaryWithDefault
340
F
  0
DICTIONARY
  5
6E1
102
{ACAD_REACTORS
330
C
102
}
330
C
100
AcDbDictionary
281
     1
  3
Standard
350
6E2
  0
DICTIONARY
  5
8C0
102
{ACAD_REACTORS
330
C
102
}
330
C
100
AcDbDictionary
281
     1
  3
COLORDICT
350
8C1
  3
MATERIALDICT
350
8C2
  0
DICTIONARY
  5
695
102
{ACAD_REACTORS
330
C
102
}
330
C
100
AcDbDictionary
281
     1
  3
CTABLESTYLE
350
7E1
  0
DICTIONARY
  5
7F9
102
{ACAD_REACTORS
330
7F7
102
}
330
7F7
100
AcDbDictionary
281
     1
  0
DICTIONARY
  5
7F8
102
{ACAD_REACTORS
330
7F7
102
}
330
7F7
100
AcDbDictionary
281
     1
1001
ACAD
1000
<All
  0
SORTENTSTABLE
  5
7F6
102
{ACAD_REACTORS
330
5AD
102
}
330
5AD
100
AcDbSortentsTable
330
1E
331
0
  5
4D2
331
77C
  5
7CF
331
776
  5
7C9
331
771
  5
7C4
331
75F
  5
7B1
331
75E
  5
7B0
331
78C
  5
7DF
331
798
  5
7ED
331
841
  5
808
331
83F
  5
806
331
763
  5
7B5
331
76B
  5
7BE
331
75C
  5
7AE
331
83E
  5
805
331
78A
  5
7DD
331
832
  5
7F5
331
765
  5
7B8
331
787
  5
7DA
331
790
  5
7E5
331
755
  5
7A5
331
754
  5
7A4
331
796
  5
7EB
331
775
  5
7C8
331
793
  5
7E8
331
835
  5
7FC
331
782
  5
7D5
331
77F
  5
7D2
331
76A
  5
7BD
331
836
  5
7FD
331
845
  5
80C
331
769
  5
7BC
331
83C
  5
803
331
792
  5
7E7
331
761
  5
7B3
331
791
  5
7E6
331
833
  5
7FA
331
750
  5
79D
331
772
  5
7C5
331
78D
  5
7E2
331
77A
  5
7CD
331
783
  5
7D6
331
84B
  5
812
331
77B
  5
7CE
331
83A
  5
801
331
758
  5
7A8
331
789
  5
7DC
331
75D
  5
7AF
331
83B
  5
802
331
846
  5
80D
331
79C
  5
7F1
331
76F
  5
7C2
331
74C
  5
799
331
74B
  5
798
331
76D
  5
7C0
331
843
  5
80A
331
752
  5
7A1
331
834
  5
7FB
331
78B
  5
7DE
331
799
  5
7EE
331
785
  5
7D8
331
78E
  5
7E3
331
842
  5
809
331
79B
  5
7F0
331
797
  5
7EC
331
786
  5
7D9
331
75A
  5
7AB
331
847
  5
80E
331
753
  5
7A3
331
784
  5
7D7
331
79D
  5
7F2
331
767
  5
7BA
331
762
  5
7B4
331
844
  5
80B
331
848
  5
80F
331
781
  5
7D4
331
76E
  5
7C1
331
849
  5
810
331
778
  5
7CB
331
831
  5
7F4
331
757
  5
7A7
331
756
  5
7A6
331
84A
  5
811
331
79E
  5
7F3
331
840
  5
807
331
83D
  5
804
331
779
  5
7CC
331
84C
  5
813
331
77E
  5
7D1
331
74A
  5
797
331
837
  5
7FE
331
759
  5
7AA
331
795
  5
7EA
331
74E
  5
79B
331
74D
  5
79A
331
773
  5
7C6
331
774
  5
7C7
331
76C
  5
7BF
331
78F
  5
7E4
331
838
  5
7FF
331
839
  5
800
331
75B
  5
7AD
331
777
  5
7CA
331
764
  5
7B6
331
770
  5
7C3
331
788
  5
7DB
331
77D
  5
7D0
331
760
  5
7B2
331
766
  5
7B9
331
780
  5
7D3
331
79A
  5
7EF
331
794
  5
7E9
331
768
  5
7BB
331
84D
  5
814
331
751
  5
79E
331
74F
  5
79C
  0
LAYOUT
  5
1D
102
{ACAD_REACTORS
330
19
102
}
102
{ACAD_XDICTIONARY
360
8C3
102
}
330
19
100
AcDbPlotSettings
  1

  2
HP LaserJet 2100 Series PS
  4

  6

 40
0.0
 41
0.0
 42
0.0
 43
0.0
 44
0.0
 45
0.0
 46
0.0
 47
0.0
 48
0.0
 49
0.0
140
0.0
141
0.0
142
1.0
143
1.0
 70
   688
 72
     0
 73
     0
 74
     5
  7

 75
    16
147
1.0
148
0.0
149
0.0
100
AcDbLayout
  1
Layout1
 70
     0
 71
     1
 10
0.0
 20
0.0
 11
12.0
 21
9.0
 12
0.0
 22
0.0
 32
0.0
 14
1.000000000000000E+20
 24
1.000000000000000E+20
 34
1.000000000000000E+20
 15
-1.000000000000000E+20
 25
-1.000000000000000E+20
 35
-1.000000000000000E+20
146
0.0
 13
0.0
 23
0.0
 33
0.0
 16
1.0
 26
0.0
 36
0.0
 17
0.0
 27
1.0
 37
0.0
 76
     0
330
1A
  0
LAYOUT
  5
21
102
{ACAD_REACTORS
330
19
102
}
102
{ACAD_XDICTIONARY
360
8C5
102
}
330
19
100
AcDbPlotSettings
  1

  2
HP LaserJet 2100 Series PS
  4
Letter
  6

 40
5.365749835968018
 41
5.408084392547607
 42
5.4080810546875
 43
5.365753173828125
 44
215.8999938964844
 45
279.3999938964844
 46
0.0
 47
0.0
 48
0.0
 49
0.0
140
0.0
141
0.0
142
1.0
143
2.482074006153913
 70
 28336
 72
     0
 73
     0
 74
     2
  7

 75
     0
147
0.4028888733859896
148
0.0
149
0.0
100
AcDbLayout
  1
Model
 70
     1
 71
     0
 10
0.0
 20
0.0
 11
12.0
 21
9.0
 12
0.0
 22
0.0
 32
0.0
 14
0.0
 24
0.0
 34
0.0
 15
0.0
 25
0.0
 35
0.0
146
0.0
 13
0.0
 23
0.0
 33
0.0
 16
1.0
 26
0.0
 36
0.0
 17
0.0
 27
1.0
 37
0.0
 76
     0
330
1E
  0
MLINESTYLE
  5
17
102
{ACAD_REACTORS
330
16
102
}
330
16
100
AcDbMlineStyle
  2
STANDARD
 70
     0
  3

 62
   256
 51
90.0
 52
90.0
 71
     2
 49
0.5
 62
   256
  6
BYLAYER
 49
-0.5
 62
   256
  6
BYLAYER
  0
ACDBPLACEHOLDER
  5
F
102
{ACAD_REACTORS
330
E
102
}
330
E
  0
ACAD_PROXY_OBJECT
  5
6E2
102
{ACAD_REACTORS
330
6E1
102
}
330
6E1
100
AcDbProxyObject
 90
      499
 91
      512
 95
   983063
 70
     0
 93
     1841
310
4214DD185B99185C9928B81E85EB51B8AE3F2E07A17AD46E2B8FC02B5E8DC0F42B1CFD028000000C1008070000C3001FDFF8000000C1003FBFF000000182007F7FE00000030400FEFFC00000060801FDFF8000000C1003FBFF00000018200000000000000681FA0B0000001820100E000186003FBFF000000182007F7FE000
310
00030400FEFFC00000060801FDFF8000000C1003FBFF000000182007F7FE000000304000AD7A3703D0AC73F4160000003040201C00030C007F7FE00000030400FEFFC00000060801FDFF8000000C1003FBFF000000182007F7FE00000030400FEFFC000000608000
340
11
340
11
340
11
 94
        0
  0
XRECORD
  5
8C1
102
{ACAD_REACTORS
330
8C0
102
}
330
8C0
100
AcDbXrecord
340
6E0
  0
XRECORD
  5
8C2
102
{ACAD_REACTORS
330
8C0
102
}
330
8C0
100
AcDbXrecord
340
6DF
  0
DICTIONARYVAR
  5
7E1
102
{ACAD_REACTORS
330
695
102
}
330
695
100
DictionaryVariables
280
     0
  1
STANDARD
  0
DICTIONARY
  5
8C3
330
1D
100
AcDbDictionary
280
     1
281
     1
  3
ACAD_XREC_ROUNDTRIP
360
8C4
  0
DICTIONARY
  5
8C5
330
21
100
AcDbDictionary
280
     1
281
     1
  3
ACAD_XREC_ROUNDTRIP
360
8C6
  0
XRECORD
  5
8C4
102
{ACAD_REACTORS
330
8C3
102
}
330
8C3
100
AcDbXrecord
102
SHADEPLOT
 70
     0
102
SHADEPLOTRESLEVEL
 70
     2
102
SHADEPLOTCUSTOMDPI
 70
   300
  0
XRECORD
  5
8C6
102
{ACAD_REACTORS
330
8C5
102
}
330
8C5
100
AcDbXrecord
102
SHADEPLOT
 70
     0
102
SHADEPLOTRESLEVEL
 70
     2
102
SHADEPLOTCUSTOMDPI
 70
   300
  0
ENDSEC
  0
EOF
