  0
SECTION
  2
HEADER
  9
$ACADVER
  1
AC1015
  9
$ACADMAINTVER
 70
     6
  9
$DWGCODEPAGE
  3
ANSI_1252
  9
$INSBASE
 10
0.0
 20
0.0
 30
0.0
  9
$EXTMIN
 10
-8.522792759448246
 20
-6.666426551210074
 30
0.0
  9
$EXTMAX
 10
8.865933499332051
 20
17.48406104015085
 30
0.0
  9
$LIMMIN
 10
0.0
 20
0.0
  9
$LIMMAX
 10
20.0
 20
26.25
  9
$ORTHOMODE
 70
     1
  9
$REGENMODE
 70
     1
  9
$FILLMODE
 70
     1
  9
$QTEXTMODE
 70
     0
  9
$MIRRTEXT
 70
     0
  9
$LTSCALE
 40
0.5
  9
$ATTMODE
 70
     1
  9
$TEXTSIZE
 40
0.225
  9
$TRACEWID
 40
0.05
  9
$TEXTSTYLE
  7
STANDARD
  9
$CLAYER
  8
0
  9
$CELTYPE
  6
ByLayer
  9
$CECOLOR
 62
   256
  9
$CELTSCALE
 40
1.0
  9
$DISPSILH
 70
     0
  9
$DIMSCALE
 40
2.5
  9
$DIMASZ
 40
0.125
  9
$DIMEXO
 40
0.062
  9
$DIMDLI
 40
0.375
  9
$DIMRND
 40
0.0
  9
$DIMDLE
 40
0.0
  9
$DIMEXE
 40
0.08
  9
$DIMTP
 40
0.0
  9
$DIMTM
 40
0.0
  9
$DIMTXT
 40
0.09
  9
$DIMCEN
 40
-0.03125
  9
$DIMTSZ
 40
0.0
  9
$DIMTOL
 70
     0
  9
$DIMLIM
 70
     0
  9
$DIMTIH
 70
     1
  9
$DIMTOH
 70
     1
  9
$DIMSE1
 70
     0
  9
$DIMSE2
 70
     0
  9
$DIMTAD
 70
     0
  9
$DIMZIN
 70
     0
  9
$DIMBLK
  1

  9
$DIMASO
 70
     0
  9
$DIMSHO
 70
     0
  9
$DIMPOST
  1

  9
$DIMAPOST
  1

  9
$DIMALT
 70
     0
  9
$DIMALTD
 70
     2
  9
$DIMALTF
 40
25.4
  9
$DIMLFAC
 40
1.0
  9
$DIMTOFL
 70
     0
  9
$DIMTVP
 40
0.0
  9
$DIMTIX
 70
     0
  9
$DIMSOXD
 70
     0
  9
$DIMSAH
 70
     0
  9
$DIMBLK1
  1

  9
$DIMBLK2
  1

  9
$DIMSTYLE
  2
Standard
  9
$DIMCLRD
 70
     0
  9
$DIMCLRE
 70
     0
  9
$DIMCLRT
 70
     0
  9
$DIMTFAC
 40
1.0
  9
$DIMGAP
 40
0.09
  9
$DIMJUST
 70
     0
  9
$DIMSD1
 70
     0
  9
$DIMSD2
 70
     0
  9
$DIMTOLJ
 70
     1
  9
$DIMTZIN
 70
     0
  9
$DIMALTZ
 70
     0
  9
$DIMALTTZ
 70
     0
  9
$DIMUPT
 70
     0
  9
$DIMDEC
 70
     4
  9
$DIMTDEC
 70
     4
  9
$DIMALTU
 70
     2
  9
$DIMALTTD
 70
     2
  9
$DIMTXSTY
  7
STANDARD
  9
$DIMAUNIT
 70
     0
  9
$DIMADEC
 70
     0
  9
$DIMALTRND
 40
0.0
  9
$DIMAZIN
 70
     0
  9
$DIMDSEP
 70
    46
  9
$DIMATFIT
 70
     3
  9
$DIMFRAC
 70
     0
  9
$DIMLDRBLK
  1

  9
$DIMLUNIT
 70
     2
  9
$DIMLWD
 70
    -2
  9
$DIMLWE
 70
    -2
  9
$DIMTMOVE
 70
     2
  9
$LUNITS
 70
     2
  9
$LUPREC
 70
     4
  9
$SKETCHINC
 40
0.1
  9
$FILLETRAD
 40
0.0
  9
$AUNITS
 70
     0
  9
$AUPREC
 70
     0
  9
$MENU
  1
qa
  9
$ELEVATION
 40
0.0
  9
$PELEVATION
 40
0.0
  9
$THICKNESS
 40
0.0
  9
$LIMCHECK
 70
     0
  9
$CHAMFERA
 40
0.0
  9
$CHAMFERB
 40
0.0
  9
$CHAMFERC
 40
0.0
  9
$CHAMFERD
 40
0.0
  9
$SKPOLY
 70
     0
  9
$TDCREATE
 40
2449812.002040162
  9
$TDUCREATE
 40
2449812.335373495
  9
$TDUPDATE
 40
2454946.917514838
  9
$TDUUPDATE
 40
2454947.250848171
  9
$TDINDWG
 40
0.2196103472
  9
$TDUSRTIMER
 40
0.2196103472
  9
$USRTIMER
 70
     1
  9
$ANGBASE
 50
0.0
  9
$ANGDIR
 70
     0
  9
$PDMODE
 70
     0
  9
$PDSIZE
 40
0.0
  9
$PLINEWID
 40
0.0
  9
$SPLFRAME
 70
     0
  9
$SPLINETYPE
 70
     6
  9
$SPLINESEGS
 70
     8
  9
$HANDSEED
  5
8C7
  9
$SURFTAB1
 70
     6
  9
$SURFTAB2
 70
     6
  9
$SURFTYPE
 70
     6
  9
$SURFU
 70
     6
  9
$SURFV
 70
     6
  9
$UCSBASE
  2

  9
$UCSNAME
  2

  9
$UCSORG
 10
0.0
 20
0.0
 30
0.0
  9
$UCSXDIR
 10
1.0
 20
0.0
 30
0.0
  9
$UCSYDIR
 10
0.0
 20
1.0
 30
0.0
  9
$UCSORTHOREF
  2

  9
$UCSORTHOVIEW
 70
     0
  9
$UCSORGTOP
 10
0.0
 20
0.0
 30
0.0
  9
$UCSORGBOTTOM
 10
0.0
 20
0.0
 30
0.0
  9
$UCSORGLEFT
 10
0.0
 20
0.0
 30
0.0
  9
$UCSORGRIGHT
 10
0.0
 20
0.0
 30
0.0
  9
$UCSORGFRONT
 10
0.0
 20
0.0
 30
0.0
  9
$UCSORGBACK
 10
0.0
 20
0.0
 30
0.0
  9
$PUCSBASE
  2

  9
$PUCSNAME
  2

  9
$PUCSORG
 10
0.0
 20
0.0
 30
0.0
  9
$PUCSXDIR
 10
1.0
 20
0.0
 30
0.0
  9
$PUCSYDIR
 10
0.0
 20
1.0
 30
0.0
  9
$PUCSORTHOREF
  2

  9
$PUCSORTHOVIEW
 70
     0
  9
$PUCSORGTOP
 10
0.0
 20
0.0
 30
0.0
  9
$PUCSORGBOTTOM
 10
0.0
 20
0.0
 30
0.0
  9
$PUCSORGLEFT
 10
0.0
 20
0.0
 30
0.0
  9
$PUCSORGRIGHT
 10
0.0
 20
0.0
 30
0.0
  9
$PUCSORGFRONT
 10
0.0
 20
0.0
 30
0.0
  9
$PUCSORGBACK
 10
0.0
 20
0.0
 30
0.0
  9
$USERI1
 70
     0
  9
$USERI2
 70
     0
  9
$USERI3
 70
     0
  9
$USERI4
 70
     0
  9
$USERI5
 70
     0
  9
$USERR1
 40
0.0
  9
$USERR2
 40
0.0
  9
$USERR3
 40
0.0
  9
$USERR4
 40
0.0
  9
$USERR5
 40
0.0
  9
$WORLDVIEW
 70
     1
  9
$SHADEDGE
 70
     3
  9
$SHADEDIF
 70
    70
  9
$TILEMODE
 70
     1
  9
$MAXACTVP
 70
    16
  9
$PINSBASE
 10
0.0
 20
0.0
 30
0.0
  9
$PLIMCHECK
 70
     0
  9
$PEXTMIN
 10
1.000000000000000E+20
 20
1.000000000000000E+20
 30
1.000000000000000E+20
  9
$PEXTMAX
 10
-1.000000000000000E+20
 20
-1.000000000000000E+20
 30
-1.000000000000000E+20
  9
$PLIMMIN
 10
0.0
 20
0.0
  9
$PLIMMAX
 10
12.0
 20
9.0
  9
$UNITMODE
 70
     0
  9
$VISRETAIN
 70
     0
  9
$PLINEGEN
 70
     0
  9
$PSLTSCALE
 70
     0
  9
$TREEDEPTH
 70
  3020
  9
$CMLSTYLE
  2
Standard
  9
$CMLJUST
 70
     0
  9
$CMLSCALE
 40
1.0
  9
$PROXYGRAPHICS
 70
     1
  9
$MEASUREMENT
 70
     0
  9
$CELWEIGHT
370
    -1
  9
$ENDCAPS
280
     0
  9
$JOINSTYLE
280
     0
  9
$LWDISPLAY
290
     0
  9
$INSUNITS
 70
     0
  9
$HYPERLINKBASE
  1

  9
$STYLESHEET
  1

  9
$XEDIT
290
     1
  9
$CEPSNTYPE
380
     0
  9
$PSTYLEMODE
290
     1
  9
$FINGERPRINTGUID
  2
{36260137-DC21-11D6-BE3F-00508B5FCD51}
  9
$VERSIONGUID
  2
{BE83A27D-1DA8-450E-A72E-90D28A85670B}
  9
$EXTNAMES
290
     1
  9
$PSVPSCALE
 40
0.0
  9
$OLESTARTUP
290
     0
  0
ENDSEC
  0
SECTION
  2
CLASSES
  0
CLASS
  1
ACDBDICTIONARYWDFLT
  2
AcDbDictionaryWithDefault
  3
AutoCAD 2000
 90
        0
280
     0
281
     0
  0
CLASS
  1
ACDBPLACEHOLDER
  2
AcDbPlaceHolder
  3
ObjectDBX Classes
 90
        0
280
     0
281
     0
  0
CLASS
  1
LAYOUT
  2
AcDbLayout
  3
ObjectDBX Classes
 90
        0
280
     0
281
     0
  0
CLASS
  1
LONG_TRANSACTION
  2
AcDbLongTransaction
  3
ObjectDBX Classes
 90
   -65536
280
     1
281
     0
  0
CLASS
  1
LWPOLYLINE
  2
AcDbPolyline
  3
AutoCAD 2000
 90
        0
280
     0
281
     1
  0
CLASS
  1
HATCH
  2
AcDbHatch
  3
AutoCAD 2000
 90
        0
280
     0
281
     1
  0
CLASS
  1
XRECORD
  2
AcDbXrecord
  3
AutoCAD 2000
 90
        0
280
     0
281
     0
  0
CLASS
  1
LONG_TRANSACTION
  2
AcDbLongTransaction
  3
ObjectDBX Classes
 90
   -65536
280
     1
281
     0
  0
CLASS
  1
LWPOLYLINE
  2
AcDbPolyline
  3
AutoCAD 2000
 90
        0
280
     0
281
     1
  0
CLASS
  1
HATCH
  2
AcDbHatch
  3
AutoCAD 2000
 90
        0
280
     0
281
     1
  0
CLASS
  1
XRECORD
  2
AcDbXrecord
  3
AutoCAD 2000
 90
        0
280
     0
281
     0
  0
CLASS
  1
DICTIONARYVAR
  2
AcDbDictionaryVar
  3
AutoCAD 2000
 90
        0
280
     0
281
     0
  0
CLASS
  1
TABLESTYLE
  2
AcDbTableStyle
  3
ObjectDBX Classes
 90
     2047
280
     1
281
     0
  0
CLASS
  1
SORTENTSTABLE
  2
AcDbSortentsTable
  3
AutoCAD 2000
 90
        0
280
     0
281
     0
  0
ENDSEC
  0
SECTION
  2
TABLES
  0
TABLE
  2
VPORT
  5
8
330
0
100
AcDbSymbolTable
 70
     3
  0
VPORT
  5
8B9
330
8
100
AcDbSymbolTableRecord
100
AcDbViewportTableRecord
  2
*Active
 70
     0
 10
0.0
 20
0.0
 11
1.0
 21
1.0
 12
7.450395604691774
 22
5.646569380368756
 13
0.0
 23
0.0
 14
0.063
 24
0.063
 15
0.25
 25
0.25
 16
0.0
 26
0.0
 36
1.0
 17
0.0
 27
0.0
 37
0.0
 40
28.66054028840943
 41
1.87741935483871
 42
50.0
 43
0.0
 44
0.0
 50
0.0
 51
0.0
 71
     0
 72
   100
 73
     1
 74
     0
 75
     0
 76
     0
 77
     0
 78
     0
281
     0
 65
     1
110
0.0
120
0.0
130
0.0
111
1.0
121
0.0
131
0.0
112
0.0
122
1.0
132
0.0
 79
     0
146
0.0
  0
ENDTAB
  0
TABLE
  2
LTYPE
  5
5
330
0
100
AcDbSymbolTable
 70
     2
  0
LTYPE
  5
13
330
5
100
AcDbSymbolTableRecord
100
AcDbLinetypeTableRecord
  2
ByBlock
 70
     0
  3

 72
    65
 73
     0
 40
0.0
  0
LTYPE
  5
14
330
5
100
AcDbSymbolTableRecord
100
AcDbLinetypeTableRecord
  2
ByLayer
 70
     0
  3

 72
    65
 73
     0
 40
0.0
  0
LTYPE
  5
15
330
5
100
AcDbSymbolTableRecord
100
AcDbLinetypeTableRecord
  2
CONTINUOUS
 70
     0
  3
Solid line
 72
    65
 73
     0
 40
0.0
  0
LTYPE
  5
39
330
5
100
AcDbSymbolTableRecord
100
AcDbLinetypeTableRecord
  2
HIDDEN
 70
     0
  3
_ _ _ _ _ _ _ _ _ _ _ _ _ _ _ _ _ _ _ _ _ _ _
 72
    65
 73
     2
 40
0.375
 49
0.25
 74
     0
 49
-0.125
 74
     0
  0
ENDTAB
  0
TABLE
  2
LAYER
  5
2
102
{ACAD_XDICTIONARY
360
7F7
102
}
330
0
100
AcDbSymbolTable
 70
     2
  0
LAYER
  5
10
330
2
100
AcDbSymbolTableRecord
100
AcDbLayerTableRecord
  2
0
 70
     0
 62
     7
  6
CONTINUOUS
370
    -3
390
F
  0
LAYER
  5
48
330
2
100
AcDbSymbolTableRecord
100
AcDbLayerTableRecord
  2
HIDDEN
 70
     0
 62
   253
  6
HIDDEN
370
    -3
390
F
  0
ENDTAB
  0
TABLE
  2
STYLE
  5
3
330
0
100
AcDbSymbolTable
 70
     1
  0
STYLE
  5
11
330
3
100
AcDbSymbolTableRecord
100
AcDbTextStyleTableRecord
  2
STANDARD
 70
     0
 40
0.0
 41
1.0
 50
0.0
 71
     0
 42
0.225
  3
TXT
  4

  0
ENDTAB
  0
TABLE
  2
VIEW
  5
6
330
0
100
AcDbSymbolTable
 70
     0
  0
ENDTAB
  0
TABLE
  2
UCS
  5
7
330
0
100
AcDbSymbolTable
 70
     0
  0
ENDTAB
  0
TABLE
  2
APPID
  5
9
330
0
100
AcDbSymbolTable
 70
     1
  0
APPID
  5
12
330
9
100
AcDbSymbolTableRecord
100
AcDbRegAppTableRecord
  2
ACAD
 70
     0
  0
ENDTAB
  0
TABLE
  2
DIMSTYLE
  5
A
330
0
100
AcDbSymbolTable
 70
     1
100
AcDbDimStyleTable
  0
DIMSTYLE
105
51E
330
A
100
AcDbSymbolTableRecord
100
AcDbDimStyleTableRecord
  2
Standard
 70
     0
  3

  4

340
11
  0
ENDTAB
  0
TABLE
  2
BLOCK_RECORD
  5
1
330
0
100
AcDbSymbolTable
 70
     1
  0
BLOCK_RECORD
  5
1E
102
{ACAD_XDICTIONARY
360
5AD
102
}
330
1
100
AcDbSymbolTableRecord
100
AcDbBlockTableRecord
  2
*Model_Space
340
21
  0
BLOCK_RECORD
  5
1A
330
1
100
AcDbSymbolTableRecord
100
AcDbBlockTableRecord
  2
*Paper_Space
340
1D
  0
BLOCK_RECORD
  5
30
330
1
100
AcDbSymbolTableRecord
100
AcDbBlockTableRecord
  2
BOTMTABS
340
0
  0
ENDTAB
  0
ENDSEC
  0
SECTION
  2
BLOCKS
  0
BLOCK
  5
53
330
1E
100
AcDbEntity
  8
0
100
AcDbBlockBegin
  2
*Model_Space
 70
     0
 10
0.0
 20
0.0
 30
0.0
  3
*Model_Space
  1

  4

  0
ENDBLK
  5
54
330
1E
100
AcDbEntity
  8
0
100
AcDbBlockEnd
  0
BLOCK
  5
51
330
1A
100
AcDbEntity
 67
     1
  8
0
100
AcDbBlockBegin
  2
*Paper_Space
 70
     0
 10
0.0
 20
0.0
 30
0.0
  3
*Paper_Space
  1

  4

  0
ENDBLK
  5
52
330
1A
100
AcDbEntity
 67
     1
  8
0
100
AcDbBlockEnd
  0
BLOCK
  5
2F1
330
30
100
AcDbEntity
  8
0
100
AcDbBlockBegin
  2
BOTMTABS
 70
     0
 10
0.0
 20
0.0
 30
0.0
  3
BOTMTABS
  1

  4

  0
LINE
  5
2F2
330
30
100
AcDbEntity
  8
HIDDEN
100
AcDbLine
 10
-1.611749892439889
 20
1.051776695296637
 30
0.0
 11
-1.562252417756831
 21
1.002279220613578
 31
0.0
  0
LINE
  5
2F3
330
30
100
AcDbEntity
  8
HIDDEN
100
AcDbLine
 10
-1.768024062419585
 20
0.7965075759508249
 30
0.0
 11
-1.562252417756831
 21
1.002279220613578
 31
0.0
  0
LINE
  5
2F4
330
30
100
AcDbEntity
  8
HIDDEN
100
AcDbLine
 10
-1.817521537102643
 20
0.8460050506338854
 30
0.0
 11
-1.611749892439889
 21
1.051776695296637
 31
0.0
  0
ARC
  5
2F5
330
30
100
AcDbEntity
  8
HIDDEN
100
AcDbCircle
 10
-1.718526587736527
 20
0.7470101012677661
 30
0.0
 40
0.07
100
AcDbArc
 50
134.9999999999997
 51
179.9999999999999
  0
ARC
  5
2F6
330
30
100
AcDbEntity
  8
HIDDEN
100
AcDbCircle
 10
-1.718526587736527
 20
0.7470101012677679
 30
0.0
 40
0.14
100
AcDbArc
 50
134.9999999999997
 51
179.9999999999999
  0
LINE
  5
2F7
330
30
100
AcDbEntity
  8
HIDDEN
100
AcDbLine
 10
1.817521537102646
 20
0.8460050506338854
 30
0.0
 11
1.611749892439892
 21
1.051776695296637
 31
0.0
  0
LINE
  5
2F8
330
30
100
AcDbEntity
  8
HIDDEN
100
AcDbLine
 10
1.611749892439892
 20
1.051776695296637
 30
0.0
 11
1.562252417756834
 21
1.002279220613578
 31
0.0
  0
LINE
  5
2F9
330
30
100
AcDbEntity
  8
HIDDEN
100
AcDbLine
 10
1.768024062419588
 20
0.7965075759508249
 30
0.0
 11
1.562252417756834
 21
1.002279220613578
 31
0.0
  0
ARC
  5
2FA
330
30
100
AcDbEntity
  8
HIDDEN
100
AcDbCircle
 10
1.71852658773653
 20
0.7470101012677661
 30
0.0
 40
0.07
100
AcDbArc
 50
0.0000000000001018
 51
45.0000000000003
  0
ARC
  5
2FB
330
30
100
AcDbEntity
  8
HIDDEN
100
AcDbCircle
 10
1.71852658773653
 20
0.7470101012677679
 30
0.0
 40
0.14
100
AcDbArc
 50
0.0000000000001018
 51
45.0000000000003
  0
ARC
  5
2FC
330
30
100
AcDbEntity
  8
HIDDEN
100
AcDbCircle
 10
1.71852658773653
 20
-0.7470101012677679
 30
0.0
 40
0.14
100
AcDbArc
 50
314.9999999999997
 51
359.9999999999999
  0
LINE
  5
2FD
330
30
100
AcDbEntity
  8
HIDDEN
100
AcDbLine
 10
1.817521537102646
 20
-0.8460050506338854
 30
0.0
 11
1.611749892439892
 21
-1.051776695296637
 31
0.0
  0
ARC
  5
2FE
330
30
100
AcDbEntity
  8
HIDDEN
100
AcDbCircle
 10
1.71852658773653
 20
-0.7470101012677661
 30
0.0
 40
0.07
100
AcDbArc
 50
314.9999999999997
 51
359.9999999999999
  0
LINE
  5
2FF
330
30
100
AcDbEntity
  8
HIDDEN
100
AcDbLine
 10
1.768024062419588
 20
-0.7965075759508249
 30
0.0
 11
1.562252417756834
 21
-1.002279220613578
 31
0.0
  0
LINE
  5
300
330
30
100
AcDbEntity
  8
HIDDEN
100
AcDbLine
 10
1.611749892439892
 20
-1.051776695296637
 30
0.0
 11
1.562252417756834
 21
-1.002279220613578
 31
0.0
  0
ARC
  5
301
330
30
100
AcDbEntity
  8
HIDDEN
100
AcDbCircle
 10
-1.718526587736527
 20
-0.7470101012677661
 30
0.0
 40
0.07
100
AcDbArc
 50
180.0000000000001
 51
225.0000000000003
  0
LINE
  5
302
330
30
100
AcDbEntity
  8
HIDDEN
100
AcDbLine
 10
-1.768024062419585
 20
-0.7965075759508249
 30
0.0
 11
-1.562252417756831
 21
-1.002279220613578
 31
0.0
  0
ARC
  5
303
330
30
100
AcDbEntity
  8
HIDDEN
100
AcDbCircle
 10
-1.718526587736527
 20
-0.7470101012677679
 30
0.0
 40
0.14
100
AcDbArc
 50
180.0000000000001
 51
225.0000000000003
  0
LINE
  5
304
330
30
100
AcDbEntity
  8
HIDDEN
100
AcDbLine
 10
-1.817521537102643
 20
-0.8460050506338854
 30
0.0
 11
-1.611749892439889
 21
-1.051776695296637
 31
0.0
  0
LINE
  5
305
330
30
100
AcDbEntity
  8
HIDDEN
100
AcDbLine
 10
-1.611749892439889
 20
-1.051776695296637
 30
0.0
 11
-1.562252417756831
 21
-1.002279220613578
 31
0.0
  0
ENDBLK
  5
306
330
30
100
AcDbEntity
  8
0
100
AcDbBlockEnd
  0
ENDSEC
  0
SECTION
  2
ENTITIES
  0
ARC
  5
7A1
330
1E
100
AcDbEntity
  8
HIDDEN
100
AcDbCircle
 10
-0.8918292431081163
 20
15.65487344348406
 30
0.0
 40
0.614379897890597
100
AcDbArc
 50
142.6345886841343
 51
218.5600800074032
  0
LINE
  5
7A3
330
1E
100
AcDbEntity
  8
0
100
AcDbLine
 10
-1.787515794281504
 20
16.78243153111181
 30
0.0
 11
-1.850015794281504
 21
16.78243153111181
 31
0.0
  0
LINE
  5
7A4
330
1E
100
AcDbEntity
  8
0
100
AcDbLine
 10
-1.787515794281504
 20
14.53243153111181
 30
0.0
 11
-1.850015794281504
 21
14.53243153111181
 31
0.0
  0
LINE
  5
7A5
330
1E
100
AcDbEntity
  8
HIDDEN
100
AcDbLine
 10
-0.4139892065449757
 20
14.53243153111181
 30
0.0
 11
0.4160107934550226
 21
14.53243153111181
 31
0.0
  0
LINE
  5
7A6
330
1E
100
AcDbEntity
  8
HIDDEN
100
AcDbLine
 10
-0.4139892065449757
 20
16.78243153111181
 30
0.0
 11
0.4160107934550226
 21
16.78243153111181
 31
0.0
  0
LINE
  5
7A7
330
1E
100
AcDbEntity
  8
HIDDEN
100
AcDbLine
 10
-0.4989892065449766
 20
14.6173104243882
 30
0.0
 11
-0.4989892065449766
 21
16.69743153111181
 31
0.0
  0
CIRCLE
  5
7A8
330
1E
100
AcDbEntity
  8
HIDDEN
100
AcDbCircle
 10
0.0010107934550234
 20
15.65743153111181
 30
0.0
 40
0.375
  0
LINE
  5
7AA
330
1E
100
AcDbEntity
  8
HIDDEN
100
AcDbLine
 10
0.5010107934550234
 20
14.61675209556453
 30
0.0
 11
0.5010107934550234
 21
16.69743153111181
 31
0.0
  0
ARC
  5
7AB
330
1E
100
AcDbEntity
  8
HIDDEN
100
AcDbCircle
 10
0.9292863569293992
 20
15.65466054417833
 30
0.0
 40
0.5805205305018613
100
AcDbArc
 50
320.2186302814387
 51
38.54988183947664
  0
LINE
  5
7AD
330
1E
100
AcDbEntity
  8
0
100
AcDbLine
 10
1.789537381191554
 20
16.78243153111182
 30
0.0
 11
1.852037381191554
 21
16.78243153111182
 31
0.0
  0
LINE
  5
7AE
330
1E
100
AcDbEntity
  8
0
100
AcDbLine
 10
1.789537381191554
 20
14.53243153111182
 30
0.0
 11
1.852037381191554
 21
14.53243153111182
 31
0.0
  0
LINE
  5
7AF
330
1E
100
AcDbEntity
  8
0
100
AcDbLine
 10
1.859537381191554
 20
14.53243153111182
 30
0.0
 11
1.859537381191554
 21
16.78243153111181
 31
0.0
  0
LINE
  5
7B0
330
1E
100
AcDbEntity
  8
0
100
AcDbLine
 10
1.929537381191555
 20
15.07118153111181
 30
0.0
 11
1.929537381191555
 21
16.24368153111181
 31
0.0
  0
LINE
  5
7B1
330
1E
100
AcDbEntity
  8
0
100
AcDbLine
 10
-1.857515794281504
 20
14.53243153111181
 30
0.0
 11
-1.857515794281508
 21
16.78243153111181
 31
0.0
  0
LINE
  5
7B2
330
1E
100
AcDbEntity
  8
0
100
AcDbLine
 10
-1.927515794281506
 20
15.07118153111181
 30
0.0
 11
-1.927515794281504
 21
16.24368153111181
 31
0.0
  0
ARC
  5
7B3
330
1E
100
AcDbEntity
  8
0
100
AcDbCircle
 10
1.859537381191554
 20
15.07118153111181
 30
0.0
 40
0.07
100
AcDbArc
 50
270.0
 51
0.0
  0
ARC
  5
7B4
330
1E
100
AcDbEntity
  8
0
100
AcDbCircle
 10
1.859537381191554
 20
16.24368153111181
 30
0.0
 40
0.07
100
AcDbArc
 50
0.0
 51
90.00000000000003
  0
ARC
  5
7B5
330
1E
100
AcDbEntity
  8
0
100
AcDbCircle
 10
-1.857515794281504
 20
15.07118153111181
 30
0.0
 40
0.07
100
AcDbArc
 50
180.0
 51
270.0
  0
ARC
  5
7B6
330
1E
100
AcDbEntity
  8
0
100
AcDbCircle
 10
-1.857515794281504
 20
16.24368153111181
 30
0.0
 40
0.07
100
AcDbArc
 50
90.00000000000003
 51
180.0
  0
LINE
  5
7B8
330
1E
100
AcDbEntity
  8
0
100
AcDbLine
 10
1.782010793455026
 20
16.79843153111182
 30
0.0
 11
1.782010793455026
 21
16.78243153111182
 31
0.0
  0
LINE
  5
7B9
330
1E
100
AcDbEntity
  8
0
100
AcDbLine
 10
1.938010793455025
 20
14.56943153111182
 30
0.0
 11
1.938010793455025
 21
16.74543153111182
 31
0.0
  0
LINE
  5
7BA
330
1E
100
AcDbEntity
  8
0
100
AcDbLine
 10
1.938010793455025
 20
14.27743153111181
 30
0.0
 11
1.938010793455025
 21
17.03743153111181
 31
0.0
  0
LINE
  5
7BB
330
1E
100
AcDbEntity
  8
0
100
AcDbLine
 10
2.037010793455025
 20
14.27743153111181
 30
0.0
 11
2.037010793455025
 21
17.03743153111182
 31
0.0
  0
LINE
  5
7BC
330
1E
100
AcDbEntity
  8
0
100
AcDbLine
 10
-1.779989206544979
 20
14.51643153111181
 30
0.0
 11
-1.779989206544979
 21
14.53243153111181
 31
0.0
  0
LINE
  5
7BD
330
1E
100
AcDbEntity
  8
0
100
AcDbLine
 10
-1.935989206544978
 20
14.56943153111181
 30
0.0
 11
-1.935989206544985
 21
16.74543153111182
 31
0.0
  0
LINE
  5
7BE
330
1E
100
AcDbEntity
  8
0
100
AcDbLine
 10
-1.935989206544976
 20
14.27743153111181
 30
0.0
 11
-1.935989206544985
 21
17.03743153111182
 31
0.0
  0
LINE
  5
7BF
330
1E
100
AcDbEntity
  8
0
100
AcDbLine
 10
-2.034989206544978
 20
14.27743153111181
 30
0.0
 11
-2.034989206544985
 21
17.03743153111182
 31
0.0
  0
LINE
  5
7C0
330
1E
100
AcDbEntity
  8
0
100
AcDbLine
 10
-1.664989206544984
 20
17.30843153111182
 30
0.0
 11
1.667010793455024
 21
17.30843153111182
 31
0.0
  0
LINE
  5
7C1
330
1E
100
AcDbEntity
  8
0
100
AcDbLine
 10
-1.664989206544984
 20
17.40743153111182
 30
0.0
 11
1.667010793455024
 21
17.40743153111182
 31
0.0
  0
ARC
  5
7C2
330
1E
100
AcDbEntity
  8
0
100
AcDbCircle
 10
-1.664989206544984
 20
17.03743153111182
 30
0.0
 40
0.271
100
AcDbArc
 50
89.99999999999996
 51
180.0000000000001
  0
ARC
  5
7C3
330
1E
100
AcDbEntity
  8
0
100
AcDbCircle
 10
-1.664989206544986
 20
17.03743153111182
 30
0.0
 40
0.37
100
AcDbArc
 50
89.99999999999996
 51
180.0000000000002
  0
ARC
  5
7C4
330
1E
100
AcDbEntity
  8
0
100
AcDbCircle
 10
-1.883989206544984
 20
16.74643153111182
 30
0.0
 40
0.052
100
AcDbArc
 50
90.00000000000003
 51
180.0000000000001
  0
LINE
  5
7C5
330
1E
100
AcDbEntity
  8
0
100
AcDbLine
 10
-1.779989206544979
 20
16.79843153111182
 30
0.0
 11
-1.883989206544984
 21
16.79843153111182
 31
0.0
  0
ARC
  5
7C6
330
1E
100
AcDbEntity
  8
0
100
AcDbCircle
 10
1.667010793455024
 20
17.03743153111182
 30
0.0
 40
0.37
100
AcDbArc
 50
0.0
 51
89.99999999999996
  0
ARC
  5
7C7
330
1E
100
AcDbEntity
  8
0
100
AcDbCircle
 10
1.667010793455024
 20
17.03743153111181
 30
0.0
 40
0.271
100
AcDbArc
 50
0.0
 51
89.99999999999996
  0
LINE
  5
7C8
330
1E
100
AcDbEntity
  8
0
100
AcDbLine
 10
1.782010793455026
 20
16.79843153111182
 30
0.0
 11
1.886010793455025
 21
16.79843153111182
 31
0.0
  0
ARC
  5
7C9
330
1E
100
AcDbEntity
  8
0
100
AcDbCircle
 10
1.886010793455025
 20
16.74643153111182
 30
0.0
 40
0.052
100
AcDbArc
 50
0.0
 51
90.00000000000081
  0
LINE
  5
7CA
330
1E
100
AcDbEntity
  8
0
100
AcDbLine
 10
-1.664989206544977
 20
14.00643153111181
 30
0.0
 11
1.667010793455024
 21
14.00643153111181
 31
0.0
  0
LINE
  5
7CB
330
1E
100
AcDbEntity
  8
0
100
AcDbLine
 10
-1.664989206544977
 20
13.90743153111181
 30
0.0
 11
1.667010793455024
 21
13.90743153111181
 31
0.0
  0
ARC
  5
7CC
330
1E
100
AcDbEntity
  8
0
100
AcDbCircle
 10
-1.883989206544976
 20
14.56843153111181
 30
0.0
 40
0.052
100
AcDbArc
 50
180.0000000000001
 51
270.0
  0
ARC
  5
7CD
330
1E
100
AcDbEntity
  8
0
100
AcDbCircle
 10
-1.664989206544977
 20
14.27743153111181
 30
0.0
 40
0.271
100
AcDbArc
 50
180.0000000000001
 51
270.0
  0
ARC
  5
7CE
330
1E
100
AcDbEntity
  8
0
100
AcDbCircle
 10
-1.664989206544977
 20
14.27743153111181
 30
0.0
 40
0.37
100
AcDbArc
 50
180.0000000000002
 51
270.0
  0
LINE
  5
7CF
330
1E
100
AcDbEntity
  8
0
100
AcDbLine
 10
-1.779989206544979
 20
14.51643153111181
 30
0.0
 11
-1.883989206544976
 21
14.51643153111181
 31
0.0
  0
ARC
  5
7D0
330
1E
100
AcDbEntity
  8
0
100
AcDbCircle
 10
1.667010793455024
 20
14.27743153111181
 30
0.0
 40
0.37
100
AcDbArc
 50
270.0
 51
0.0
  0
ARC
  5
7D1
330
1E
100
AcDbEntity
  8
0
100
AcDbCircle
 10
1.667010793455024
 20
14.27743153111181
 30
0.0
 40
0.271
100
AcDbArc
 50
270.0
 51
0.0
  0
LINE
  5
7D2
330
1E
100
AcDbEntity
  8
0
100
AcDbLine
 10
1.782010793455019
 20
14.51643153111182
 30
0.0
 11
1.886010793455025
 21
14.51643153111182
 31
0.0
  0
ARC
  5
7D3
330
1E
100
AcDbEntity
  8
0
100
AcDbCircle
 10
1.886010793455025
 20
14.56843153111182
 30
0.0
 40
0.052
100
AcDbArc
 50
270.0000000000008
 51
0.0
  0
LINE
  5
7D4
330
1E
100
AcDbEntity
  8
0
100
AcDbLine
 10
-1.779989206544979
 20
16.78243153111182
 30
0.0
 11
-1.779989206544979
 21
16.79843153111182
 31
0.0
  0
LINE
  5
7D5
330
1E
100
AcDbEntity
  8
0
100
AcDbLine
 10
-1.779989206544979
 20
14.53243153111181
 30
0.0
 11
-1.779989206544979
 21
16.78243153111182
 31
0.0
  0
LINE
  5
7D6
330
1E
100
AcDbEntity
  8
0
100
AcDbLine
 10
1.782010793455026
 20
16.78243153111182
 30
0.0
 11
1.782010793455019
 21
14.53243153111181
 31
0.0
  0
LINE
  5
7D7
330
1E
100
AcDbEntity
  8
0
100
AcDbLine
 10
1.782010793455019
 20
14.53243153111181
 30
0.0
 11
1.782010793455019
 21
14.51643153111182
 31
0.0
  0
ARC
  5
7D8
330
1E
100
AcDbEntity
  8
HIDDEN
100
AcDbCircle
 10
0.5010107934550234
 20
14.53243153111181
 30
0.0
 40
0.085
100
AcDbArc
 50
90.00000000000003
 51
180.0
  0
ARC
  5
7D9
330
1E
100
AcDbEntity
  8
HIDDEN
100
AcDbCircle
 10
-0.4989892065449766
 20
14.53243153111181
 30
0.0
 40
0.085
100
AcDbArc
 50
0.0
 51
90.00000000000003
  0
ARC
  5
7DA
330
1E
100
AcDbEntity
  8
HIDDEN
100
AcDbCircle
 10
-0.4989892065449766
 20
16.78243153111181
 30
0.0
 40
0.085
100
AcDbArc
 50
270.0
 51
0.0
  0
ARC
  5
7DB
330
1E
100
AcDbEntity
  8
HIDDEN
100
AcDbCircle
 10
0.5010107934550234
 20
16.78243153111181
 30
0.0
 40
0.085
100
AcDbArc
 50
180.0
 51
270.0
  0
ARC
  5
7DC
330
1E
100
AcDbEntity
  8
HIDDEN
100
AcDbCircle
 10
-0.4535250410737213
 20
14.54549113966605
 30
0.0
 40
0.085
100
AcDbArc
 50
122.1825943224717
 51
188.8380715007999
  0
ARC
  5
7DD
330
1E
100
AcDbEntity
  8
HIDDEN
100
AcDbCircle
 10
0.4554690394413576
 20
14.5449819858993
 30
0.0
 40
0.085
100
AcDbArc
 50
351.5090953420562
 51
58.45912697867998
  0
ARC
  5
7DE
330
1E
100
AcDbEntity
  8
HIDDEN
100
AcDbCircle
 10
0.4555646955201311
 20
16.7692562489088
 30
0.0
 40
0.085
100
AcDbArc
 50
302.3208547426131
 51
8.916988804141033
  0
ARC
  5
7DF
330
1E
100
AcDbEntity
  8
HIDDEN
100
AcDbCircle
 10
-0.4535885995247639
 20
16.76896951119413
 30
0.0
 40
0.085
100
AcDbArc
 50
170.8873130826224
 51
237.715423825411
  0
LINE
  5
7E2
330
1E
100
AcDbEntity
  8
0
100
AcDbLine
 10
-1.610739098984866
 20
14.60565483581518
 30
0.0
 11
-1.561241624301808
 21
14.65515231049823
 31
0.0
  0
LINE
  5
7E3
330
1E
100
AcDbEntity
  8
0
100
AcDbLine
 10
-1.767013268964561
 20
14.86092395516099
 30
0.0
 11
-1.561241624301808
 21
14.65515231049823
 31
0.0
  0
LINE
  5
7E4
330
1E
100
AcDbEntity
  8
0
100
AcDbLine
 10
-1.816510743647619
 20
14.81142648047793
 30
0.0
 11
-1.610739098984866
 21
14.60565483581518
 31
0.0
  0
ARC
  5
7E5
330
1E
100
AcDbEntity
  8
0
100
AcDbCircle
 10
-1.717515794281503
 20
14.91042142984405
 30
0.0
 40
0.07
100
AcDbArc
 50
180.0000000000001
 51
225.0000000000003
  0
ARC
  5
7E6
330
1E
100
AcDbEntity
  8
0
100
AcDbCircle
 10
-1.717515794281503
 20
14.91042142984404
 30
0.0
 40
0.14
100
AcDbArc
 50
180.0000000000001
 51
225.0000000000003
  0
LINE
  5
7E7
330
1E
100
AcDbEntity
  8
0
100
AcDbLine
 10
1.81853233055767
 20
14.81142648047793
 30
0.0
 11
1.612760685894916
 21
14.60565483581518
 31
0.0
  0
LINE
  5
7E8
330
1E
100
AcDbEntity
  8
0
100
AcDbLine
 10
1.612760685894916
 20
14.60565483581518
 30
0.0
 11
1.563263211211858
 21
14.65515231049823
 31
0.0
  0
LINE
  5
7E9
330
1E
100
AcDbEntity
  8
0
100
AcDbLine
 10
1.769034855874612
 20
14.86092395516099
 30
0.0
 11
1.563263211211858
 21
14.65515231049823
 31
0.0
  0
ARC
  5
7EA
330
1E
100
AcDbEntity
  8
0
100
AcDbCircle
 10
1.719537381191554
 20
14.91042142984404
 30
0.0
 40
0.07
100
AcDbArc
 50
314.9999999999997
 51
359.9999999999999
  0
ARC
  5
7EB
330
1E
100
AcDbEntity
  8
0
100
AcDbCircle
 10
1.719537381191554
 20
14.91042142984404
 30
0.0
 40
0.14
100
AcDbArc
 50
314.9999999999997
 51
359.9999999999999
  0
ARC
  5
7EC
330
1E
100
AcDbEntity
  8
0
100
AcDbCircle
 10
1.719537381191554
 20
16.40444163237958
 30
0.0
 40
0.14
100
AcDbArc
 50
0.0000000000001018
 51
45.00000000000024
  0
LINE
  5
7ED
330
1E
100
AcDbEntity
  8
0
100
AcDbLine
 10
1.81853233055767
 20
16.5034365817457
 30
0.0
 11
1.612760685894916
 21
16.70920822640845
 31
0.0
  0
ARC
  5
7EE
330
1E
100
AcDbEntity
  8
0
100
AcDbCircle
 10
1.719537381191554
 20
16.40444163237958
 30
0.0
 40
0.07
100
AcDbArc
 50
0.0000000000001018
 51
45.00000000000024
  0
LINE
  5
7EF
330
1E
100
AcDbEntity
  8
0
100
AcDbLine
 10
1.769034855874612
 20
16.45393910706263
 30
0.0
 11
1.563263211211858
 21
16.65971075172539
 31
0.0
  0
LINE
  5
7F0
330
1E
100
AcDbEntity
  8
0
100
AcDbLine
 10
1.612760685894916
 20
16.70920822640845
 30
0.0
 11
1.563263211211858
 21
16.65971075172539
 31
0.0
  0
ARC
  5
7F1
330
1E
100
AcDbEntity
  8
0
100
AcDbCircle
 10
-1.717515794281503
 20
16.40444163237958
 30
0.0
 40
0.07
100
AcDbArc
 50
134.9999999999996
 51
179.9999999999999
  0
LINE
  5
7F2
330
1E
100
AcDbEntity
  8
0
100
AcDbLine
 10
-1.767013268964561
 20
16.45393910706264
 30
0.0
 11
-1.561241624301807
 21
16.65971075172539
 31
0.0
  0
ARC
  5
7F3
330
1E
100
AcDbEntity
  8
0
100
AcDbCircle
 10
-1.717515794281503
 20
16.40444163237958
 30
0.0
 40
0.14
100
AcDbArc
 50
134.9999999999996
 51
179.9999999999999
  0
LINE
  5
7F4
330
1E
100
AcDbEntity
  8
0
100
AcDbLine
 10
-1.816510743647619
 20
16.5034365817457
 30
0.0
 11
-1.610739098984865
 21
16.70920822640845
 31
0.0
  0
LINE
  5
7F5
330
1E
100
AcDbEntity
  8
0
100
AcDbLine
 10
-1.610739098984865
 20
16.70920822640845
 30
0.0
 11
-1.561241624301807
 21
16.65971075172539
 31
0.0
  0
ELLIPSE
  5
7FA
330
1E
100
AcDbEntity
  8
HIDDEN
100
AcDbEllipse
 10
1.619894524048696
 20
16.54694045968323
 30
0.0
 11
-8.104519874495245E-16
 21
0.1399546451337536
 31
0.0
210
0.0
220
0.0
230
-1.0
 40
0.5000000000000116
 41
1.337422558543092
 42
3.061762667877555
  0
ELLIPSE
  5
7FB
330
1E
100
AcDbEntity
  8
HIDDEN
100
AcDbEllipse
 10
1.619894524048696
 20
14.76792260254038
 30
0.0
 11
9.701761017644363E-16
 21
0.1399546451337554
 31
0.0
210
0.0
220
0.0
230
-1.0
 40
0.500000000000005
 41
0.0798299857122422
 42
1.804170095046697
  0
ELLIPSE
  5
7FC
330
1E
100
AcDbEntity
  8
HIDDEN
100
AcDbEllipse
 10
1.3193669266461
 20
13.83356789474817
 30
0.0
 11
-9.123948476030376E-14
 21
1.073867394173392
 31
0.0
210
0.0
220
0.0
230
-1.0
 40
0.4999999999999958
 41
0.7785721816413496
 42
0.8621700546673261
  0
ELLIPSE
  5
7FD
330
1E
100
AcDbEntity
  8
HIDDEN
100
AcDbEllipse
 10
1.319366926646101
 20
17.48129516747545
 30
0.0
 11
-3.520117959329930E-13
 21
1.073867394173037
 31
0.0
210
0.0
220
0.0
230
-1.0
 40
0.5000000000000173
 41
2.279422598922956
 42
2.363020471948985
  0
LINE
  5
7FE
330
1E
100
AcDbEntity
  8
HIDDEN
100
AcDbLine
 10
1.789537381191554
 20
16.78243153111181
 30
0.0
 11
1.727037381191554
 21
16.78243153111181
 31
0.0
  0
LINE
  5
7FF
330
1E
100
AcDbEntity
  8
HIDDEN
100
AcDbLine
 10
1.789537381191554
 20
14.53243153111181
 30
0.0
 11
1.727037381191554
 21
14.53243153111181
 31
0.0
  0
ELLIPSE
  5
800
330
1E
100
AcDbEntity
  8
HIDDEN
100
AcDbEllipse
 10
0.7091802383344135
 20
14.76792260254038
 30
0.0
 11
5.708658159772217E-16
 21
0.1399546451337555
 31
0.0
210
0.0
220
0.0
230
-1.0
 40
0.5000000000000028
 41
4.479015212132883
 42
6.203355321467335
  0
LINE
  5
801
330
1E
100
AcDbEntity
  8
HIDDEN
100
AcDbLine
 10
0.7035998811915558
 20
14.90743153111181
 30
0.0
 11
1.164537381191555
 21
14.90743153111181
 31
0.0
  0
LINE
  5
802
330
1E
100
AcDbEntity
  8
HIDDEN
100
AcDbLine
 10
1.625474881191554
 20
14.90743153111181
 30
0.0
 11
1.164537381191555
 21
14.90743153111181
 31
0.0
  0
ELLIPSE
  5
803
330
1E
100
AcDbEntity
  8
HIDDEN
100
AcDbEllipse
 10
1.009707835737008
 20
13.83356789474817
 30
0.0
 11
3.365226604294477E-13
 21
1.073867394173598
 31
0.0
210
0.0
220
0.0
230
-1.0
 40
0.4999999999999759
 41
-0.862170054667605
 42
-0.7785721816416604
  0
LINE
  5
804
330
1E
100
AcDbEntity
  8
HIDDEN
100
AcDbLine
 10
0.6326388192794656
 20
14.5980723143427
 30
0.0
 11
1.696435943103643
 21
14.5980723143427
 31
0.0
  0
LINE
  5
805
330
1E
100
AcDbEntity
  8
HIDDEN
100
AcDbLine
 10
1.626152157587585
 20
14.95390458991751
 30
0.0
 11
0.7130004775684529
 21
14.95390458991751
 31
0.0
  0
LINE
  5
806
330
1E
100
AcDbEntity
  8
HIDDEN
100
AcDbLine
 10
1.626152157587585
 20
14.84839818614241
 30
0.0
 11
0.7130004775684529
 21
14.84839818614241
 31
0.0
  0
LINE
  5
807
330
1E
100
AcDbEntity
  8
HIDDEN
100
AcDbLine
 10
0.6020373811915514
 20
14.53243153111181
 30
0.0
 11
0.5395373811915536
 21
14.53243153111181
 31
0.0
  0
ELLIPSE
  5
808
330
1E
100
AcDbEntity
  8
HIDDEN
100
AcDbEllipse
 10
0.7091802383344139
 20
16.54694045968323
 30
0.0
 11
8.104519874495859E-16
 21
0.1399546451337536
 31
0.0
210
0.0
220
0.0
230
-1.0
 40
0.5000000000000117
 41
3.22142263930203
 42
4.945762748636494
  0
LINE
  5
809
330
1E
100
AcDbEntity
  8
HIDDEN
100
AcDbLine
 10
0.7035998811915558
 20
16.4074315311118
 30
0.0
 11
1.164537381191555
 21
16.4074315311118
 31
0.0
  0
LINE
  5
80A
330
1E
100
AcDbEntity
  8
HIDDEN
100
AcDbLine
 10
1.625474881191554
 20
16.4074315311118
 30
0.0
 11
1.164537381191555
 21
16.4074315311118
 31
0.0
  0
LINE
  5
80B
330
1E
100
AcDbEntity
  8
HIDDEN
100
AcDbLine
 10
0.5381230412417755
 20
16.80739180908759
 30
0.0
 11
0.5500505792066206
 21
16.79075594459193
 31
0.0
  0
LINE
  5
80C
330
1E
100
AcDbEntity
  8
HIDDEN
100
AcDbLine
 10
0.6020373811915518
 20
16.78243153111181
 30
0.0
 11
0.539537381191554
 21
16.78243153111181
 31
0.0
  0
LINE
  5
80D
330
1E
100
AcDbEntity
  8
HIDDEN
100
AcDbLine
 10
1.626152157587585
 20
16.46646487608122
 30
0.0
 11
0.7130004775684529
 21
16.46646487608122
 31
0.0
  0
LINE
  5
80E
330
1E
100
AcDbEntity
  8
HIDDEN
100
AcDbLine
 10
1.626152157587585
 20
16.36095847230611
 30
0.0
 11
0.7130004775684529
 21
16.36095847230611
 31
0.0
  0
LINE
  5
80F
330
1E
100
AcDbEntity
  8
HIDDEN
100
AcDbLine
 10
0.6326388192794661
 20
16.71679074788093
 30
0.0
 11
1.696435943103644
 21
16.71679074788093
 31
0.0
  0
ELLIPSE
  5
810
330
1E
100
AcDbEntity
  8
HIDDEN
100
AcDbEllipse
 10
1.009707835737009
 20
17.48129516747545
 30
0.0
 11
-8.653880184614185E-14
 21
1.073867394173387
 31
0.0
210
0.0
220
0.0
230
-1.0
 40
0.4999999999999972
 41
3.920164835231141
 42
4.003762708257113
  0
ELLIPSE
  5
811
330
1E
100
AcDbEntity
  8
HIDDEN
100
AcDbEllipse
 10
1.352037381191553
 20
15.65743153111181
 30
0.0
 11
-1.963780934224508E-16
 21
0.3750000000000018
 31
0.0
210
0.0
220
0.0
230
-1.0
 40
0.4999999999999976
 41
0.0000000000000007
 42
6.283185307179587
  0
ELLIPSE
  5
812
330
1E
100
AcDbEntity
  8
HIDDEN
100
AcDbEllipse
 10
-1.617872937138646
 20
14.76792260254039
 30
0.0
 11
-2.247969016283492E-16
 21
0.1399546451337572
 31
0.0
210
0.0
220
0.0
230
-1.0
 40
0.4999999999999942
 41
4.479015212132915
 42
6.203355321467339
  0
ELLIPSE
  5
813
330
1E
100
AcDbEntity
  8
HIDDEN
100
AcDbEllipse
 10
-1.617872937138645
 20
16.54694045968324
 30
0.0
 11
9.938389335147429E-16
 21
0.1399546451337572
 31
0.0
210
0.0
220
0.0
230
-1.0
 40
0.4999999999999951
 41
3.221422639302035
 42
4.945762748636461
  0
ELLIPSE
  5
814
330
1E
100
AcDbEntity
  8
HIDDEN
100
AcDbEllipse
 10
-1.31734533973605
 20
17.48129516747545
 30
0.0
 11
3.785205651539021E-13
 21
1.073867394173016
 31
0.0
210
0.0
220
0.0
230
-1.0
 40
0.5000000000000187
 41
3.920164835230569
 42
4.0037627082566
  0
ELLIPSE
  5
815
330
1E
100
AcDbEntity
  8
HIDDEN
100
AcDbEllipse
 10
-1.31734533973605
 20
13.83356789474817
 30
0.0
 11
9.617134880139923E-14
 21
1.073867394173395
 31
0.0
210
0.0
220
0.0
230
-1.0
 40
0.4999999999999957
 41
-0.8621700546673313
 42
-0.778572181641355
  0
LINE
  5
816
330
1E
100
AcDbEntity
  8
HIDDEN
100
AcDbLine
 10
-1.787515794281504
 20
14.53243153111181
 30
0.0
 11
-1.725015794281504
 21
14.53243153111181
 31
0.0
  0
LINE
  5
817
330
1E
100
AcDbEntity
  8
HIDDEN
100
AcDbLine
 10
-1.787515794281503
 20
16.78243153111181
 30
0.0
 11
-1.725015794281503
 21
16.78243153111181
 31
0.0
  0
ELLIPSE
  5
818
330
1E
100
AcDbEntity
  8
HIDDEN
100
AcDbEllipse
 10
-0.7071586514243631
 20
16.54694045968324
 30
0.0
 11
5.531186921644901E-16
 21
0.1399546451337572
 31
0.0
210
0.0
220
0.0
230
-1.0
 40
0.499999999999993
 41
1.33742255854312
 42
3.061762667877542
  0
LINE
  5
819
330
1E
100
AcDbEntity
  8
HIDDEN
100
AcDbLine
 10
-0.7015782942815054
 20
16.40743153111181
 30
0.0
 11
-1.162515794281505
 21
16.40743153111181
 31
0.0
  0
LINE
  5
81A
330
1E
100
AcDbEntity
  8
HIDDEN
100
AcDbLine
 10
-1.623453294281504
 20
16.40743153111181
 30
0.0
 11
-1.162515794281505
 21
16.40743153111181
 31
0.0
  0
ELLIPSE
  5
81B
330
1E
100
AcDbEntity
  8
HIDDEN
100
AcDbEllipse
 10
-1.007686248826958
 20
17.48129516747545
 30
0.0
 11
9.332011490264954E-14
 21
1.073867394173394
 31
0.0
210
0.0
220
0.0
230
-1.0
 40
0.4999999999999951
 41
2.279422598922464
 42
2.363020471948436
  0
LINE
  5
81C
330
1E
100
AcDbEntity
  8
HIDDEN
100
AcDbLine
 10
-0.6306172323694153
 20
16.71679074788093
 30
0.0
 11
-1.694414356193593
 21
16.71679074788093
 31
0.0
  0
LINE
  5
81D
330
1E
100
AcDbEntity
  8
HIDDEN
100
AcDbLine
 10
-1.624130570677534
 20
16.36095847230611
 30
0.0
 11
-0.7109788906584025
 21
16.36095847230611
 31
0.0
  0
LINE
  5
81E
330
1E
100
AcDbEntity
  8
HIDDEN
100
AcDbLine
 10
-1.624130570677534
 20
16.46646487608122
 30
0.0
 11
-0.7109788906584025
 21
16.46646487608122
 31
0.0
  0
LINE
  5
81F
330
1E
100
AcDbEntity
  8
HIDDEN
100
AcDbLine
 10
-0.600015794281501
 20
16.78243153111181
 30
0.0
 11
-0.5375157942815032
 21
16.78243153111181
 31
0.0
  0
ELLIPSE
  5
820
330
1E
100
AcDbEntity
  8
HIDDEN
100
AcDbEllipse
 10
-0.7071586514243635
 20
14.76792260254039
 30
0.0
 11
2.247969016283354E-16
 21
0.1399546451337572
 31
0.0
210
0.0
220
0.0
230
-1.0
 40
0.4999999999999941
 41
0.0798299857122471
 42
1.804170095046671
  0
LINE
  5
821
330
1E
100
AcDbEntity
  8
HIDDEN
100
AcDbLine
 10
-0.7015782942815054
 20
14.90743153111182
 30
0.0
 11
-1.162515794281505
 21
14.90743153111182
 31
0.0
  0
LINE
  5
822
330
1E
100
AcDbEntity
  8
HIDDEN
100
AcDbLine
 10
-1.623453294281504
 20
14.90743153111182
 30
0.0
 11
-1.162515794281505
 21
14.90743153111182
 31
0.0
  0
LINE
  5
823
330
1E
100
AcDbEntity
  8
HIDDEN
100
AcDbLine
 10
-0.5361014543317251
 20
14.50747125313604
 30
0.0
 11
-0.5480289922965702
 21
14.52410711763169
 31
0.0
  0
LINE
  5
824
330
1E
100
AcDbEntity
  8
HIDDEN
100
AcDbLine
 10
-0.6000157942815014
 20
14.53243153111181
 30
0.0
 11
-0.5375157942815036
 21
14.53243153111181
 31
0.0
  0
LINE
  5
825
330
1E
100
AcDbEntity
  8
HIDDEN
100
AcDbLine
 10
-1.624130570677534
 20
14.84839818614241
 30
0.0
 11
-0.7109788906584025
 21
14.84839818614241
 31
0.0
  0
LINE
  5
826
330
1E
100
AcDbEntity
  8
HIDDEN
100
AcDbLine
 10
-1.624130570677534
 20
14.95390458991751
 30
0.0
 11
-0.7109788906584025
 21
14.95390458991751
 31
0.0
  0
LINE
  5
827
330
1E
100
AcDbEntity
  8
HIDDEN
100
AcDbLine
 10
-0.6306172323694157
 20
14.5980723143427
 30
0.0
 11
-1.694414356193593
 21
14.5980723143427
 31
0.0
  0
ELLIPSE
  5
828
330
1E
100
AcDbEntity
  8
HIDDEN
100
AcDbEllipse
 10
-1.007686248826959
 20
13.83356789474817
 30
0.0
 11
-8.692410372435268E-14
 21
1.073867394173389
 31
0.0
210
0.0
220
0.0
230
-1.0
 40
0.4999999999999966
 41
0.7785721816413469
 42
0.8621700546673199
  0
ELLIPSE
  5
829
330
1E
100
AcDbEntity
  8
HIDDEN
100
AcDbEllipse
 10
-1.350015794281503
 20
15.65743153111181
 30
0.0
 11
1.428204315799654E-16
 21
0.375
 31
0.0
210
0.0
220
0.0
230
-1.0
 40
0.5
 41
3.141592653589793
 42
9.424777960769379
  0
ENDSEC
  0
SECTION
  2
OBJECTS
  0
DICTIONARY
  5
C
330
0
100
AcDbDictionary
281
     1
  3
ACAD_COLOR
350
6E0
  3
ACAD_GROUP
350
D
  3
ACAD_LAYOUT
350
19
  3
ACAD_MATERIAL
350
6DF
  3
ACAD_MLINESTYLE
350
16
  3
ACAD_PLOTSETTINGS
350
18
  3
ACAD_PLOTSTYLENAME
350
E
  3
ACAD_TABLESTYLE
350
6E1
  3
ACDBHEADERROUNDTRIPXREC
350
8C0
  3
AcDbVariableDictionary
350
695
  0
DICTIONARY
  5
7F7
330
2
100
AcDbDictionary
280
     1
281
     1
  3
ACAD_LAYERFILTERS
360
7F9
  3
ACLYDICTIONARY
360
7F8
  0
DICTIONARY
  5
5AD
330
1E
100
AcDbDictionary
280
     1
281
     1
  3
ACAD_SORTENTS
360
7F6
  0
DICTIONARY
  5
6E0
102
{ACAD_REACTORS
330
C
102
}
330
C
100
AcDbDictionary
281
     1
  0
DICTIONARY
  5
D
102
{ACAD_REACTORS
330
C
102
}
330
C
100
AcDbDictionary
281
     1
  0
DICTIONARY
  5
19
102
{ACAD_REACTORS
330
C
102
}
330
C
100
AcDbDictionary
281
     1
  3
Layout1
350
1D
  3
Model
350
21
  0
DICTIONARY
  5
6DF
102
{ACAD_REACTORS
330
C
102
}
330
C
100
AcDbDictionary
281
     1
  0
DICTIONARY
  5
16
102
{ACAD_REACTORS
330
C
102
}
330
C
100
AcDbDictionary
281
     1
  3
Standard
350
17
  0
DICTIONARY
  5
18
102
{ACAD_REACTORS
330
C
102
}
330
C
100
AcDbDictionary
281
     1
  0
ACDBDICTIONARYWDFLT
  5
E
102
{ACAD_REACTORS
330
C
102
}
330
C
100
AcDbDictionary
281
     1
  3
Normal
350
F
100
AcDbDictionaryWithDefault
340
F
  0
DICTIONARY
  5
6E1
102
{ACAD_REACTORS
330
C
102
}
330
C
100
AcDbDictionary
281
     1
  3
Standard
350
6E2
  0
DICTIONARY
  5
8C0
102
{ACAD_REACTORS
330
C
102
}
330
C
100
AcDbDictionary
281
     1
  3
COLORDICT
350
8C1
  3
MATERIALDICT
350
8C2
  0
DICTIONARY
  5
695
102
{ACAD_REACTORS
330
C
102
}
330
C
100
AcDbDictionary
281
     1
  3
CTABLESTYLE
350
7E1
  0
DICTIONARY
  5
7F9
102
{ACAD_REACTORS
330
7F7
102
}
330
7F7
100
AcDbDictionary
281
     1
  0
DICTIONARY
  5
7F8
102
{ACAD_REACTORS
330
7F7
102
}
330
7F7
100
AcDbDictionary
281
     1
1001
ACAD
1000
<All
  0
SORTENTSTABLE
  5
7F6
102
{ACAD_REACTORS
330
5AD
102
}
330
5AD
100
AcDbSortentsTable
330
1E
331
0
  5
4D2
331
7CD
  5
888
331
7D3
  5
88E
331
7D8
  5
893
331
7EB
  5
868
331
7EC
  5
869
331
7BD
  5
878
331
7B0
  5
858
331
809
  5
84A
331
80A
  5
84B
331
7E7
  5
864
331
7DE
  5
899
331
815
  5
818
331
81A
  5
81D
331
7EE
  5
86B
331
805
  5
846
331
806
  5
847
331
7BF
  5
87A
331
7E5
  5
862
331
7C2
  5
87D
331
814
  5
817
331
80D
  5
84E
331
7B9
  5
874
331
7A5
  5
837
331
816
  5
819
331
7F5
  5
872
331
7B2
  5
85A
331
7D4
  5
88F
331
7B5
  5
85D
331
817
  5
81A
331
7A3
  5
835
331
824
  5
827
331
7C7
  5
882
331
7CA
  5
885
331
7DF
  5
89A
331
7B6
  5
85E
331
7E9
  5
866
331
7B8
  5
873
331
7D7
  5
892
331
7BC
  5
877
331
7CF
  5
88A
331
7C6
  5
881
331
7CE
  5
889
331
7F2
  5
86F
331
7C0
  5
87B
331
7ED
  5
86A
331
821
  5
824
331
818
  5
81B
331
7AB
  5
854
331
7DA
  5
895
331
7FB
  5
83C
331
7FC
  5
83D
331
7DC
  5
897
331
826
  5
829
331
7BE
  5
879
331
801
  5
842
331
802
  5
843
331
7AF
  5
857
331
7C4
  5
87F
331
7BB
  5
876
331
7AD
  5
855
331
813
  5
816
331
7B1
  5
859
331
7C3
  5
87E
331
7F0
  5
86D
331
7A7
  5
839
331
807
  5
848
331
808
  5
849
331
7A6
  5
838
331
7C5
  5
880
331
7AA
  5
853
331
80C
  5
84D
331
81D
  5
820
331
7E3
  5
860
331
7A4
  5
836
331
811
  5
852
331
7E8
  5
865
331
80B
  5
84C
331
7C8
  5
883
331
825
  5
828
331
7DB
  5
896
331
7D1
  5
88C
331
7A1
  5
834
331
7F3
  5
870
331
7F4
  5
871
331
822
  5
825
331
820
  5
823
331
829
  5
833
331
7A8
  5
83A
331
7D0
  5
88B
331
819
  5
81C
331
7CB
  5
886
331
7FD
  5
83E
331
7FE
  5
83F
331
7FF
  5
840
331
800
  5
841
331
80F
  5
850
331
823
  5
826
331
81F
  5
822
331
81E
  5
821
331
803
  5
844
331
804
  5
845
331
7F1
  5
86E
331
7B3
  5
85B
331
7FA
  5
83B
331
7D6
  5
891
331
7D5
  5
890
331
7DD
  5
898
331
7BA
  5
875
331
7EF
  5
86C
331
810
  5
851
331
7D2
  5
88D
331
7E6
  5
863
331
7D9
  5
894
331
7C1
  5
87C
331
7CC
  5
887
331
812
  5
815
331
7EA
  5
867
331
7E4
  5
861
331
7C9
  5
884
331
7AE
  5
856
331
7B4
  5
85C
331
7E2
  5
85F
331
81C
  5
81F
331
81B
  5
81E
331
80E
  5
84F
331
827
  5
831
331
828
  5
832
  0
LAYOUT
  5
1D
102
{ACAD_REACTORS
330
19
102
}
102
{ACAD_XDICTIONARY
360
8C3
102
}
330
19
100
AcDbPlotSettings
  1

  2
HP LaserJet 2100 Series PS
  4

  6

 40
0.0
 41
0.0
 42
0.0
 43
0.0
 44
0.0
 45
0.0
 46
0.0
 47
0.0
 48
0.0
 49
0.0
140
0.0
141
0.0
142
1.0
143
1.0
 70
   688
 72
     0
 73
     0
 74
     5
  7

 75
    16
147
1.0
148
0.0
149
0.0
100
AcDbLayout
  1
Layout1
 70
     0
 71
     1
 10
0.0
 20
0.0
 11
12.0
 21
9.0
 12
0.0
 22
0.0
 32
0.0
 14
1.000000000000000E+20
 24
1.000000000000000E+20
 34
1.000000000000000E+20
 15
-1.000000000000000E+20
 25
-1.000000000000000E+20
 35
-1.000000000000000E+20
146
0.0
 13
0.0
 23
0.0
 33
0.0
 16
1.0
 26
0.0
 36
0.0
 17
0.0
 27
1.0
 37
0.0
 76
     0
330
1A
  0
LAYOUT
  5
21
102
{ACAD_REACTORS
330
19
102
}
102
{ACAD_XDICTIONARY
360
8C5
102
}
330
19
100
AcDbPlotSettings
  1

  2
HP LaserJet 2100 Series PS
  4
Letter
  6

 40
5.365749835968018
 41
5.408084392547607
 42
5.4080810546875
 43
5.365753173828125
 44
215.8999938964844
 45
279.3999938964844
 46
0.0
 47
0.0
 48
0.0
 49
0.0
140
0.0
141
0.0
142
1.0
143
2.482074006153913
 70
 28336
 72
     0
 73
     0
 74
     2
  7

 75
     0
147
0.4028888733859896
148
0.0
149
0.0
100
AcDbLayout
  1
Model
 70
     1
 71
     0
 10
0.0
 20
0.0
 11
12.0
 21
9.0
 12
0.0
 22
0.0
 32
0.0
 14
0.0
 24
0.0
 34
0.0
 15
0.0
 25
0.0
 35
0.0
146
0.0
 13
0.0
 23
0.0
 33
0.0
 16
1.0
 26
0.0
 36
0.0
 17
0.0
 27
1.0
 37
0.0
 76
     0
330
1E
  0
MLINESTYLE
  5
17
102
{ACAD_REACTORS
330
16
102
}
330
16
100
AcDbMlineStyle
  2
STANDARD
 70
     0
  3

 62
   256
 51
90.0
 52
90.0
 71
     2
 49
0.5
 62
   256
  6
BYLAYER
 49
-0.5
 62
   256
  6
BYLAYER
  0
ACDBPLACEHOLDER
  5
F
102
{ACAD_REACTORS
330
E
102
}
330
E
  0
ACAD_PROXY_OBJECT
  5
6E2
102
{ACAD_REACTORS
330
6E1
102
}
330
6E1
100
AcDbProxyObject
 90
      499
 91
      512
 95
   983063
 70
     0
 93
     1841
310
4214DD185B99185C9928B81E85EB51B8AE3F2E07A17AD46E2B8FC02B5E8DC0F42B1CFD028000000C1008070000C3001FDFF8000000C1003FBFF000000182007F7FE00000030400FEFFC00000060801FDFF8000000C1003FBFF00000018200000000000000681FA0B0000001820100E000186003FBFF000000182007F7FE000
310
00030400FEFFC00000060801FDFF8000000C1003FBFF000000182007F7FE000000304000AD7A3703D0AC73F4160000003040201C00030C007F7FE00000030400FEFFC00000060801FDFF8000000C1003FBFF000000182007F7FE00000030400FEFFC000000608000
340
11
340
11
340
11
 94
        0
  0
XRECORD
  5
8C1
102
{ACAD_REACTORS
330
8C0
102
}
330
8C0
100
AcDbXrecord
340
6E0
  0
XRECORD
  5
8C2
102
{ACAD_REACTORS
330
8C0
102
}
330
8C0
100
AcDbXrecord
340
6DF
  0
DICTIONARYVAR
  5
7E1
102
{ACAD_REACTORS
330
695
102
}
330
695
100
DictionaryVariables
280
     0
  1
STANDARD
  0
DICTIONARY
  5
8C3
330
1D
100
AcDbDictionary
280
     1
281
     1
  3
ACAD_XREC_ROUNDTRIP
360
8C4
  0
DICTIONARY
  5
8C5
330
21
100
AcDbDictionary
280
     1
281
     1
  3
ACAD_XREC_ROUNDTRIP
360
8C6
  0
XRECORD
  5
8C4
102
{ACAD_REACTORS
330
8C3
102
}
330
8C3
100
AcDbXrecord
102
SHADEPLOT
 70
     0
102
SHADEPLOTRESLEVEL
 70
     2
102
SHADEPLOTCUSTOMDPI
 70
   300
  0
XRECORD
  5
8C6
102
{ACAD_REACTORS
330
8C5
102
}
330
8C5
100
AcDbXrecord
102
SHADEPLOT
 70
     0
102
SHADEPLOTRESLEVEL
 70
     2
102
SHADEPLOTCUSTOMDPI
 70
   300
  0
ENDSEC
  0
EOF
