  0
SECTION
  2
HEADER
  9
$ACADVER
  1
AC1015
  9
$ACADMAINTVER
 70
     6
  9
$DWGCODEPAGE
  3
ANSI_1252
  9
$INSBASE
 10
0.0
 20
0.0
 30
0.0
  9
$EXTMIN
 10
-11.97064386194892
 20
-2.781090338726029
 30
0.0
  9
$EXTMAX
 10
12.09706216917611
 20
17.57206642064103
 30
0.0
  9
$LIMMIN
 10
0.0
 20
0.0
  9
$LIMMAX
 10
20.0
 20
26.25
  9
$ORTHOMODE
 70
     1
  9
$REGENMODE
 70
     1
  9
$FILLMODE
 70
     1
  9
$QTEXTMODE
 70
     0
  9
$MIRRTEXT
 70
     1
  9
$LTSCALE
 40
0.75
  9
$ATTMODE
 70
     1
  9
$TEXTSIZE
 40
0.225
  9
$TRACEWID
 40
0.05
  9
$TEXTSTYLE
  7
STANDARD
  9
$CLAYER
  8
0
  9
$CELTYPE
  6
ByLayer
  9
$CECOLOR
 62
   256
  9
$CELTSCALE
 40
1.0
  9
$DISPSILH
 70
     0
  9
$DIMSCALE
 40
2.5
  9
$DIMASZ
 40
0.125
  9
$DIMEXO
 40
0.062
  9
$DIMDLI
 40
0.375
  9
$DIMRND
 40
0.0
  9
$DIMDLE
 40
0.0
  9
$DIMEXE
 40
0.08
  9
$DIMTP
 40
0.0
  9
$DIMTM
 40
0.0
  9
$DIMTXT
 40
0.09
  9
$DIMCEN
 40
-0.06
  9
$DIMTSZ
 40
0.0
  9
$DIMTOL
 70
     0
  9
$DIMLIM
 70
     0
  9
$DIMTIH
 70
     1
  9
$DIMTOH
 70
     1
  9
$DIMSE1
 70
     0
  9
$DIMSE2
 70
     0
  9
$DIMTAD
 70
     0
  9
$DIMZIN
 70
     0
  9
$DIMBLK
  1

  9
$DIMASO
 70
     0
  9
$DIMSHO
 70
     0
  9
$DIMPOST
  1

  9
$DIMAPOST
  1

  9
$DIMALT
 70
     0
  9
$DIMALTD
 70
     2
  9
$DIMALTF
 40
25.4
  9
$DIMLFAC
 40
1.0
  9
$DIMTOFL
 70
     0
  9
$DIMTVP
 40
0.0
  9
$DIMTIX
 70
     0
  9
$DIMSOXD
 70
     0
  9
$DIMSAH
 70
     0
  9
$DIMBLK1
  1

  9
$DIMBLK2
  1

  9
$DIMSTYLE
  2
Standard
  9
$DIMCLRD
 70
     0
  9
$DIMCLRE
 70
     0
  9
$DIMCLRT
 70
     0
  9
$DIMTFAC
 40
1.0
  9
$DIMGAP
 40
0.09
  9
$DIMJUST
 70
     0
  9
$DIMSD1
 70
     0
  9
$DIMSD2
 70
     0
  9
$DIMTOLJ
 70
     1
  9
$DIMTZIN
 70
     0
  9
$DIMALTZ
 70
     0
  9
$DIMALTTZ
 70
     0
  9
$DIMUPT
 70
     0
  9
$DIMDEC
 70
     4
  9
$DIMTDEC
 70
     4
  9
$DIMALTU
 70
     2
  9
$DIMALTTD
 70
     2
  9
$DIMTXSTY
  7
STANDARD
  9
$DIMAUNIT
 70
     0
  9
$DIMADEC
 70
     0
  9
$DIMALTRND
 40
0.0
  9
$DIMAZIN
 70
     0
  9
$DIMDSEP
 70
    46
  9
$DIMATFIT
 70
     3
  9
$DIMFRAC
 70
     0
  9
$DIMLDRBLK
  1

  9
$DIMLUNIT
 70
     2
  9
$DIMLWD
 70
    -2
  9
$DIMLWE
 70
    -2
  9
$DIMTMOVE
 70
     2
  9
$LUNITS
 70
     2
  9
$LUPREC
 70
     4
  9
$SKETCHINC
 40
0.1
  9
$FILLETRAD
 40
0.0
  9
$AUNITS
 70
     0
  9
$AUPREC
 70
     0
  9
$MENU
  1
acad
  9
$ELEVATION
 40
0.0
  9
$PELEVATION
 40
0.0
  9
$THICKNESS
 40
0.0
  9
$LIMCHECK
 70
     0
  9
$CHAMFERA
 40
0.0
  9
$CHAMFERB
 40
0.0
  9
$CHAMFERC
 40
0.0
  9
$CHAMFERD
 40
0.0
  9
$SKPOLY
 70
     0
  9
$TDCREATE
 40
2448063.993171991
  9
$TDUCREATE
 40
2448064.326505324
  9
$TDUPDATE
 40
2454946.985463553
  9
$TDUUPDATE
 40
2454947.318796887
  9
$TDINDWG
 40
0.2237392361
  9
$TDUSRTIMER
 40
0.2237392361
  9
$USRTIMER
 70
     1
  9
$ANGBASE
 50
0.0
  9
$ANGDIR
 70
     0
  9
$PDMODE
 70
     0
  9
$PDSIZE
 40
0.0
  9
$PLINEWID
 40
0.0
  9
$SPLFRAME
 70
     0
  9
$SPLINETYPE
 70
     6
  9
$SPLINESEGS
 70
     8
  9
$HANDSEED
  5
C28
  9
$SURFTAB1
 70
     6
  9
$SURFTAB2
 70
     6
  9
$SURFTYPE
 70
     6
  9
$SURFU
 70
     6
  9
$SURFV
 70
     6
  9
$UCSBASE
  2

  9
$UCSNAME
  2

  9
$UCSORG
 10
0.0
 20
0.0
 30
0.0
  9
$UCSXDIR
 10
1.0
 20
0.0
 30
0.0
  9
$UCSYDIR
 10
0.0
 20
1.0
 30
0.0
  9
$UCSORTHOREF
  2

  9
$UCSORTHOVIEW
 70
     0
  9
$UCSORGTOP
 10
0.0
 20
0.0
 30
0.0
  9
$UCSORGBOTTOM
 10
0.0
 20
0.0
 30
0.0
  9
$UCSORGLEFT
 10
0.0
 20
0.0
 30
0.0
  9
$UCSORGRIGHT
 10
0.0
 20
0.0
 30
0.0
  9
$UCSORGFRONT
 10
0.0
 20
0.0
 30
0.0
  9
$UCSORGBACK
 10
0.0
 20
0.0
 30
0.0
  9
$PUCSBASE
  2

  9
$PUCSNAME
  2

  9
$PUCSORG
 10
0.0
 20
0.0
 30
0.0
  9
$PUCSXDIR
 10
1.0
 20
0.0
 30
0.0
  9
$PUCSYDIR
 10
0.0
 20
1.0
 30
0.0
  9
$PUCSORTHOREF
  2

  9
$PUCSORTHOVIEW
 70
     0
  9
$PUCSORGTOP
 10
0.0
 20
0.0
 30
0.0
  9
$PUCSORGBOTTOM
 10
0.0
 20
0.0
 30
0.0
  9
$PUCSORGLEFT
 10
0.0
 20
0.0
 30
0.0
  9
$PUCSORGRIGHT
 10
0.0
 20
0.0
 30
0.0
  9
$PUCSORGFRONT
 10
0.0
 20
0.0
 30
0.0
  9
$PUCSORGBACK
 10
0.0
 20
0.0
 30
0.0
  9
$USERI1
 70
     0
  9
$USERI2
 70
     0
  9
$USERI3
 70
     0
  9
$USERI4
 70
     0
  9
$USERI5
 70
     0
  9
$USERR1
 40
0.0
  9
$USERR2
 40
0.0
  9
$USERR3
 40
0.0
  9
$USERR4
 40
0.0
  9
$USERR5
 40
0.0
  9
$WORLDVIEW
 70
     1
  9
$SHADEDGE
 70
     3
  9
$SHADEDIF
 70
    70
  9
$TILEMODE
 70
     1
  9
$MAXACTVP
 70
    16
  9
$PINSBASE
 10
0.0
 20
0.0
 30
0.0
  9
$PLIMCHECK
 70
     0
  9
$PEXTMIN
 10
1.000000000000000E+20
 20
1.000000000000000E+20
 30
1.000000000000000E+20
  9
$PEXTMAX
 10
-1.000000000000000E+20
 20
-1.000000000000000E+20
 30
-1.000000000000000E+20
  9
$PLIMMIN
 10
0.0
 20
0.0
  9
$PLIMMAX
 10
12.0
 20
9.0
  9
$UNITMODE
 70
     0
  9
$VISRETAIN
 70
     0
  9
$PLINEGEN
 70
     1
  9
$PSLTSCALE
 70
     0
  9
$TREEDEPTH
 70
  3020
  9
$CMLSTYLE
  2
Standard
  9
$CMLJUST
 70
     0
  9
$CMLSCALE
 40
1.0
  9
$PROXYGRAPHICS
 70
     1
  9
$MEASUREMENT
 70
     0
  9
$CELWEIGHT
370
    -1
  9
$ENDCAPS
280
     0
  9
$JOINSTYLE
280
     0
  9
$LWDISPLAY
290
     0
  9
$INSUNITS
 70
     0
  9
$HYPERLINKBASE
  1

  9
$STYLESHEET
  1

  9
$XEDIT
290
     1
  9
$CEPSNTYPE
380
     0
  9
$PSTYLEMODE
290
     1
  9
$FINGERPRINTGUID
  2
{36260161-DC21-11D6-BE3F-00508B5FCD51}
  9
$VERSIONGUID
  2
{56FF65B2-D337-4D15-B92A-6A5430CC7DFA}
  9
$EXTNAMES
290
     1
  9
$PSVPSCALE
 40
0.0
  9
$OLESTARTUP
290
     0
  0
ENDSEC
  0
SECTION
  2
CLASSES
  0
CLASS
  1
ACDBDICTIONARYWDFLT
  2
AcDbDictionaryWithDefault
  3
AutoCAD 2000
 90
        0
280
     0
281
     0
  0
CLASS
  1
ACDBPLACEHOLDER
  2
AcDbPlaceHolder
  3
ObjectDBX Classes
 90
        0
280
     0
281
     0
  0
CLASS
  1
LAYOUT
  2
AcDbLayout
  3
ObjectDBX Classes
 90
        0
280
     0
281
     0
  0
CLASS
  1
LONG_TRANSACTION
  2
AcDbLongTransaction
  3
ObjectDBX Classes
 90
   -65536
280
     1
281
     0
  0
CLASS
  1
LWPOLYLINE
  2
AcDbPolyline
  3
AutoCAD 2000
 90
        0
280
     0
281
     1
  0
CLASS
  1
HATCH
  2
AcDbHatch
  3
AutoCAD 2000
 90
        0
280
     0
281
     1
  0
CLASS
  1
XRECORD
  2
AcDbXrecord
  3
AutoCAD 2000
 90
        0
280
     0
281
     0
  0
CLASS
  1
TABLESTYLE
  2
AcDbTableStyle
  3
ObjectDBX Classes
 90
     2047
280
     1
281
     0
  0
CLASS
  1
DICTIONARYVAR
  2
AcDbDictionaryVar
  3
AutoCAD 2000
 90
        0
280
     0
281
     0
  0
ENDSEC
  0
SECTION
  2
TABLES
  0
TABLE
  2
VPORT
  5
8
330
0
100
AcDbSymbolTable
 70
     3
  0
VPORT
  5
C1A
330
8
100
AcDbSymbolTableRecord
100
AcDbViewportTableRecord
  2
*Active
 70
     0
 10
0.0
 20
0.0
 11
1.0
 21
1.0
 12
10.53186334963925
 22
3.549636073665539
 13
0.0
 23
0.0
 14
0.063
 24
0.063
 15
0.25
 25
0.25
 16
0.0
 26
0.0
 36
1.0
 17
0.0
 27
0.0
 37
0.0
 40
32.42021423587227
 41
1.87741935483871
 42
50.0
 43
0.0
 44
0.0
 50
0.0
 51
0.0
 71
     0
 72
   100
 73
     1
 74
     0
 75
     0
 76
     0
 77
     0
 78
     0
281
     0
 65
     1
110
0.0
120
0.0
130
0.0
111
1.0
121
0.0
131
0.0
112
0.0
122
1.0
132
0.0
 79
     0
146
0.0
  0
ENDTAB
  0
TABLE
  2
LTYPE
  5
5
330
0
100
AcDbSymbolTable
 70
     3
  0
LTYPE
  5
13
330
5
100
AcDbSymbolTableRecord
100
AcDbLinetypeTableRecord
  2
ByBlock
 70
     0
  3

 72
    65
 73
     0
 40
0.0
  0
LTYPE
  5
14
330
5
100
AcDbSymbolTableRecord
100
AcDbLinetypeTableRecord
  2
ByLayer
 70
     0
  3

 72
    65
 73
     0
 40
0.0
  0
LTYPE
  5
15
330
5
100
AcDbSymbolTableRecord
100
AcDbLinetypeTableRecord
  2
CONTINUOUS
 70
     0
  3
Solid line
 72
    65
 73
     0
 40
0.0
  0
LTYPE
  5
3B
330
5
100
AcDbSymbolTableRecord
100
AcDbLinetypeTableRecord
  2
HIDDEN
 70
     0
  3
_ _ _ _ _ _ _ _ _ _ _ _ _ _ _ _ _ _ _ _ _ _ _
 72
    65
 73
     2
 40
0.375
 49
0.25
 74
     0
 49
-0.125
 74
     0
  0
LTYPE
  5
3C
330
5
100
AcDbSymbolTableRecord
100
AcDbLinetypeTableRecord
  2
DASHED
 70
     0
  3
__ __ __ __ __ __ __ __ __ __ __ __ __ __ __
 72
    65
 73
     2
 40
0.75
 49
0.5
 74
     0
 49
-0.25
 74
     0
  0
ENDTAB
  0
TABLE
  2
LAYER
  5
2
102
{ACAD_XDICTIONARY
360
BB1
102
}
330
0
100
AcDbSymbolTable
 70
     4
  0
LAYER
  5
10
330
2
100
AcDbSymbolTableRecord
100
AcDbLayerTableRecord
  2
0
 70
     0
 62
     7
  6
CONTINUOUS
370
    -3
390
F
  0
LAYER
  5
46
330
2
100
AcDbSymbolTableRecord
100
AcDbLayerTableRecord
  2
DIM
 70
     0
 62
     5
  6
CONTINUOUS
370
    -3
390
F
  0
LAYER
  5
49
330
2
100
AcDbSymbolTableRecord
100
AcDbLayerTableRecord
  2
HIDDEN
 70
     0
 62
   253
  6
HIDDEN
370
    -3
390
F
  0
LAYER
  5
4B
330
2
100
AcDbSymbolTableRecord
100
AcDbLayerTableRecord
  2
DASHED
 70
     0
 62
     8
  6
DASHED
370
    -3
390
F
  0
ENDTAB
  0
TABLE
  2
STYLE
  5
3
330
0
100
AcDbSymbolTable
 70
     1
  0
STYLE
  5
11
330
3
100
AcDbSymbolTableRecord
100
AcDbTextStyleTableRecord
  2
STANDARD
 70
     0
 40
0.0
 41
1.0
 50
0.0
 71
     0
 42
0.225
  3
TXT
  4

  0
ENDTAB
  0
TABLE
  2
VIEW
  5
6
330
0
100
AcDbSymbolTable
 70
     0
  0
ENDTAB
  0
TABLE
  2
UCS
  5
7
330
0
100
AcDbSymbolTable
 70
     0
  0
ENDTAB
  0
TABLE
  2
APPID
  5
9
330
0
100
AcDbSymbolTable
 70
     1
  0
APPID
  5
12
330
9
100
AcDbSymbolTableRecord
100
AcDbRegAppTableRecord
  2
ACAD
 70
     0
  0
ENDTAB
  0
TABLE
  2
DIMSTYLE
  5
A
330
0
100
AcDbSymbolTable
 70
     1
100
AcDbDimStyleTable
  0
DIMSTYLE
105
9A4
330
A
100
AcDbSymbolTableRecord
100
AcDbDimStyleTableRecord
  2
Standard
 70
     0
  3

  4

340
11
  0
ENDTAB
  0
TABLE
  2
BLOCK_RECORD
  5
1
330
0
100
AcDbSymbolTable
 70
     1
  0
BLOCK_RECORD
  5
1E
330
1
100
AcDbSymbolTableRecord
100
AcDbBlockTableRecord
  2
*Model_Space
340
21
  0
BLOCK_RECORD
  5
1A
330
1
100
AcDbSymbolTableRecord
100
AcDbBlockTableRecord
  2
*Paper_Space
340
1D
  0
BLOCK_RECORD
  5
2B
330
1
100
AcDbSymbolTableRecord
100
AcDbBlockTableRecord
  2
4PBS44
340
0
102
{BLKREFS
331
8AE
102
}
  0
ENDTAB
  0
ENDSEC
  0
SECTION
  2
BLOCKS
  0
BLOCK
  5
53
330
1E
100
AcDbEntity
  8
0
100
AcDbBlockBegin
  2
*Model_Space
 70
     0
 10
0.0
 20
0.0
 30
0.0
  3
*Model_Space
  1

  4

  0
ENDBLK
  5
54
330
1E
100
AcDbEntity
  8
0
100
AcDbBlockEnd
  0
BLOCK
  5
51
330
1A
100
AcDbEntity
 67
     1
  8
0
100
AcDbBlockBegin
  2
*Paper_Space
 70
     0
 10
0.0
 20
0.0
 30
0.0
  3
*Paper_Space
  1

  4

  0
ENDBLK
  5
52
330
1A
100
AcDbEntity
 67
     1
  8
0
100
AcDbBlockEnd
  0
BLOCK
  5
111
330
2B
100
AcDbEntity
  8
0
100
AcDbBlockBegin
  2
4PBS44
 70
     0
 10
6.937500000000003
 20
6.96875
 30
0.0
  3
4PBS44
  1

  4

  0
ARC
  5
112
330
2B
100
AcDbEntity
  8
0
100
AcDbCircle
 10
6.702008928571424
 20
6.629464285714284
 30
0.0
 40
0.1399546451337564
100
AcDbArc
 50
76.62866803010834
 51
175.4260787400984
  0
ARC
  5
113
330
2B
100
AcDbEntity
  8
0
100
AcDbCircle
 10
4.922991071428571
 20
6.629464285714284
 30
0.0
 40
0.1399546451337564
100
AcDbArc
 50
4.573921259901612
 51
103.3713319698917
  0
ARC
  5
114
330
2B
100
AcDbEntity
  8
0
100
AcDbCircle
 10
3.988636363636364
 20
6.028409090909093
 30
0.0
 40
1.073867394173319
100
AcDbArc
 50
44.60890005433588
 51
49.39870535499551
  0
ARC
  5
115
330
2B
100
AcDbEntity
  8
0
100
AcDbCircle
 10
7.636363636363639
 20
6.028409090909093
 30
0.0
 40
1.073867394173319
100
AcDbArc
 50
130.6012946450045
 51
135.3910999456641
  0
LINE
  5
116
330
2B
100
AcDbEntity
  8
0
100
AcDbLine
 10
6.937500000000003
 20
6.96875
 30
0.0
 11
6.937500000000003
 21
6.84375
 31
0.0
  0
LINE
  5
117
330
2B
100
AcDbEntity
  8
0
100
AcDbLine
 10
4.687500000000001
 20
6.96875
 30
0.0
 11
4.687500000000001
 21
6.84375
 31
0.0
  0
ARC
  5
118
330
2B
100
AcDbEntity
  8
0
100
AcDbCircle
 10
4.922991071428571
 20
4.80803571428572
 30
0.0
 40
0.1399546451337564
100
AcDbArc
 50
256.6286680301083
 51
355.4260787400984
  0
LINE
  5
119
330
2B
100
AcDbEntity
  8
0
100
AcDbLine
 10
5.062500000000001
 20
4.796875000000004
 30
0.0
 11
5.0625
 21
5.718750000000002
 31
0.0
  0
LINE
  5
11A
330
2B
100
AcDbEntity
  8
0
100
AcDbLine
 10
5.062500000000001
 20
6.640625
 30
0.0
 11
5.0625
 21
5.718750000000002
 31
0.0
  0
ARC
  5
11B
330
2B
100
AcDbEntity
  8
0
100
AcDbCircle
 10
3.988636363636364
 20
5.409090909090909
 30
0.0
 40
1.073867394173319
100
AcDbArc
 50
310.6012946450045
 51
315.3910999456639
  0
LINE
  5
11C
330
2B
100
AcDbEntity
  8
0
100
AcDbLine
 10
4.753140783230887
 20
4.654952876175824
 30
0.0
 11
4.753140783230887
 21
6.78254712382418
 31
0.0
  0
LINE
  5
11D
330
2B
100
AcDbEntity
  8
0
100
AcDbLine
 10
5.108973058805701
 20
6.641979552792061
 30
0.0
 11
5.108973058805701
 21
4.815676192753798
 31
0.0
  0
LINE
  5
11E
330
2B
100
AcDbEntity
  8
0
100
AcDbLine
 10
5.003466655030597
 20
6.641979552792061
 30
0.0
 11
5.003466655030597
 21
4.815676192753798
 31
0.0
  0
LINE
  5
11F
330
2B
100
AcDbEntity
  8
0
100
AcDbLine
 10
4.687500000000001
 20
4.593749999999996
 30
0.0
 11
4.687500000000001
 21
4.46875
 31
0.0
  0
ARC
  5
120
330
2B
100
AcDbEntity
  8
0
100
AcDbCircle
 10
6.702008928571424
 20
4.80803571428572
 30
0.0
 40
0.1399546451337564
100
AcDbArc
 50
184.5739212599016
 51
283.3713319698916
  0
LINE
  5
121
330
2B
100
AcDbEntity
  8
0
100
AcDbLine
 10
6.562499999999994
 20
4.796875000000004
 30
0.0
 11
6.562499999999995
 21
5.718750000000002
 31
0.0
  0
LINE
  5
122
330
2B
100
AcDbEntity
  8
0
100
AcDbLine
 10
6.562499999999994
 20
6.640625
 30
0.0
 11
6.562499999999995
 21
5.718750000000002
 31
0.0
  0
LINE
  5
123
330
2B
100
AcDbEntity
  8
DIM
100
AcDbLine
 10
6.962460277975778
 20
4.465921320100443
 30
0.0
 11
6.945824413480119
 21
4.489776396030133
 31
0.0
  0
LINE
  5
124
330
2B
100
AcDbEntity
  8
0
100
AcDbLine
 10
6.937500000000003
 20
4.593749999999996
 30
0.0
 11
6.937500000000003
 21
4.46875
 31
0.0
  0
LINE
  5
125
330
2B
100
AcDbEntity
  8
0
100
AcDbLine
 10
6.621533344969406
 20
6.641979552792061
 30
0.0
 11
6.621533344969406
 21
4.815676192753798
 31
0.0
  0
LINE
  5
126
330
2B
100
AcDbEntity
  8
0
100
AcDbLine
 10
6.516026941194302
 20
6.641979552792061
 30
0.0
 11
6.516026941194302
 21
4.815676192753798
 31
0.0
  0
LINE
  5
127
330
2B
100
AcDbEntity
  8
0
100
AcDbLine
 10
6.871859216769116
 20
4.654952876175824
 30
0.0
 11
6.871859216769116
 21
6.78254712382418
 31
0.0
  0
ARC
  5
128
330
2B
100
AcDbEntity
  8
0
100
AcDbCircle
 10
7.636363636363639
 20
5.409090909090909
 30
0.0
 40
1.073867394173319
100
AcDbArc
 50
224.6089000543361
 51
229.3987053549955
  0
CIRCLE
  5
129
330
2B
100
AcDbEntity
  8
0
100
AcDbCircle
 10
5.812500000000001
 20
6.093749999999998
 30
0.0
 40
0.375
  0
ENDBLK
  5
12A
330
2B
100
AcDbEntity
  8
0
100
AcDbBlockEnd
  0
ENDSEC
  0
SECTION
  2
ENTITIES
  0
LINE
  5
77C
330
1E
100
AcDbEntity
  8
0
100
AcDbLine
 10
-8.217588261767023
 20
17.56869169785151
 30
0.0
 11
-9.967588261767023
 21
17.56869169785151
 31
0.0
  0
LINE
  5
77D
330
1E
100
AcDbEntity
  8
0
100
AcDbLine
 10
-10.21758826176702
 20
17.31869169785151
 30
0.0
 11
-10.21758826176702
 21
11.08781520317256
 31
0.0
  0
LINE
  5
77E
330
1E
100
AcDbEntity
  8
0
100
AcDbLine
 10
-7.967588261767023
 20
17.31869169785151
 30
0.0
 11
-7.967588261767023
 21
11.08781520317256
 31
0.0
  0
CIRCLE
  5
77F
330
1E
100
AcDbEntity
  8
0
100
AcDbCircle
 10
-9.092588261767023
 20
16.75619169785151
 30
0.0
 40
0.28125
  0
CIRCLE
  5
780
330
1E
100
AcDbEntity
  8
0
100
AcDbCircle
 10
-9.092588261767023
 20
14.75619169785151
 30
0.0
 40
0.28125
  0
LINE
  5
781
330
1E
100
AcDbEntity
  8
0
100
AcDbLine
 10
-8.21758826176702
 20
11.08781520317256
 30
0.0
 11
-8.217588261767023
 21
10.69365192444484
 31
0.0
  0
LINE
  5
782
330
1E
100
AcDbEntity
  8
0
100
AcDbLine
 10
-9.967588261767023
 20
11.08781520317256
 30
0.0
 11
-9.967588261767023
 21
10.69365192444484
 31
0.0
  0
LINE
  5
783
330
1E
100
AcDbEntity
  8
0
100
AcDbLine
 10
-7.967588261767023
 20
10.06869169785151
 30
0.0
 11
-7.967588261767023
 21
7.149112898377634
 31
0.0
  0
LINE
  5
784
330
1E
100
AcDbEntity
  8
0
100
AcDbLine
 10
-10.21758826176702
 20
10.06869169785151
 30
0.0
 11
-10.21758826176702
 21
7.149112898377634
 31
0.0
  0
LINE
  5
785
330
1E
100
AcDbEntity
  8
0
100
AcDbLine
 10
-8.467588261767023
 20
13.56869169785151
 30
0.0
 11
-8.467588261767023
 21
10.69365192444484
 31
0.0
  0
LINE
  5
786
330
1E
100
AcDbEntity
  8
0
100
AcDbLine
 10
-9.717588261767023
 20
13.56869169785151
 30
0.0
 11
-9.717588261767027
 21
10.69365192444484
 31
0.0
  0
ARC
  5
787
330
1E
100
AcDbEntity
  8
0
100
AcDbCircle
 10
-9.092588261767023
 20
10.20931669785151
 30
0.0
 40
0.6406250000000004
100
AcDbArc
 50
192.68038349182
 51
347.31961650818
  0
LINE
  5
788
330
1E
100
AcDbEntity
  8
0
100
AcDbLine
 10
-7.967588261767023
 20
17.31869169785151
 30
0.0
 11
-8.217588261767023
 21
17.56869169785151
 31
0.0
  0
LINE
  5
789
330
1E
100
AcDbEntity
  8
0
100
AcDbLine
 10
-9.967588261767023
 20
17.56869169785151
 30
0.0
 11
-10.21758826176702
 21
17.31869169785151
 31
0.0
  0
LINE
  5
7B0
330
1E
100
AcDbEntity
  8
0
100
AcDbLine
 10
-7.967588261767027
 20
4.984049388916533
 30
0.0
 11
-10.21758826176703
 21
4.984049388916533
 31
0.0
  0
LINE
  5
7B1
330
1E
100
AcDbEntity
  8
DASHED
100
AcDbLine
 10
-7.967588261767023
 20
5.046549388916533
 30
0.0
 11
-10.21758826176703
 21
5.046549388916533
 31
0.0
  0
LINE
  5
7B2
330
1E
100
AcDbEntity
  8
0
100
AcDbLine
 10
-7.967588261767023
 20
5.08434098638433
 30
0.0
 11
-7.967588261767023
 21
4.984049388916533
 31
0.0
  0
LINE
  5
7B3
330
1E
100
AcDbEntity
  8
0
100
AcDbLine
 10
-10.21758826176703
 20
5.090618637944775
 30
0.0
 11
-10.21758826176703
 21
4.984049388916532
 31
0.0
  0
ARC
  5
7B4
330
1E
100
AcDbEntity
  8
0
100
AcDbCircle
 10
-9.085912896281585
 20
6.697793715608446
 30
0.0
 40
0.4684152307000224
100
AcDbArc
 50
216.9136282255241
 51
322.1198117351944
  0
LINE
  5
7B5
330
1E
100
AcDbEntity
  8
0
100
AcDbLine
 10
-8.393983991686092
 20
7.18260654743152
 30
0.0
 11
-9.737111156756694
 21
7.18260654743152
 31
0.0
  0
LINE
  5
7B6
330
1E
100
AcDbEntity
  8
0
100
AcDbLine
 10
-9.483195330243998
 20
7.225020168496013
 30
0.0
 11
-8.570849498429418
 21
7.225020168496013
 31
0.0
  0
LINE
  5
7B7
330
1E
100
AcDbEntity
  8
0
100
AcDbLine
 10
-9.483195330243998
 20
7.152199410394854
 30
0.0
 11
-8.566471639351612
 21
7.152199410394854
 31
0.0
  0
LINE
  5
828
330
1E
100
AcDbEntity
  8
HIDDEN
100
AcDbLine
 10
-9.96758826176702
 20
10.69365192444484
 30
0.0
 11
-9.967588261767023
 21
10.06869169785151
 31
0.0
  0
LINE
  5
829
330
1E
100
AcDbEntity
  8
HIDDEN
100
AcDbLine
 10
-8.21758826176702
 20
10.69365192444484
 30
0.0
 11
-8.217588261767023
 21
10.06869169785151
 31
0.0
  0
LINE
  5
82A
330
1E
100
AcDbEntity
  8
0
100
AcDbLine
 10
-8.21758826176702
 20
11.06869169785151
 30
0.0
 11
-6.516309356881763
 21
11.06869169785151
 31
0.0
  0
LINE
  5
82B
330
1E
100
AcDbEntity
  8
0
100
AcDbLine
 10
-6.453809356881763
 20
11.06869169785151
 30
0.0
 11
-6.453809356881763
 21
10.06869169785151
 31
0.0
  0
LINE
  5
82C
330
1E
100
AcDbEntity
  8
0
100
AcDbLine
 10
-11.73136716665228
 20
11.06869169785151
 30
0.0
 11
-11.73136716665228
 21
10.06869169785151
 31
0.0
  0
LINE
  5
82D
330
1E
100
AcDbEntity
  8
DASHED
100
AcDbLine
 10
-11.66886716665228
 20
10.94369169785152
 30
0.0
 11
-10.21700082135231
 21
10.94346959516734
 31
0.0
  0
LINE
  5
82E
330
1E
100
AcDbEntity
  8
0
100
AcDbLine
 10
-11.91886716665228
 20
10.06869169785151
 30
0.0
 11
-6.266309356881763
 21
10.06869169785151
 31
0.0
  0
LINE
  5
82F
330
1E
100
AcDbEntity
  8
0
100
AcDbLine
 10
-10.21598414340749
 20
10.69365192444484
 30
0.0
 11
-7.961658839996442
 21
10.69365192444484
 31
0.0
  0
LINE
  5
830
330
1E
100
AcDbEntity
  8
0
100
AcDbLine
 10
-11.66886716665228
 20
11.06869169785151
 30
0.0
 11
-9.967588261767023
 21
11.06869169785151
 31
0.0
  0
LINE
  5
831
330
1E
100
AcDbEntity
  8
0
100
AcDbLine
 10
-11.91886716665228
 20
10.06869169785152
 30
0.0
 11
-11.91886716665228
 21
10.81869169785151
 31
0.0
  0
LINE
  5
832
330
1E
100
AcDbEntity
  8
0
100
AcDbLine
 10
-6.266309356881763
 20
10.06869169785151
 30
0.0
 11
-6.266309356881763
 21
10.81869169785151
 31
0.0
  0
LINE
  5
833
330
1E
100
AcDbEntity
  8
DASHED
100
AcDbLine
 10
-7.965420203258727
 20
10.94369169785151
 30
0.0
 11
-6.516309356881763
 21
10.94369169785151
 31
0.0
  0
LINE
  5
834
330
1E
100
AcDbEntity
  8
DASHED
100
AcDbLine
 10
-11.79386716665228
 20
10.06869169785152
 30
0.0
 11
-11.79386716665228
 21
10.81869169785152
 31
0.0
  0
LINE
  5
835
330
1E
100
AcDbEntity
  8
DASHED
100
AcDbLine
 10
-6.391309356881763
 20
10.06869169785151
 30
0.0
 11
-6.391309356881763
 21
10.81869169785151
 31
0.0
  0
ARC
  5
836
330
1E
100
AcDbEntity
  8
0
100
AcDbCircle
 10
-11.66886716665228
 20
10.81869169785151
 30
0.0
 40
0.25
100
AcDbArc
 50
90.0
 51
179.9999999999999
  0
ARC
  5
837
330
1E
100
AcDbEntity
  8
0
100
AcDbCircle
 10
-6.516309356881763
 20
10.81869169785151
 30
0.0
 40
0.25
100
AcDbArc
 50
0.0
 51
90.0
  0
ARC
  5
838
330
1E
100
AcDbEntity
  8
DASHED
100
AcDbCircle
 10
-11.66886716665228
 20
10.81869169785152
 30
0.0
 40
0.125
100
AcDbArc
 50
90.0
 51
179.9999999999999
  0
ARC
  5
839
330
1E
100
AcDbEntity
  8
DASHED
100
AcDbCircle
 10
-6.516309356881763
 20
10.81869169785151
 30
0.0
 40
0.125
100
AcDbArc
 50
0.0
 51
90.0
  0
INSERT
  5
8AE
330
1E
100
AcDbEntity
  8
0
100
AcDbBlockReference
  2
4PBS44
 10
-7.967588261767023
 20
7.149112898377634
 30
0.0
 42
0.8374799999999999
  0
ARC
  5
8C6
330
1E
100
AcDbEntity
  8
0
100
AcDbCircle
 10
-9.092588261767023
 20
13.42806669785151
 30
0.0
 40
0.6406250000000001
100
AcDbArc
 50
12.68038349181983
 51
167.3196165081801
  0
CIRCLE
  5
8C9
330
1E
100
AcDbEntity
  8
0
100
AcDbCircle
 10
-8.217588261767023
 20
12.13119169785151
 30
0.0
 40
0.0859375
  0
CIRCLE
  5
8CA
330
1E
100
AcDbEntity
  8
0
100
AcDbCircle
 10
-9.967588261767023
 20
13.25619169785151
 30
0.0
 40
0.0859375
  0
CIRCLE
  5
8CB
330
1E
100
AcDbEntity
  8
0
100
AcDbCircle
 10
-8.21758826176702
 20
13.75619169785151
 30
0.0
 40
0.0859375
  0
CIRCLE
  5
8CC
330
1E
100
AcDbEntity
  8
0
100
AcDbCircle
 10
-9.967588261767023
 20
15.00619169785151
 30
0.0
 40
0.0859375
  0
CIRCLE
  5
8CD
330
1E
100
AcDbEntity
  8
0
100
AcDbCircle
 10
-8.21758826176702
 20
15.50619169785151
 30
0.0
 40
0.0859375
  0
CIRCLE
  5
8CE
330
1E
100
AcDbEntity
  8
0
100
AcDbCircle
 10
-9.967588261767023
 20
16.75619169785151
 30
0.0
 40
0.0859375
  0
CIRCLE
  5
8CF
330
1E
100
AcDbEntity
  8
0
100
AcDbCircle
 10
-8.21758826176702
 20
17.25619169785151
 30
0.0
 40
0.0859375
  0
LINE
  5
944
330
1E
100
AcDbEntity
  8
0
100
AcDbLine
 10
-10.21758826176702
 20
11.08781520317256
 30
0.0
 11
-9.967588261767023
 21
11.08781520317256
 31
0.0
  0
LINE
  5
945
330
1E
100
AcDbEntity
  8
0
100
AcDbLine
 10
-8.21758826176702
 20
11.08781520317256
 30
0.0
 11
-7.967588261767023
 21
11.08781520317256
 31
0.0
  0
LINE
  5
961
330
1E
100
AcDbEntity
  8
0
100
AcDbLine
 10
-7.967515251966653
 20
11.06869169785151
 30
0.0
 11
-7.966083423516388
 21
10.69365192444484
 31
0.0
  0
LINE
  5
962
330
1E
100
AcDbEntity
  8
0
100
AcDbLine
 10
-7.965420203258727
 20
10.94369169785151
 30
0.0
 11
-8.21758826176702
 21
10.94508982355058
 31
0.0
  0
LINE
  5
963
330
1E
100
AcDbEntity
  8
0
100
AcDbLine
 10
-10.21758826176702
 20
11.08781520317256
 30
0.0
 11
-10.21758826176702
 21
10.6938248014127
 31
0.0
  0
LINE
  5
964
330
1E
100
AcDbEntity
  8
0
100
AcDbLine
 10
-10.21758826176702
 20
10.6938248014127
 30
0.0
 11
-10.2148779975275
 21
10.6938248014127
 31
0.0
  0
LINE
  5
965
330
1E
100
AcDbEntity
  8
0
100
AcDbLine
 10
-10.21700082135231
 20
10.94346959516734
 30
0.0
 11
-9.965995174530697
 21
10.94346959516734
 31
0.0
  0
TEXT
  5
96A
330
1E
100
AcDbEntity
  8
DIM
100
AcDbText
 10
4.471329917729883
 20
19.62674731182796
 30
0.0
 40
0.225
  1
   
100
AcDbText
  0
TEXT
  5
970
330
1E
100
AcDbEntity
  8
DIM
100
AcDbText
 10
10.37593662509404
 20
10.18715211891208
 30
0.0
 40
0.225
  1
   
100
AcDbText
  0
LINE
  5
972
330
1E
100
AcDbEntity
  8
0
100
AcDbLine
 10
-9.467588261767023
 20
10.94397649024745
 30
0.0
 11
-9.467588261767023
 21
10.68705127824618
 31
0.0
  0
LINE
  5
973
330
1E
100
AcDbEntity
  8
0
100
AcDbLine
 10
-8.717588261767023
 20
10.6870512782419
 30
0.0
 11
-8.717588261767023
 21
10.94397649014766
 31
0.0
  0
LINE
  5
974
330
1E
100
AcDbEntity
  8
0
100
AcDbLine
 10
-8.842588261767023
 20
11.06869169785151
 30
0.0
 11
-9.342588261767023
 21
11.06869169785151
 31
0.0
  0
LINE
  5
975
330
1E
100
AcDbEntity
  8
0
100
AcDbLine
 10
-8.717588261767023
 20
10.75619169785151
 30
0.0
 11
-8.717588261767023
 21
10.94369169785151
 31
0.0
  0
LINE
  5
976
330
1E
100
AcDbEntity
  8
0
100
AcDbLine
 10
-8.717588261767023
 20
10.75619169785151
 30
0.0
 11
-8.717588261767023
 21
10.69369169785151
 31
0.0
  0
LINE
  5
977
330
1E
100
AcDbEntity
  8
0
100
AcDbLine
 10
-9.467588261767023
 20
10.75619169785151
 30
0.0
 11
-9.467588261767023
 21
10.94369169785151
 31
0.0
  0
LINE
  5
978
330
1E
100
AcDbEntity
  8
0
100
AcDbLine
 10
-9.467588261767023
 20
10.75619169785151
 30
0.0
 11
-9.467588261767023
 21
10.69369169785151
 31
0.0
  0
ARC
  5
979
330
1E
100
AcDbEntity
  8
0
100
AcDbCircle
 10
-8.842445865577339
 20
10.94383409404119
 30
0.0
 40
0.1248576850094878
100
AcDbArc
 50
359.9346559848864
 51
90.06534401511365
  0
ARC
  5
97A
330
1E
100
AcDbEntity
  8
0
100
AcDbCircle
 10
-8.839268051963341
 20
10.69037148804783
 30
0.0
 40
0.1217250801411129
100
AcDbArc
 50
1.544282567118248
 51
1.563010724140686
  0
ARC
  5
97B
330
1E
100
AcDbEntity
  8
0
100
AcDbCircle
 10
-9.342730657956707
 20
10.94383409404119
 30
0.0
 40
0.1248576850094878
100
AcDbArc
 50
89.93465598488635
 51
180.0653440151136
  0
ARC
  5
97C
330
1E
100
AcDbEntity
  8
0
100
AcDbCircle
 10
-9.345908471570706
 20
10.69037148804783
 30
0.0
 40
0.1217250801411129
100
AcDbArc
 50
178.4369892758593
 51
178.455717432882
  0
LINE
  5
97D
330
1E
100
AcDbEntity
  8
0
100
AcDbLine
 10
-9.092588261767023
 20
10.94369169785151
 30
0.0
 11
-9.217588261767023
 21
10.94369169785151
 31
0.0
  0
LINE
  5
97E
330
1E
100
AcDbEntity
  8
0
100
AcDbLine
 10
-9.217588261767023
 20
10.94369169785151
 30
0.0
 11
-8.967873054121451
 21
10.94369169785151
 31
0.0
  0
ARC
  5
97F
330
1E
100
AcDbEntity
  8
0
100
AcDbCircle
 10
-9.217730657956707
 20
10.81883409404119
 30
0.0
 40
0.1248576850094878
100
AcDbArc
 50
89.93465598488635
 51
180.0653440151136
  0
ARC
  5
980
330
1E
100
AcDbEntity
  8
0
100
AcDbCircle
 10
-8.967730657931767
 20
10.81883409404119
 30
0.0
 40
0.1248576850094878
100
AcDbArc
 50
359.9346559848864
 51
90.06534401511365
  0
LINE
  5
981
330
1E
100
AcDbEntity
  8
0
100
AcDbLine
 10
-8.842873054121451
 20
10.81869169785151
 30
0.0
 11
-8.787502118556287
 21
10.69365192444484
 31
0.0
  0
LINE
  5
982
330
1E
100
AcDbEntity
  8
0
100
AcDbLine
 10
-9.342588261767023
 20
10.81869169785151
 30
0.0
 11
-9.396705677000426
 21
10.69365192444484
 31
0.0
  0
ENDSEC
  0
SECTION
  2
OBJECTS
  0
DICTIONARY
  5
C
330
0
100
AcDbDictionary
281
     1
  3
ACAD_COLOR
350
BAA
  3
ACAD_GROUP
350
D
  3
ACAD_LAYOUT
350
19
  3
ACAD_MATERIAL
350
BA9
  3
ACAD_MLINESTYLE
350
16
  3
ACAD_PLOTSETTINGS
350
18
  3
ACAD_PLOTSTYLENAME
350
E
  3
ACAD_TABLESTYLE
350
BAB
  3
ACDBHEADERROUNDTRIPXREC
350
C21
  3
AcDbVariableDictionary
350
C0D
  0
DICTIONARY
  5
BB1
330
2
100
AcDbDictionary
280
     1
281
     1
  3
ACAD_LAYERFILTERS
360
BB3
  3
ACLYDICTIONARY
360
BB2
  0
DICTIONARY
  5
BAA
102
{ACAD_REACTORS
330
C
102
}
330
C
100
AcDbDictionary
281
     1
  0
DICTIONARY
  5
D
102
{ACAD_REACTORS
330
C
102
}
330
C
100
AcDbDictionary
281
     1
  0
DICTIONARY
  5
19
102
{ACAD_REACTORS
330
C
102
}
330
C
100
AcDbDictionary
281
     1
  3
Layout1
350
1D
  3
Model
350
21
  0
DICTIONARY
  5
BA9
102
{ACAD_REACTORS
330
C
102
}
330
C
100
AcDbDictionary
281
     1
  0
DICTIONARY
  5
16
102
{ACAD_REACTORS
330
C
102
}
330
C
100
AcDbDictionary
281
     1
  3
Standard
350
17
  0
DICTIONARY
  5
18
102
{ACAD_REACTORS
330
C
102
}
330
C
100
AcDbDictionary
281
     1
  0
ACDBDICTIONARYWDFLT
  5
E
102
{ACAD_REACTORS
330
C
102
}
330
C
100
AcDbDictionary
281
     1
  3
Normal
350
F
100
AcDbDictionaryWithDefault
340
F
  0
DICTIONARY
  5
BAB
102
{ACAD_REACTORS
330
C
102
}
330
C
100
AcDbDictionary
281
     1
  3
Standard
350
BAC
  0
DICTIONARY
  5
C21
102
{ACAD_REACTORS
330
C
102
}
330
C
100
AcDbDictionary
281
     1
  3
COLORDICT
350
C22
  3
MATERIALDICT
350
C23
  0
DICTIONARY
  5
C0D
102
{ACAD_REACTORS
330
C
102
}
330
C
100
AcDbDictionary
281
     1
  3
CTABLESTYLE
350
C0E
  0
DICTIONARY
  5
BB3
102
{ACAD_REACTORS
330
BB1
102
}
330
BB1
100
AcDbDictionary
281
     1
  0
DICTIONARY
  5
BB2
102
{ACAD_REACTORS
330
BB1
102
}
330
BB1
100
AcDbDictionary
281
     1
1001
ACAD
1000
<All
  0
LAYOUT
  5
1D
102
{ACAD_REACTORS
330
19
102
}
102
{ACAD_XDICTIONARY
360
C24
102
}
330
19
100
AcDbPlotSettings
  1

  2
HP LaserJet 2100 Series PS
  4

  6

 40
0.0
 41
0.0
 42
0.0
 43
0.0
 44
0.0
 45
0.0
 46
0.0
 47
0.0
 48
0.0
 49
0.0
140
0.0
141
0.0
142
1.0
143
1.0
 70
   688
 72
     0
 73
     0
 74
     5
  7

 75
    16
147
1.0
148
0.0
149
0.0
100
AcDbLayout
  1
Layout1
 70
     0
 71
     1
 10
0.0
 20
0.0
 11
12.0
 21
9.0
 12
0.0
 22
0.0
 32
0.0
 14
1.000000000000000E+20
 24
1.000000000000000E+20
 34
1.000000000000000E+20
 15
-1.000000000000000E+20
 25
-1.000000000000000E+20
 35
-1.000000000000000E+20
146
0.0
 13
0.0
 23
0.0
 33
0.0
 16
1.0
 26
0.0
 36
0.0
 17
0.0
 27
1.0
 37
0.0
 76
     0
330
1A
  0
LAYOUT
  5
21
102
{ACAD_REACTORS
330
19
102
}
102
{ACAD_XDICTIONARY
360
C26
102
}
330
19
100
AcDbPlotSettings
  1

  2
HP LaserJet 2100 Series PS
  4
Letter
  6

 40
5.365749835968018
 41
5.408084392547607
 42
5.4080810546875
 43
5.365753173828125
 44
215.8999938964844
 45
279.3999938964844
 46
0.0
 47
0.0
 48
0.0
 49
0.0
140
0.0
141
0.0
142
1.0
143
2.482074006153913
 70
 28336
 72
     0
 73
     0
 74
     2
  7

 75
     0
147
0.4028888733859896
148
0.0
149
0.0
100
AcDbLayout
  1
Model
 70
     1
 71
     0
 10
0.0
 20
0.0
 11
12.0
 21
9.0
 12
0.0
 22
0.0
 32
0.0
 14
0.0
 24
0.0
 34
0.0
 15
0.0
 25
0.0
 35
0.0
146
0.0
 13
0.0
 23
0.0
 33
0.0
 16
1.0
 26
0.0
 36
0.0
 17
0.0
 27
1.0
 37
0.0
 76
     0
330
1E
  0
MLINESTYLE
  5
17
102
{ACAD_REACTORS
330
16
102
}
330
16
100
AcDbMlineStyle
  2
STANDARD
 70
     0
  3

 62
   256
 51
90.0
 52
90.0
 71
     2
 49
0.5
 62
   256
  6
BYLAYER
 49
-0.5
 62
   256
  6
BYLAYER
  0
ACDBPLACEHOLDER
  5
F
102
{ACAD_REACTORS
330
E
102
}
330
E
  0
ACAD_PROXY_OBJECT
  5
BAC
102
{ACAD_REACTORS
330
BAB
102
}
330
BAB
100
AcDbProxyObject
 90
      499
 91
      507
 95
   983063
 70
     0
 93
     1841
310
4214DD185B99185C9928B81E85EB51B8AE3F2E07A17AD46E2B8FC02B5E8DC0F42B1CFD028000000C1008070000C3001FDFF8000000C1003FBFF000000182007F7FE00000030400FEFFC00000060801FDFF8000000C1003FBFF00000018200000000000000681FA0B0000001820100E000186003FBFF000000182007F7FE000
310
00030400FEFFC00000060801FDFF8000000C1003FBFF000000182007F7FE000000304000AD7A3703D0AC73F4160000003040201C00030C007F7FE00000030400FEFFC00000060801FDFF8000000C1003FBFF000000182007F7FE00000030400FEFFC000000608000
340
11
340
11
340
11
 94
        0
  0
XRECORD
  5
C22
102
{ACAD_REACTORS
330
C21
102
}
330
C21
100
AcDbXrecord
340
BAA
  0
XRECORD
  5
C23
102
{ACAD_REACTORS
330
C21
102
}
330
C21
100
AcDbXrecord
340
BA9
  0
DICTIONARYVAR
  5
C0E
102
{ACAD_REACTORS
330
C0D
102
}
330
C0D
100
DictionaryVariables
280
     0
  1
STANDARD
  0
DICTIONARY
  5
C24
330
1D
100
AcDbDictionary
280
     1
281
     1
  3
ACAD_XREC_ROUNDTRIP
360
C25
  0
DICTIONARY
  5
C26
330
21
100
AcDbDictionary
280
     1
281
     1
  3
ACAD_XREC_ROUNDTRIP
360
C27
  0
XRECORD
  5
C25
102
{ACAD_REACTORS
330
C24
102
}
330
C24
100
AcDbXrecord
102
SHADEPLOT
 70
     0
102
SHADEPLOTRESLEVEL
 70
     2
102
SHADEPLOTCUSTOMDPI
 70
   300
  0
XRECORD
  5
C27
102
{ACAD_REACTORS
330
C26
102
}
330
C26
100
AcDbXrecord
102
SHADEPLOT
 70
     0
102
SHADEPLOTRESLEVEL
 70
     2
102
SHADEPLOTCUSTOMDPI
 70
   300
  0
ENDSEC
  0
EOF
