  0
SECTION
  2
HEADER
  9
$ACADVER
  1
AC1015
  9
$ACADMAINTVER
 70
     6
  9
$DWGCODEPAGE
  3
ANSI_1252
  9
$INSBASE
 10
0.0
 20
0.0
 30
0.0
  9
$EXTMIN
 10
-2.892021097956083
 20
-0.0145031754730548
 30
0.0
  9
$EXTMAX
 10
12.4724457919024
 20
20.58388090565969
 30
0.0
  9
$LIMMIN
 10
0.0
 20
0.0
  9
$LIMMAX
 10
20.0
 20
26.25
  9
$ORTHOMODE
 70
     1
  9
$REGENMODE
 70
     1
  9
$FILLMODE
 70
     1
  9
$QTEXTMODE
 70
     0
  9
$MIRRTEXT
 70
     1
  9
$LTSCALE
 40
0.75
  9
$ATTMODE
 70
     1
  9
$TEXTSIZE
 40
0.225
  9
$TRACEWID
 40
0.05
  9
$TEXTSTYLE
  7
STANDARD
  9
$CLAYER
  8
0
  9
$CELTYPE
  6
ByLayer
  9
$CECOLOR
 62
   256
  9
$CELTSCALE
 40
1.0
  9
$DISPSILH
 70
     0
  9
$DIMSCALE
 40
2.5
  9
$DIMASZ
 40
0.125
  9
$DIMEXO
 40
0.062
  9
$DIMDLI
 40
0.375
  9
$DIMRND
 40
0.0
  9
$DIMDLE
 40
0.0
  9
$DIMEXE
 40
0.08
  9
$DIMTP
 40
0.0
  9
$DIMTM
 40
0.0
  9
$DIMTXT
 40
0.09
  9
$DIMCEN
 40
-0.06
  9
$DIMTSZ
 40
0.0
  9
$DIMTOL
 70
     0
  9
$DIMLIM
 70
     0
  9
$DIMTIH
 70
     1
  9
$DIMTOH
 70
     1
  9
$DIMSE1
 70
     0
  9
$DIMSE2
 70
     0
  9
$DIMTAD
 70
     0
  9
$DIMZIN
 70
     0
  9
$DIMBLK
  1

  9
$DIMASO
 70
     0
  9
$DIMSHO
 70
     0
  9
$DIMPOST
  1

  9
$DIMAPOST
  1

  9
$DIMALT
 70
     0
  9
$DIMALTD
 70
     2
  9
$DIMALTF
 40
25.4
  9
$DIMLFAC
 40
1.0
  9
$DIMTOFL
 70
     0
  9
$DIMTVP
 40
0.0
  9
$DIMTIX
 70
     0
  9
$DIMSOXD
 70
     0
  9
$DIMSAH
 70
     0
  9
$DIMBLK1
  1

  9
$DIMBLK2
  1

  9
$DIMSTYLE
  2
Standard
  9
$DIMCLRD
 70
     0
  9
$DIMCLRE
 70
     0
  9
$DIMCLRT
 70
     0
  9
$DIMTFAC
 40
1.0
  9
$DIMGAP
 40
0.09
  9
$DIMJUST
 70
     0
  9
$DIMSD1
 70
     0
  9
$DIMSD2
 70
     0
  9
$DIMTOLJ
 70
     1
  9
$DIMTZIN
 70
     0
  9
$DIMALTZ
 70
     0
  9
$DIMALTTZ
 70
     0
  9
$DIMUPT
 70
     0
  9
$DIMDEC
 70
     4
  9
$DIMTDEC
 70
     4
  9
$DIMALTU
 70
     2
  9
$DIMALTTD
 70
     2
  9
$DIMTXSTY
  7
STANDARD
  9
$DIMAUNIT
 70
     0
  9
$DIMADEC
 70
     0
  9
$DIMALTRND
 40
0.0
  9
$DIMAZIN
 70
     0
  9
$DIMDSEP
 70
    46
  9
$DIMATFIT
 70
     3
  9
$DIMFRAC
 70
     0
  9
$DIMLDRBLK
  1

  9
$DIMLUNIT
 70
     2
  9
$DIMLWD
 70
    -2
  9
$DIMLWE
 70
    -2
  9
$DIMTMOVE
 70
     2
  9
$LUNITS
 70
     2
  9
$LUPREC
 70
     4
  9
$SKETCHINC
 40
0.1
  9
$FILLETRAD
 40
0.0
  9
$AUNITS
 70
     0
  9
$AUPREC
 70
     0
  9
$MENU
  1
acad
  9
$ELEVATION
 40
0.0
  9
$PELEVATION
 40
0.0
  9
$THICKNESS
 40
0.0
  9
$LIMCHECK
 70
     0
  9
$CHAMFERA
 40
0.0
  9
$CHAMFERB
 40
0.0
  9
$CHAMFERC
 40
0.0
  9
$CHAMFERD
 40
0.0
  9
$SKPOLY
 70
     0
  9
$TDCREATE
 40
2448063.951505324
  9
$TDUCREATE
 40
2448064.284838657
  9
$TDUPDATE
 40
2454162.910758183
  9
$TDUUPDATE
 40
2454163.244091516
  9
$TDINDWG
 40
0.2441551852
  9
$TDUSRTIMER
 40
0.2441551852
  9
$USRTIMER
 70
     1
  9
$ANGBASE
 50
0.0
  9
$ANGDIR
 70
     0
  9
$PDMODE
 70
     0
  9
$PDSIZE
 40
0.0
  9
$PLINEWID
 40
0.0
  9
$SPLFRAME
 70
     0
  9
$SPLINETYPE
 70
     6
  9
$SPLINESEGS
 70
     8
  9
$HANDSEED
  5
2FC
  9
$SURFTAB1
 70
     6
  9
$SURFTAB2
 70
     6
  9
$SURFTYPE
 70
     6
  9
$SURFU
 70
     6
  9
$SURFV
 70
     6
  9
$UCSBASE
  2

  9
$UCSNAME
  2

  9
$UCSORG
 10
0.0
 20
0.0
 30
0.0
  9
$UCSXDIR
 10
1.0
 20
0.0
 30
0.0
  9
$UCSYDIR
 10
0.0
 20
1.0
 30
0.0
  9
$UCSORTHOREF
  2

  9
$UCSORTHOVIEW
 70
     0
  9
$UCSORGTOP
 10
0.0
 20
0.0
 30
0.0
  9
$UCSORGBOTTOM
 10
0.0
 20
0.0
 30
0.0
  9
$UCSORGLEFT
 10
0.0
 20
0.0
 30
0.0
  9
$UCSORGRIGHT
 10
0.0
 20
0.0
 30
0.0
  9
$UCSORGFRONT
 10
0.0
 20
0.0
 30
0.0
  9
$UCSORGBACK
 10
0.0
 20
0.0
 30
0.0
  9
$PUCSBASE
  2

  9
$PUCSNAME
  2

  9
$PUCSORG
 10
0.0
 20
0.0
 30
0.0
  9
$PUCSXDIR
 10
1.0
 20
0.0
 30
0.0
  9
$PUCSYDIR
 10
0.0
 20
1.0
 30
0.0
  9
$PUCSORTHOREF
  2

  9
$PUCSORTHOVIEW
 70
     0
  9
$PUCSORGTOP
 10
0.0
 20
0.0
 30
0.0
  9
$PUCSORGBOTTOM
 10
0.0
 20
0.0
 30
0.0
  9
$PUCSORGLEFT
 10
0.0
 20
0.0
 30
0.0
  9
$PUCSORGRIGHT
 10
0.0
 20
0.0
 30
0.0
  9
$PUCSORGFRONT
 10
0.0
 20
0.0
 30
0.0
  9
$PUCSORGBACK
 10
0.0
 20
0.0
 30
0.0
  9
$USERI1
 70
     0
  9
$USERI2
 70
     0
  9
$USERI3
 70
     0
  9
$USERI4
 70
     0
  9
$USERI5
 70
     0
  9
$USERR1
 40
0.0
  9
$USERR2
 40
0.0
  9
$USERR3
 40
0.0
  9
$USERR4
 40
0.0
  9
$USERR5
 40
0.0
  9
$WORLDVIEW
 70
     1
  9
$SHADEDGE
 70
     3
  9
$SHADEDIF
 70
    70
  9
$TILEMODE
 70
     1
  9
$MAXACTVP
 70
    16
  9
$PINSBASE
 10
0.0
 20
0.0
 30
0.0
  9
$PLIMCHECK
 70
     0
  9
$PEXTMIN
 10
1.000000000000000E+20
 20
1.000000000000000E+20
 30
1.000000000000000E+20
  9
$PEXTMAX
 10
-1.000000000000000E+20
 20
-1.000000000000000E+20
 30
-1.000000000000000E+20
  9
$PLIMMIN
 10
0.0
 20
0.0
  9
$PLIMMAX
 10
12.0
 20
9.0
  9
$UNITMODE
 70
     0
  9
$VISRETAIN
 70
     0
  9
$PLINEGEN
 70
     1
  9
$PSLTSCALE
 70
     0
  9
$TREEDEPTH
 70
  3020
  9
$CMLSTYLE
  2
Standard
  9
$CMLJUST
 70
     0
  9
$CMLSCALE
 40
1.0
  9
$PROXYGRAPHICS
 70
     1
  9
$MEASUREMENT
 70
     0
  9
$CELWEIGHT
370
    -1
  9
$ENDCAPS
280
     0
  9
$JOINSTYLE
280
     0
  9
$LWDISPLAY
290
     0
  9
$INSUNITS
 70
     0
  9
$HYPERLINKBASE
  1

  9
$STYLESHEET
  1

  9
$XEDIT
290
     1
  9
$CEPSNTYPE
380
     0
  9
$PSTYLEMODE
290
     1
  9
$FINGERPRINTGUID
  2
{36260161-DC21-11D6-BE3F-00508B5FCD51}
  9
$VERSIONGUID
  2
{0C872E0E-B539-4022-B1FA-395D4B9CE715}
  9
$EXTNAMES
290
     1
  9
$PSVPSCALE
 40
0.0
  9
$OLESTARTUP
290
     0
  0
ENDSEC
  0
SECTION
  2
CLASSES
  0
CLASS
  1
ACDBDICTIONARYWDFLT
  2
AcDbDictionaryWithDefault
  3
AutoCAD 2000
 90
        0
280
     0
281
     0
  0
CLASS
  1
ACDBPLACEHOLDER
  2
AcDbPlaceHolder
  3
ObjectDBX Classes
 90
        0
280
     0
281
     0
  0
CLASS
  1
LAYOUT
  2
AcDbLayout
  3
ObjectDBX Classes
 90
        0
280
     0
281
     0
  0
CLASS
  1
LONG_TRANSACTION
  2
AcDbLongTransaction
  3
ObjectDBX Classes
 90
   -65536
280
     1
281
     0
  0
CLASS
  1
LWPOLYLINE
  2
AcDbPolyline
  3
AutoCAD 2000
 90
        0
280
     0
281
     1
  0
CLASS
  1
HATCH
  2
AcDbHatch
  3
AutoCAD 2000
 90
        0
280
     0
281
     1
  0
CLASS
  1
XRECORD
  2
AcDbXrecord
  3
AutoCAD 2000
 90
        0
280
     0
281
     0
  0
CLASS
  1
DICTIONARYVAR
  2
AcDbDictionaryVar
  3
AutoCAD 2000
 90
        0
280
     0
281
     0
  0
CLASS
  1
TABLESTYLE
  2
AcDbTableStyle
  3
ObjectDBX Classes
 90
     2047
280
     1
281
     0
  0
CLASS
  1
SORTENTSTABLE
  2
AcDbSortentsTable
  3
AutoCAD 2000
 90
        0
280
     0
281
     0
  0
ENDSEC
  0
SECTION
  2
TABLES
  0
TABLE
  2
VPORT
  5
1D
330
0
100
AcDbSymbolTable
 70
     3
  0
VPORT
  5
2EE
330
1D
100
AcDbSymbolTableRecord
100
AcDbViewportTableRecord
  2
*Active
 70
     0
 10
0.0
 20
0.0
 11
1.0
 21
1.0
 12
8.33168007918022
 22
10.95646196847855
 13
0.0
 23
0.0
 14
0.063
 24
0.063
 15
0.25
 25
0.25
 16
0.0
 26
0.0
 36
1.0
 17
0.0
 27
0.0
 37
0.0
 40
26.59330262782195
 41
1.814583333333333
 42
50.0
 43
0.0
 44
0.0
 50
0.0
 51
0.0
 71
     0
 72
   100
 73
     1
 74
     0
 75
     0
 76
     0
 77
     0
 78
     0
281
     0
 65
     1
110
0.0
120
0.0
130
0.0
111
1.0
121
0.0
131
0.0
112
0.0
122
1.0
132
0.0
 79
     0
146
0.0
  0
ENDTAB
  0
TABLE
  2
LTYPE
  5
18
330
0
100
AcDbSymbolTable
 70
     2
  0
LTYPE
  5
19
330
18
100
AcDbSymbolTableRecord
100
AcDbLinetypeTableRecord
  2
ByBlock
 70
     0
  3

 72
    65
 73
     0
 40
0.0
  0
LTYPE
  5
1A
330
18
100
AcDbSymbolTableRecord
100
AcDbLinetypeTableRecord
  2
ByLayer
 70
     0
  3

 72
    65
 73
     0
 40
0.0
  0
LTYPE
  5
A
330
18
100
AcDbSymbolTableRecord
100
AcDbLinetypeTableRecord
  2
CONTINUOUS
 70
     0
  3
Solid line
 72
    65
 73
     0
 40
0.0
  0
LTYPE
  5
274
330
18
100
AcDbSymbolTableRecord
100
AcDbLinetypeTableRecord
  2
HIDDEN
 70
     0
  3
Hidden __ __ __ __ __ __ __ __ __ __ __ __ __ _
 72
    65
 73
     2
 40
0.375
 49
0.25
 74
     0
 49
-0.125
 74
     0
  0
ENDTAB
  0
TABLE
  2
LAYER
  5
14
330
0
100
AcDbSymbolTable
 70
     1
  0
LAYER
  5
6
330
14
100
AcDbSymbolTableRecord
100
AcDbLayerTableRecord
  2
0
 70
     0
 62
     7
  6
CONTINUOUS
370
    -3
390
7
  0
ENDTAB
  0
TABLE
  2
STYLE
  5
15
330
0
100
AcDbSymbolTable
 70
     1
  0
STYLE
  5
16
330
15
100
AcDbSymbolTableRecord
100
AcDbTextStyleTableRecord
  2
STANDARD
 70
     0
 40
0.0
 41
1.0
 50
0.0
 71
     0
 42
0.225
  3
TXT
  4

  0
ENDTAB
  0
TABLE
  2
VIEW
  5
1B
330
0
100
AcDbSymbolTable
 70
     0
  0
ENDTAB
  0
TABLE
  2
UCS
  5
1C
330
0
100
AcDbSymbolTable
 70
     0
  0
ENDTAB
  0
TABLE
  2
APPID
  5
1F
330
0
100
AcDbSymbolTable
 70
     1
  0
APPID
  5
20
330
1F
100
AcDbSymbolTableRecord
100
AcDbRegAppTableRecord
  2
ACAD
 70
     0
  0
ENDTAB
  0
TABLE
  2
DIMSTYLE
  5
21
330
0
100
AcDbSymbolTable
 70
     1
100
AcDbDimStyleTable
  0
DIMSTYLE
105
28
330
21
100
AcDbSymbolTableRecord
100
AcDbDimStyleTableRecord
  2
Standard
 70
     0
  3

  4

340
16
  0
ENDTAB
  0
TABLE
  2
BLOCK_RECORD
  5
1
330
0
100
AcDbSymbolTable
 70
     0
  0
BLOCK_RECORD
  5
2
102
{ACAD_XDICTIONARY
360
3
102
}
330
1
100
AcDbSymbolTableRecord
100
AcDbBlockTableRecord
  2
*Model_Space
340
C
  0
BLOCK_RECORD
  5
E
330
1
100
AcDbSymbolTableRecord
100
AcDbBlockTableRecord
  2
*Paper_Space
340
13
  0
ENDTAB
  0
ENDSEC
  0
SECTION
  2
BLOCKS
  0
BLOCK
  5
5
330
2
100
AcDbEntity
  8
0
100
AcDbBlockBegin
  2
*Model_Space
 70
     0
 10
0.0
 20
0.0
 30
0.0
  3
*Model_Space
  1

  4

  0
ENDBLK
  5
B
330
2
100
AcDbEntity
  8
0
100
AcDbBlockEnd
  0
BLOCK
  5
11
330
E
100
AcDbEntity
 67
     1
  8
0
100
AcDbBlockBegin
  2
*Paper_Space
 70
     0
 10
0.0
 20
0.0
 30
0.0
  3
*Paper_Space
  1

  4

  0
ENDBLK
  5
12
330
E
100
AcDbEntity
 67
     1
  8
0
100
AcDbBlockEnd
  0
ENDSEC
  0
SECTION
  2
ENTITIES
  0
LINE
  5
1F2
330
2
100
AcDbEntity
  8
0
100
AcDbLine
 10
-2.352617926350926
 20
5.921770991809183
 30
0.0
 11
-0.7655210979560794
 21
5.921770991809183
 31
0.0
  0
LINE
  5
1F3
330
2
100
AcDbEntity
  8
0
100
AcDbLine
 10
-2.35261792635093
 20
6.046770991809183
 30
0.0
 11
-0.7655210979560794
 21
6.046770991809183
 31
0.0
  0
LINE
  5
1F4
330
2
100
AcDbEntity
  8
0
100
AcDbLine
 10
-2.390521097956085
 20
6.046770991809183
 30
0.0
 11
-0.7655210979560865
 21
6.046770991809183
 31
0.0
  0
LINE
  5
1F5
330
2
100
AcDbEntity
  8
0
100
AcDbLine
 10
-2.390521097956085
 20
5.921770991809183
 30
0.0
 11
-0.7655210979560865
 21
5.921770991809183
 31
0.0
  0
LINE
  5
1F6
330
2
100
AcDbEntity
  8
0
100
AcDbLine
 10
-2.390521097956085
 20
0.7478942729284022
 30
0.0
 11
-0.7655210979560865
 21
0.7478942729284022
 31
0.0
  0
LINE
  5
1F7
330
2
100
AcDbEntity
  8
0
100
AcDbLine
 10
-2.390521097956085
 20
0.6228942729284022
 30
0.0
 11
-0.7655210979560865
 21
0.6228942729284022
 31
0.0
  0
LINE
  5
1F8
330
2
100
AcDbEntity
  8
0
100
AcDbLine
 10
-2.35261792635093
 20
0.6228942729284022
 30
0.0
 11
-0.7655210979560794
 21
0.6228942729284022
 31
0.0
  0
LINE
  5
1F9
330
2
100
AcDbEntity
  8
0
100
AcDbLine
 10
-2.352617926350926
 20
0.7478942729284022
 30
0.0
 11
-0.7655210979560794
 21
0.7478942729284022
 31
0.0
  0
LINE
  5
1FA
330
2
100
AcDbEntity
  8
0
100
AcDbLine
 10
-2.316647315747367
 20
1.301176850158733
 30
0.0
 11
-2.515521097956078
 21
1.102303067950025
 31
0.0
  0
LINE
  5
1FB
330
2
100
AcDbEntity
  8
0
100
AcDbLine
 10
-2.228258968099051
 20
1.212788502510417
 30
0.0
 11
-2.478909445604404
 21
0.9621380250050606
 31
0.0
  0
LINE
  5
1FC
330
2
100
AcDbEntity
  8
0
100
AcDbLine
 10
-2.890521097956083
 20
0.8964884974889635
 30
0.0
 11
-2.890521097956083
 21
3.353553844852353
 31
0.0
  0
LINE
  5
1FD
330
2
100
AcDbEntity
  8
0
100
AcDbLine
 10
-2.515521097956085
 20
2.270527149555718
 30
0.0
 11
-2.515521097956085
 21
0.9589884974889635
 31
0.0
  0
LINE
  5
1FE
330
2
100
AcDbEntity
  8
0
100
AcDbLine
 10
-2.640521097956085
 20
2.270527149555715
 30
0.0
 11
-2.640521097956085
 21
0.9589884974889671
 31
0.0
  0
LINE
  5
1FF
330
2
100
AcDbEntity
  8
0
100
AcDbLine
 10
-2.765521097956081
 20
0.8964884974889635
 30
0.0
 11
-2.765521097956081
 21
3.353553844852353
 31
0.0
  0
LINE
  5
200
330
2
100
AcDbEntity
  8
0
100
AcDbLine
 10
-2.640521097956081
 20
0.8964884974889635
 30
0.0
 11
-2.640521097956081
 21
3.353553844852353
 31
0.0
  0
ARC
  5
201
330
2
100
AcDbEntity
  8
0
100
AcDbCircle
 10
-2.390521097956085
 20
0.8742402014229604
 30
0.0
 40
0.125
100
AcDbArc
 50
180.0000000000001
 51
270.0
  0
ARC
  5
202
330
2
100
AcDbEntity
  8
0
100
AcDbCircle
 10
-2.390521097956085
 20
0.8742402014229604
 30
0.0
 40
0.25
100
AcDbArc
 50
180.0000000000001
 51
270.0
  0
LINE
  5
203
330
2
100
AcDbEntity
  8
0
100
AcDbLine
 10
-2.632582557094042
 20
0.8964884974889635
 30
0.0
 11
-2.890521097956083
 21
0.8964884974889635
 31
0.0
  0
ARC
  5
204
330
2
100
AcDbEntity
  8
0
100
AcDbCircle
 10
-2.390521097956085
 20
0.873749677356745
 30
0.0
 40
0.125
100
AcDbArc
 50
135.0000000000001
 51
180.0000000000001
  0
ARC
  5
205
330
2
100
AcDbEntity
  8
0
100
AcDbCircle
 10
-2.390521097956085
 20
0.8737496773567415
 30
0.0
 40
0.25
100
AcDbArc
 50
135.0000000000001
 51
180.0000000000001
  0
LINE
  5
206
330
2
100
AcDbEntity
  8
0
100
AcDbLine
 10
-2.632582557094046
 20
0.8070319627526246
 30
0.0
 11
-2.640521097956081
 21
0.8070319627526246
 31
0.0
  0
LINE
  5
207
330
2
100
AcDbEntity
  8
0
100
AcDbLine
 10
-2.515521097956078
 20
1.102303067950025
 30
0.0
 11
-2.567297793252723
 21
1.05052637265338
 31
0.0
  0
LINE
  5
208
330
2
100
AcDbEntity
  8
0
100
AcDbLine
 10
-2.640521097956085
 20
4.436580540148988
 30
0.0
 11
-2.640521097956085
 21
5.738702714875068
 31
0.0
  0
LINE
  5
209
330
2
100
AcDbEntity
  8
0
100
AcDbLine
 10
-2.515521097956085
 20
4.436580540148988
 30
0.0
 11
-2.515521097956085
 21
5.738702714875068
 31
0.0
  0
LINE
  5
20A
330
2
100
AcDbEntity
  8
0
100
AcDbLine
 10
-2.890521097956083
 20
5.801202714875068
 30
0.0
 11
-2.890521097956083
 21
3.353553844852353
 31
0.0
  0
LINE
  5
20B
330
2
100
AcDbEntity
  8
0
100
AcDbLine
 10
-2.640521097956081
 20
5.801202714875068
 30
0.0
 11
-2.640521097956081
 21
3.353553844852353
 31
0.0
  0
LINE
  5
20C
330
2
100
AcDbEntity
  8
0
100
AcDbLine
 10
-2.765521097956081
 20
5.801202714875068
 30
0.0
 11
-2.765521097956081
 21
3.353553844852353
 31
0.0
  0
ARC
  5
20D
330
2
100
AcDbEntity
  8
0
  6
HIDDEN
100
AcDbCircle
 10
-1.611461134519222
 20
3.356111932480101
 30
0.0
 40
0.614379897890597
100
AcDbArc
 50
141.4399199925968
 51
217.3654113158657
  0
LINE
  5
20E
330
2
100
AcDbEntity
  8
0
  6
HIDDEN
100
AcDbLine
 10
-2.515521097956078
 20
2.22855384485235
 30
0.0
 11
-2.515521097956081
 21
3.353553844852353
 31
0.0
  0
LINE
  5
20F
330
2
100
AcDbEntity
  8
0
100
AcDbLine
 10
-2.569647685692613
 20
4.47855384485235
 30
0.0
 11
-2.569647685692613
 21
2.22855384485235
 31
0.0
  0
LINE
  5
210
330
2
100
AcDbEntity
  8
0
100
AcDbLine
 10
-2.632147685692613
 20
3.890086676600596
 30
0.0
 11
-2.632147685692613
 21
2.817021013104121
 31
0.0
  0
LINE
  5
211
330
2
100
AcDbEntity
  8
0
100
AcDbLine
 10
-2.228258968099051
 20
1.212788502510417
 30
0.0
 11
-2.316647315747367
 21
1.301176850158733
 31
0.0
  0
LINE
  5
212
330
2
100
AcDbEntity
  8
0
  6
HIDDEN
100
AcDbLine
 10
-2.640521097956081
 20
2.22855384485235
 30
0.0
 11
-2.515521097956078
 21
2.22855384485235
 31
0.0
  0
LINE
  5
213
330
2
100
AcDbEntity
  8
0
  6
HIDDEN
100
AcDbLine
 10
-2.507147685692613
 20
2.22855384485235
 30
0.0
 11
-2.569647685692613
 21
2.22855384485235
 31
0.0
  0
ARC
  5
214
330
2
100
AcDbEntity
  8
0
100
AcDbCircle
 10
-2.507104658271344
 20
2.839050024805275
 30
0.0
 40
0.1269686420468157
100
AcDbArc
 50
169.9017089799772
 51
240.7908770444165
  0
LINE
  5
215
330
2
100
AcDbEntity
  8
0
  6
HIDDEN
100
AcDbLine
 10
-2.515521097956078
 20
4.47855384485235
 30
0.0
 11
-2.515521097956081
 21
3.353553844852353
 31
0.0
  0
ARC
  5
216
330
2
100
AcDbEntity
  8
0
100
AcDbCircle
 10
-2.507104658271344
 20
3.868057664899432
 30
0.0
 40
0.1269686420468157
100
AcDbArc
 50
119.2091229555835
 51
190.0982910200228
  0
LINE
  5
217
330
2
100
AcDbEntity
  8
0
  6
HIDDEN
100
AcDbLine
 10
-2.640521097956081
 20
4.47855384485235
 30
0.0
 11
-2.515521097956078
 21
4.47855384485235
 31
0.0
  0
LINE
  5
218
330
2
100
AcDbEntity
  8
0
  6
HIDDEN
100
AcDbLine
 10
-2.507147685692613
 20
4.47855384485235
 30
0.0
 11
-2.569647685692613
 21
4.47855384485235
 31
0.0
  0
LINE
  5
219
330
2
100
AcDbEntity
  8
0
100
AcDbLine
 10
-2.316647315747367
 20
5.37140375596352
 30
0.0
 11
-2.515521097956081
 21
5.570277538172235
 31
0.0
  0
LINE
  5
21A
330
2
100
AcDbEntity
  8
0
100
AcDbLine
 10
-2.228258968099051
 20
5.459792103611839
 30
0.0
 11
-2.478909445604404
 21
5.710442581117192
 31
0.0
  0
ARC
  5
21B
330
2
100
AcDbEntity
  8
0
100
AcDbCircle
 10
-2.390521097956085
 20
5.796770991809183
 30
0.0
 40
0.25
100
AcDbArc
 50
90.0
 51
180.0
  0
ARC
  5
21C
330
2
100
AcDbEntity
  8
0
100
AcDbCircle
 10
-2.390521097956085
 20
5.796770991809183
 30
0.0
 40
0.125
100
AcDbArc
 50
90.0
 51
180.0
  0
ARC
  5
21D
330
2
100
AcDbEntity
  8
0
100
AcDbCircle
 10
-2.390521097956085
 20
5.798830928765511
 30
0.0
 40
0.25
100
AcDbArc
 50
180.0
 51
224.9999999999999
  0
ARC
  5
21E
330
2
100
AcDbEntity
  8
0
100
AcDbCircle
 10
-2.390521097956085
 20
5.798830928765511
 30
0.0
 40
0.125
100
AcDbArc
 50
180.0
 51
224.9999999999999
  0
LINE
  5
21F
330
2
100
AcDbEntity
  8
0
100
AcDbLine
 10
-2.515521097956081
 20
5.571846951062348
 30
0.0
 11
-2.567297793252723
 21
5.623623646358986
 31
0.0
  0
LINE
  5
220
330
2
100
AcDbEntity
  8
0
100
AcDbLine
 10
-2.632582557094042
 20
5.801202714875068
 30
0.0
 11
-2.890521097956083
 21
5.801202714875068
 31
0.0
  0
LINE
  5
221
330
2
100
AcDbEntity
  8
0
100
AcDbLine
 10
-2.632582557094046
 20
5.801202714875068
 30
0.0
 11
-2.640521097956081
 21
5.801202714875068
 31
0.0
  0
LINE
  5
222
330
2
100
AcDbEntity
  8
0
100
AcDbLine
 10
-2.228258968099051
 20
5.458222690721726
 30
0.0
 11
-2.316647315747367
 21
5.369834343073407
 31
0.0
  0
LINE
  5
223
330
2
100
AcDbEntity
  8
0
100
AcDbLine
 10
2.699246063791627
 20
1.214357915400527
 30
0.0
 11
2.94989654129698
 21
0.9637074378951738
 31
0.0
  0
LINE
  5
224
330
2
100
AcDbEntity
  8
0
100
AcDbLine
 10
2.787634411439946
 20
1.302746263048846
 30
0.0
 11
2.98650819364866
 21
1.103872480840131
 31
0.0
  0
LINE
  5
225
330
2
100
AcDbEntity
  8
0
100
AcDbLine
 10
3.36150819364866
 20
0.8964884974889635
 30
0.0
 11
3.36150819364866
 21
3.353553844852353
 31
0.0
  0
LINE
  5
226
330
2
100
AcDbEntity
  8
0
100
AcDbLine
 10
3.11150819364866
 20
0.8964884974889635
 30
0.0
 11
3.11150819364866
 21
3.353553844852353
 31
0.0
  0
LINE
  5
227
330
2
100
AcDbEntity
  8
0
100
AcDbLine
 10
3.23650819364866
 20
0.8964884974889635
 30
0.0
 11
3.23650819364866
 21
3.353553844852353
 31
0.0
  0
LINE
  5
228
330
2
100
AcDbEntity
  8
0
100
AcDbLine
 10
3.111508193648668
 20
2.270527149555715
 30
0.0
 11
3.11150819364866
 21
0.9589884974889671
 31
0.0
  0
LINE
  5
229
330
2
100
AcDbEntity
  8
0
100
AcDbLine
 10
2.986508193648668
 20
2.270527149555718
 30
0.0
 11
2.98650819364866
 21
0.9589884974889635
 31
0.0
  0
LINE
  5
22A
330
2
100
AcDbEntity
  8
0
100
AcDbLine
 10
2.823605022043509
 20
0.7494636858185118
 30
0.0
 11
-0.7655210979560865
 21
0.7494636858185118
 31
0.0
  0
LINE
  5
22B
330
2
100
AcDbEntity
  8
0
100
AcDbLine
 10
2.823605022043509
 20
0.6244636858185118
 30
0.0
 11
-0.7655210979560865
 21
0.6244636858185118
 31
0.0
  0
LINE
  5
22C
330
2
100
AcDbEntity
  8
0
100
AcDbLine
 10
2.86150819364866
 20
0.6244636858185118
 30
0.0
 11
-0.7655210979560865
 21
0.6244636858185118
 31
0.0
  0
LINE
  5
22D
330
2
100
AcDbEntity
  8
0
100
AcDbLine
 10
2.86150819364866
 20
0.7494636858185118
 30
0.0
 11
-0.7655210979560865
 21
0.7494636858185118
 31
0.0
  0
LINE
  5
22E
330
2
100
AcDbEntity
  8
0
100
AcDbLine
 10
3.103569652786625
 20
0.8964884974889635
 30
0.0
 11
3.36150819364866
 21
0.8964884974889635
 31
0.0
  0
ARC
  5
22F
330
2
100
AcDbEntity
  8
0
100
AcDbCircle
 10
2.86150819364866
 20
0.8753190902468546
 30
0.0
 40
0.25
100
AcDbArc
 50
0.0
 51
44.9999999999999
  0
ARC
  5
230
330
2
100
AcDbEntity
  8
0
100
AcDbCircle
 10
2.86150819364866
 20
0.8742402014229604
 30
0.0
 40
0.25
100
AcDbArc
 50
270.0000000000001
 51
0.0
  0
LINE
  5
231
330
2
100
AcDbEntity
  8
0
100
AcDbLine
 10
3.103569652786625
 20
0.8070319627526246
 30
0.0
 11
3.11150819364866
 21
0.8070319627526246
 31
0.0
  0
ARC
  5
232
330
2
100
AcDbEntity
  8
0
100
AcDbCircle
 10
2.86150819364866
 20
0.8742402014229604
 30
0.0
 40
0.125
100
AcDbArc
 50
270.0000000000001
 51
0.0
  0
ARC
  5
233
330
2
100
AcDbEntity
  8
0
100
AcDbCircle
 10
2.86150819364866
 20
0.8753190902468546
 30
0.0
 40
0.125
100
AcDbArc
 50
0.0
 51
44.9999999999999
  0
LINE
  5
234
330
2
100
AcDbEntity
  8
0
100
AcDbLine
 10
2.98650819364866
 20
1.103872480840131
 30
0.0
 11
3.038284888945299
 21
1.052095785543493
 31
0.0
  0
LINE
  5
235
330
2
100
AcDbEntity
  8
0
100
AcDbLine
 10
2.86150819364866
 20
5.921770991809183
 30
0.0
 11
-0.7655210979560865
 21
5.921770991809183
 31
0.0
  0
LINE
  5
236
330
2
100
AcDbEntity
  8
0
100
AcDbLine
 10
2.86150819364866
 20
6.046770991809183
 30
0.0
 11
-0.7655210979560865
 21
6.046770991809183
 31
0.0
  0
LINE
  5
237
330
2
100
AcDbEntity
  8
0
100
AcDbLine
 10
2.823605022043509
 20
6.046770991809183
 30
0.0
 11
-0.7655210979560865
 21
6.046770991809183
 31
0.0
  0
LINE
  5
238
330
2
100
AcDbEntity
  8
0
100
AcDbLine
 10
2.823605022043509
 20
5.921770991809183
 30
0.0
 11
-0.7655210979560865
 21
5.921770991809183
 31
0.0
  0
LINE
  5
23A
330
2
100
AcDbEntity
  8
0
  6
HIDDEN
100
AcDbLine
 10
-1.265521097956087
 20
4.47855384485235
 30
0.0
 11
1.73650819364866
 21
4.47855384485235
 31
0.0
  0
CIRCLE
  5
23B
330
2
100
AcDbEntity
  8
0
  6
HIDDEN
100
AcDbCircle
 10
0.2365687515474697
 20
3.353553844852353
 30
0.0
 40
0.375
  0
LINE
  5
23C
330
2
100
AcDbEntity
  8
0
  6
HIDDEN
100
AcDbLine
 10
-1.265521097956087
 20
2.228553844852353
 30
0.0
 11
1.73650819364866
 21
2.228553844852353
 31
0.0
  0
LINE
  5
23D
330
2
100
AcDbEntity
  8
0
  6
HIDDEN
100
AcDbLine
 10
-1.265521097956087
 20
4.47855384485235
 30
0.0
 11
-1.265521097956087
 21
2.228553844852353
 31
0.0
  0
LINE
  5
23E
330
2
100
AcDbEntity
  8
0
  6
HIDDEN
100
AcDbLine
 10
1.73650819364866
 20
4.47855384485235
 30
0.0
 11
1.73650819364866
 21
2.228553844852353
 31
0.0
  0
LINE
  5
23F
330
2
100
AcDbEntity
  8
0
100
AcDbLine
 10
2.986508193648668
 20
4.436580540148988
 30
0.0
 11
2.98650819364866
 21
5.738702714875068
 31
0.0
  0
LINE
  5
240
330
2
100
AcDbEntity
  8
0
100
AcDbLine
 10
3.111508193648668
 20
4.436580540148988
 30
0.0
 11
3.11150819364866
 21
5.738702714875068
 31
0.0
  0
LINE
  5
241
330
2
100
AcDbEntity
  8
0
100
AcDbLine
 10
3.36150819364866
 20
5.801202714875068
 30
0.0
 11
3.36150819364866
 21
3.353553844852353
 31
0.0
  0
LINE
  5
242
330
2
100
AcDbEntity
  8
0
100
AcDbLine
 10
3.23650819364866
 20
5.801202714875068
 30
0.0
 11
3.23650819364866
 21
3.353553844852353
 31
0.0
  0
LINE
  5
243
330
2
100
AcDbEntity
  8
0
100
AcDbLine
 10
3.11150819364866
 20
5.801202714875068
 30
0.0
 11
3.11150819364866
 21
3.353553844852353
 31
0.0
  0
ARC
  5
244
330
2
100
AcDbEntity
  8
0
  6
HIDDEN
100
AcDbCircle
 10
2.117883757123035
 20
3.356324831785837
 30
0.0
 40
0.5805205305018613
100
AcDbArc
 50
321.4501181605234
 51
39.78136971856124
  0
LINE
  5
245
330
2
100
AcDbEntity
  8
0
  6
HIDDEN
100
AcDbLine
 10
2.98650819364866
 20
2.22855384485235
 30
0.0
 11
2.98650819364866
 21
3.353553844852353
 31
0.0
  0
LINE
  5
246
330
2
100
AcDbEntity
  8
0
100
AcDbLine
 10
3.040634781385194
 20
4.47855384485235
 30
0.0
 11
3.040634781385194
 21
2.22855384485235
 31
0.0
  0
LINE
  5
247
330
2
100
AcDbEntity
  8
0
100
AcDbLine
 10
3.103134781385187
 20
3.890086676600596
 30
0.0
 11
3.103134781385187
 21
2.817021013104121
 31
0.0
  0
LINE
  5
248
330
2
100
AcDbEntity
  8
0
100
AcDbLine
 10
2.699246063791627
 20
1.214357915400527
 30
0.0
 11
2.787634411439946
 21
1.302746263048846
 31
0.0
  0
ARC
  5
249
330
2
100
AcDbEntity
  8
0
100
AcDbCircle
 10
2.97809175396392
 20
2.839050024805275
 30
0.0
 40
0.1269686420468157
100
AcDbArc
 50
299.2091229555836
 51
10.09829102002281
  0
LINE
  5
24A
330
2
100
AcDbEntity
  8
0
100
AcDbLine
 10
2.98650819364866
 20
2.22855384485235
 30
0.0
 11
3.11150819364866
 21
2.228553844852353
 31
0.0
  0
LINE
  5
24B
330
2
100
AcDbEntity
  8
0
100
AcDbLine
 10
2.97813478138519
 20
2.22855384485235
 30
0.0
 11
3.040634781385194
 21
2.22855384485235
 31
0.0
  0
LINE
  5
24C
330
2
100
AcDbEntity
  8
0
  6
HIDDEN
100
AcDbLine
 10
2.98650819364866
 20
4.47855384485235
 30
0.0
 11
2.98650819364866
 21
3.353553844852353
 31
0.0
  0
ARC
  5
24D
330
2
100
AcDbEntity
  8
0
100
AcDbCircle
 10
2.97809175396392
 20
3.868057664899432
 30
0.0
 40
0.1269686420468157
100
AcDbArc
 50
349.9017089799772
 51
60.79087704441649
  0
LINE
  5
24E
330
2
100
AcDbEntity
  8
0
100
AcDbLine
 10
2.986508193648668
 20
4.47855384485235
 30
0.0
 11
3.11150819364866
 21
4.47855384485235
 31
0.0
  0
LINE
  5
24F
330
2
100
AcDbEntity
  8
0
100
AcDbLine
 10
2.97813478138519
 20
4.47855384485235
 30
0.0
 11
3.040634781385194
 21
4.47855384485235
 31
0.0
  0
LINE
  5
250
330
2
100
AcDbEntity
  8
0
100
AcDbLine
 10
3.103569652786625
 20
5.801202714875068
 30
0.0
 11
3.36150819364866
 21
5.801202714875068
 31
0.0
  0
ARC
  5
251
330
2
100
AcDbEntity
  8
0
100
AcDbCircle
 10
2.86150819364866
 20
5.78627562564462
 30
0.0
 40
0.25
100
AcDbArc
 50
315.0000000000002
 51
0.0
  0
ARC
  5
252
330
2
100
AcDbEntity
  8
0
100
AcDbCircle
 10
2.86150819364866
 20
5.796770991809183
 30
0.0
 40
0.25
100
AcDbArc
 50
0.0000000000000254
 51
90.00000000000003
  0
ARC
  5
253
330
2
100
AcDbEntity
  8
0
100
AcDbCircle
 10
2.86150819364866
 20
5.78627562564462
 30
0.0
 40
0.125
100
AcDbArc
 50
315.0000000000002
 51
0.0000000000000254
  0
LINE
  5
254
330
2
100
AcDbEntity
  8
0
100
AcDbLine
 10
2.699246063791627
 20
5.447236800490948
 30
0.0
 11
2.94989654129698
 21
5.697887277996301
 31
0.0
  0
LINE
  5
255
330
2
100
AcDbEntity
  8
0
100
AcDbLine
 10
2.787634411439946
 20
5.358848452842629
 30
0.0
 11
2.98650819364866
 21
5.557722235051351
 31
0.0
  0
LINE
  5
256
330
2
100
AcDbEntity
  8
0
100
AcDbLine
 10
2.699246063791627
 20
5.445667387600842
 30
0.0
 11
2.787634411439946
 21
5.357279039952523
 31
0.0
  0
LINE
  5
257
330
2
100
AcDbEntity
  8
0
100
AcDbLine
 10
2.98650819364866
 20
5.557722235051351
 30
0.0
 11
3.038284888945299
 21
5.609498930347989
 31
0.0
  0
LINE
  5
258
330
2
100
AcDbEntity
  8
0
100
AcDbLine
 10
3.103569652786625
 20
5.801202714875068
 30
0.0
 11
3.11150819364866
 21
5.801202714875068
 31
0.0
  0
ARC
  5
259
330
2
100
AcDbEntity
  8
0
100
AcDbCircle
 10
2.86150819364866
 20
5.796770991809183
 30
0.0
 40
0.125
100
AcDbArc
 50
0.0000000000000254
 51
90.00000000000003
  0
ELLIPSE
  5
276
330
2
100
AcDbEntity
  8
0
  6
HIDDEN
100
AcDbEllipse
 10
-2.34587824081322
 20
4.24306277342377
 30
0.0
 11
8.104519874495245E-16
 21
0.1399546451337536
 31
0.0
210
0.0
220
0.0
230
1.0
 40
0.5000000000000116
 41
1.337422558543092
 42
3.061762667877555
  0
ELLIPSE
  5
277
330
2
100
AcDbEntity
  8
0
  6
HIDDEN
100
AcDbEllipse
 10
-2.34587824081322
 20
2.464044916280919
 30
0.0
 11
1.165394463704812E-15
 21
0.1399546451337573
 31
0.0
210
0.0
220
0.0
230
1.0
 40
0.4999999999999951
 41
0.0798299857122606
 42
1.804170095046702
  0
ELLIPSE
  5
278
330
2
100
AcDbEntity
  8
0
  6
HIDDEN
100
AcDbEllipse
 10
-2.045350643410624
 20
1.529690208488709
 30
0.0
 11
5.008924416739665E-14
 21
1.073867394173346
 31
0.0
210
0.0
220
0.0
230
1.0
 40
0.50000000000001
 41
0.7785721816412869
 42
0.8621700546672662
  0
ELLIPSE
  5
279
330
2
100
AcDbEntity
  8
0
  6
HIDDEN
100
AcDbEllipse
 10
-2.045350643410623
 20
5.177417481215986
 30
0.0
 11
3.722786747268447E-13
 21
1.07386739417302
 31
0.0
210
0.0
220
0.0
230
1.0
 40
0.5000000000000194
 41
2.27942259892298
 42
2.36302047194901
  0
LINE
  5
27A
330
2
100
AcDbEntity
  8
0
  6
HIDDEN
100
AcDbLine
 10
-2.515521097956078
 20
4.47855384485235
 30
0.0
 11
-2.453021097956078
 21
4.47855384485235
 31
0.0
  0
LINE
  5
27B
330
2
100
AcDbEntity
  8
0
  6
HIDDEN
100
AcDbLine
 10
-2.515521097956079
 20
2.22855384485235
 30
0.0
 11
-2.453021097956079
 21
2.22855384485235
 31
0.0
  0
ELLIPSE
  5
27C
330
2
100
AcDbEntity
  8
0
  6
HIDDEN
100
AcDbEllipse
 10
-1.435163955098938
 20
2.464044916280919
 30
0.0
 11
3.697317460992392E-16
 21
0.1399546451337572
 31
0.0
210
0.0
220
0.0
230
1.0
 40
0.4999999999999973
 41
4.47901521213289
 42
6.203355321467335
  0
LINE
  5
27D
330
2
100
AcDbEntity
  8
0
  6
HIDDEN
100
AcDbLine
 10
-1.429583597956079
 20
2.60355384485235
 30
0.0
 11
-1.890521097956079
 21
2.603553844852346
 31
0.0
  0
LINE
  5
27E
330
2
100
AcDbEntity
  8
0
  6
HIDDEN
100
AcDbLine
 10
-2.351458597956078
 20
2.60355384485235
 30
0.0
 11
-1.890521097956079
 21
2.603553844852346
 31
0.0
  0
ELLIPSE
  5
27F
330
2
100
AcDbEntity
  8
0
  6
HIDDEN
100
AcDbEllipse
 10
-1.735691552501533
 20
1.529690208488709
 30
0.0
 11
-1.008643256782114E-12
 21
1.073867394174132
 31
0.0
210
0.0
220
0.0
230
1.0
 40
0.4999999999999493
 41
-0.8621700546683393
 42
-0.7785721816424748
  0
LINE
  5
280
330
2
100
AcDbEntity
  8
0
  6
HIDDEN
100
AcDbLine
 10
-1.35862253604399
 20
2.294194628083233
 30
0.0
 11
-2.422419659868168
 21
2.294194628083233
 31
0.0
  0
LINE
  5
281
330
2
100
AcDbEntity
  8
0
  6
HIDDEN
100
AcDbLine
 10
-2.352135874352108
 20
2.650026903658048
 30
0.0
 11
-1.438984194332976
 21
2.650026903658048
 31
0.0
  0
LINE
  5
282
330
2
100
AcDbEntity
  8
0
  6
HIDDEN
100
AcDbLine
 10
-2.352135874352108
 20
2.544520499882943
 30
0.0
 11
-1.438984194332976
 21
2.544520499882943
 31
0.0
  0
LINE
  5
283
330
2
100
AcDbEntity
  8
0
  6
HIDDEN
100
AcDbLine
 10
-1.328021097956076
 20
2.22855384485235
 30
0.0
 11
-1.265521097956079
 21
2.22855384485235
 31
0.0
  0
ELLIPSE
  5
284
330
2
100
AcDbEntity
  8
0
  6
HIDDEN
100
AcDbEllipse
 10
-1.435163955098938
 20
4.24306277342377
 30
0.0
 11
-8.104519874495859E-16
 21
0.1399546451337536
 31
0.0
210
0.0
220
0.0
230
1.0
 40
0.5000000000000117
 41
3.22142263930203
 42
4.945762748636494
  0
LINE
  5
285
330
2
100
AcDbEntity
  8
0
  6
HIDDEN
100
AcDbLine
 10
-1.429583597956079
 20
4.103553844852343
 30
0.0
 11
-1.890521097956079
 21
4.103553844852343
 31
0.0
  0
LINE
  5
286
330
2
100
AcDbEntity
  8
0
  6
HIDDEN
100
AcDbLine
 10
-2.351458597956078
 20
4.103553844852343
 30
0.0
 11
-1.890521097956079
 21
4.103553844852343
 31
0.0
  0
LINE
  5
287
330
2
100
AcDbEntity
  8
0
100
AcDbLine
 10
-1.2641067580063
 20
4.503514122828126
 30
0.0
 11
-1.276034295971144
 21
4.486878258332467
 31
0.0
  0
LINE
  5
288
330
2
100
AcDbEntity
  8
0
  6
HIDDEN
100
AcDbLine
 10
-1.328021097956075
 20
4.47855384485235
 30
0.0
 11
-1.265521097956078
 21
4.47855384485235
 31
0.0
  0
LINE
  5
289
330
2
100
AcDbEntity
  8
0
  6
HIDDEN
100
AcDbLine
 10
-2.352135874352108
 20
4.162587189821753
 30
0.0
 11
-1.438984194332976
 21
4.162587189821753
 31
0.0
  0
LINE
  5
28A
330
2
100
AcDbEntity
  8
0
  6
HIDDEN
100
AcDbLine
 10
-2.352135874352108
 20
4.057080786046647
 30
0.0
 11
-1.438984194332976
 21
4.057080786046647
 31
0.0
  0
LINE
  5
28B
330
2
100
AcDbEntity
  8
0
  6
HIDDEN
100
AcDbLine
 10
-1.35862253604399
 20
4.412913061621463
 30
0.0
 11
-2.422419659868167
 21
4.412913061621463
 31
0.0
  0
ELLIPSE
  5
28C
330
2
100
AcDbEntity
  8
0
  6
HIDDEN
100
AcDbEllipse
 10
-1.735691552501532
 20
5.177417481215986
 30
0.0
 11
8.646174147049948E-14
 21
1.073867394173387
 31
0.0
210
0.0
220
0.0
230
1.0
 40
0.4999999999999967
 41
3.92016483523114
 42
4.003762708257113
  0
ELLIPSE
  5
28D
330
2
100
AcDbEntity
  8
0
  6
HIDDEN
100
AcDbEllipse
 10
-2.078021097956077
 20
3.35355384485235
 30
0.0
 11
-1.428204315799654E-16
 21
0.375
 31
0.0
210
0.0
220
0.0
230
1.0
 40
0.5
 41
-0.0000000000000009
 42
6.283185307179585
  0
ELLIPSE
  5
28E
330
2
100
AcDbEntity
  8
0
  6
HIDDEN
100
AcDbEllipse
 10
2.816865336505805
 20
2.46404491628093
 30
0.0
 11
8.104519874495245E-16
 21
0.1399546451337536
 31
0.0
210
0.0
220
0.0
230
1.0
 40
0.5000000000000116
 41
4.479015212132886
 42
6.203355321467348
  0
ELLIPSE
  5
28F
330
2
100
AcDbEntity
  8
0
  6
HIDDEN
100
AcDbEllipse
 10
2.816865336505805
 20
4.24306277342378
 30
0.0
 11
1.165394463704812E-15
 21
0.1399546451337573
 31
0.0
210
0.0
220
0.0
230
1.0
 40
0.4999999999999951
 41
3.221422639302053
 42
4.945762748636494
  0
ELLIPSE
  5
290
330
2
100
AcDbEntity
  8
0
  6
HIDDEN
100
AcDbEllipse
 10
2.51633773910321
 20
5.17741748121599
 30
0.0
 11
5.008924416739665E-14
 21
1.073867394173346
 31
0.0
210
0.0
220
0.0
230
1.0
 40
0.50000000000001
 41
3.920164835231081
 42
4.00376270825706
  0
ELLIPSE
  5
291
330
2
100
AcDbEntity
  8
0
  6
HIDDEN
100
AcDbEllipse
 10
2.516337739103209
 20
1.529690208488713
 30
0.0
 11
3.722786747268447E-13
 21
1.07386739417302
 31
0.0
210
0.0
220
0.0
230
1.0
 40
0.5000000000000194
 41
-0.8621700546668141
 42
-0.778572181640783
  0
LINE
  5
292
330
2
100
AcDbEntity
  8
0
100
AcDbLine
 10
2.986508193648664
 20
2.22855384485235
 30
0.0
 11
2.924008193648664
 21
2.22855384485235
 31
0.0
  0
LINE
  5
293
330
2
100
AcDbEntity
  8
0
100
AcDbLine
 10
2.986508193648664
 20
4.47855384485235
 30
0.0
 11
2.924008193648664
 21
4.47855384485235
 31
0.0
  0
ELLIPSE
  5
294
330
2
100
AcDbEntity
  8
0
  6
HIDDEN
100
AcDbEllipse
 10
1.906151050791523
 20
4.24306277342378
 30
0.0
 11
3.697317460992392E-16
 21
0.1399546451337572
 31
0.0
210
0.0
220
0.0
230
1.0
 40
0.4999999999999973
 41
1.337422558543097
 42
3.061762667877542
  0
LINE
  5
295
330
2
100
AcDbEntity
  8
0
  6
HIDDEN
100
AcDbLine
 10
1.900570693648664
 20
4.10355384485235
 30
0.0
 11
2.361508193648664
 21
4.103553844852353
 31
0.0
  0
LINE
  5
296
330
2
100
AcDbEntity
  8
0
  6
HIDDEN
100
AcDbLine
 10
2.822445693648664
 20
4.10355384485235
 30
0.0
 11
2.361508193648664
 21
4.103553844852353
 31
0.0
  0
ELLIPSE
  5
297
330
2
100
AcDbEntity
  8
0
  6
HIDDEN
100
AcDbEllipse
 10
2.206678648194118
 20
5.17741748121599
 30
0.0
 11
-1.008643256782114E-12
 21
1.073867394174132
 31
0.0
210
0.0
220
0.0
230
1.0
 40
0.4999999999999493
 41
2.279422598921453
 42
2.363020471947318
  0
LINE
  5
298
330
2
100
AcDbEntity
  8
0
  6
HIDDEN
100
AcDbLine
 10
1.829609631736576
 20
4.412913061621467
 30
0.0
 11
2.893406755560754
 21
4.412913061621467
 31
0.0
  0
LINE
  5
299
330
2
100
AcDbEntity
  8
0
  6
HIDDEN
100
AcDbLine
 10
2.823122970044693
 20
4.057080786046651
 30
0.0
 11
1.909971290025561
 21
4.057080786046651
 31
0.0
  0
LINE
  5
29A
330
2
100
AcDbEntity
  8
0
  6
HIDDEN
100
AcDbLine
 10
2.823122970044693
 20
4.162587189821757
 30
0.0
 11
1.909971290025561
 21
4.162587189821757
 31
0.0
  0
LINE
  5
29B
330
2
100
AcDbEntity
  8
0
  6
HIDDEN
100
AcDbLine
 10
1.79900819364866
 20
4.47855384485235
 30
0.0
 11
1.736508193648664
 21
4.47855384485235
 31
0.0
  0
ELLIPSE
  5
29C
330
2
100
AcDbEntity
  8
0
  6
HIDDEN
100
AcDbEllipse
 10
1.906151050791523
 20
2.46404491628093
 30
0.0
 11
-8.104519874495859E-16
 21
0.1399546451337536
 31
0.0
210
0.0
220
0.0
230
1.0
 40
0.5000000000000117
 41
0.079829985712238
 42
1.804170095046701
  0
LINE
  5
29D
330
2
100
AcDbEntity
  8
0
  6
HIDDEN
100
AcDbLine
 10
1.900570693648664
 20
2.603553844852357
 30
0.0
 11
2.361508193648664
 21
2.603553844852357
 31
0.0
  0
LINE
  5
29E
330
2
100
AcDbEntity
  8
0
  6
HIDDEN
100
AcDbLine
 10
2.822445693648664
 20
2.603553844852357
 30
0.0
 11
2.361508193648664
 21
2.603553844852357
 31
0.0
  0
LINE
  5
29F
330
2
100
AcDbEntity
  8
0
100
AcDbLine
 10
1.735093853698885
 20
2.203593566876574
 30
0.0
 11
1.747021391663729
 21
2.220229431372232
 31
0.0
  0
LINE
  5
2A0
330
2
100
AcDbEntity
  8
0
  6
HIDDEN
100
AcDbLine
 10
1.79900819364866
 20
2.22855384485235
 30
0.0
 11
1.736508193648664
 21
2.22855384485235
 31
0.0
  0
LINE
  5
2A1
330
2
100
AcDbEntity
  8
0
  6
HIDDEN
100
AcDbLine
 10
2.823122970044693
 20
2.544520499882946
 30
0.0
 11
1.909971290025561
 21
2.544520499882946
 31
0.0
  0
LINE
  5
2A2
330
2
100
AcDbEntity
  8
0
  6
HIDDEN
100
AcDbLine
 10
2.823122970044693
 20
2.650026903658052
 30
0.0
 11
1.909971290025561
 21
2.650026903658052
 31
0.0
  0
LINE
  5
2A3
330
2
100
AcDbEntity
  8
0
  6
HIDDEN
100
AcDbLine
 10
1.829609631736576
 20
2.294194628083236
 30
0.0
 11
2.893406755560752
 21
2.294194628083236
 31
0.0
  0
ELLIPSE
  5
2A4
330
2
100
AcDbEntity
  8
0
  6
HIDDEN
100
AcDbEllipse
 10
2.206678648194117
 20
1.529690208488713
 30
0.0
 11
8.646174147049948E-14
 21
1.073867394173387
 31
0.0
210
0.0
220
0.0
230
1.0
 40
0.4999999999999967
 41
0.7785721816413465
 42
0.8621700546673194
  0
ELLIPSE
  5
2A5
330
2
100
AcDbEntity
  8
0
  6
HIDDEN
100
AcDbEllipse
 10
2.549008193648662
 20
3.35355384485235
 30
0.0
 11
-1.428204315799654E-16
 21
0.375
 31
0.0
210
0.0
220
0.0
230
1.0
 40
0.5
 41
3.141592653589793
 42
9.424777960769379
  0
ENDSEC
  0
SECTION
  2
OBJECTS
  0
DICTIONARY
  5
9
330
0
100
AcDbDictionary
281
     1
  3
ACAD_COLOR
350
15B
  3
ACAD_GROUP
350
23
  3
ACAD_LAYOUT
350
D
  3
ACAD_MATERIAL
350
15A
  3
ACAD_MLINESTYLE
350
24
  3
ACAD_PLOTSETTINGS
350
25
  3
ACAD_PLOTSTYLENAME
350
8
  3
ACAD_TABLESTYLE
350
15C
  3
ACDBHEADERROUNDTRIPXREC
350
2F5
  3
AcDbVariableDictionary
350
156
  0
DICTIONARY
  5
3
330
2
100
AcDbDictionary
280
     1
281
     1
  3
ACAD_SORTENTS
360
163
  0
DICTIONARY
  5
15B
102
{ACAD_REACTORS
330
9
102
}
330
9
100
AcDbDictionary
281
     1
  0
DICTIONARY
  5
23
102
{ACAD_REACTORS
330
9
102
}
330
9
100
AcDbDictionary
281
     1
  0
DICTIONARY
  5
D
102
{ACAD_REACTORS
330
9
102
}
330
9
100
AcDbDictionary
281
     1
  3
Layout1
350
13
  3
Model
350
C
  0
DICTIONARY
  5
15A
102
{ACAD_REACTORS
330
9
102
}
330
9
100
AcDbDictionary
281
     1
  0
DICTIONARY
  5
24
102
{ACAD_REACTORS
330
9
102
}
330
9
100
AcDbDictionary
281
     1
  3
Standard
350
27
  0
DICTIONARY
  5
25
102
{ACAD_REACTORS
330
9
102
}
330
9
100
AcDbDictionary
281
     1
  0
ACDBDICTIONARYWDFLT
  5
8
102
{ACAD_REACTORS
330
9
102
}
330
9
100
AcDbDictionary
281
     1
  3
Normal
350
7
100
AcDbDictionaryWithDefault
340
7
  0
DICTIONARY
  5
15C
102
{ACAD_REACTORS
330
9
102
}
330
9
100
AcDbDictionary
281
     1
  3
Standard
350
15D
  0
DICTIONARY
  5
2F5
102
{ACAD_REACTORS
330
9
102
}
330
9
100
AcDbDictionary
281
     1
  3
COLORDICT
350
2F6
  3
MATERIALDICT
350
2F7
  0
DICTIONARY
  5
156
102
{ACAD_REACTORS
330
9
102
}
330
9
100
AcDbDictionary
281
     1
  3
CTABLESTYLE
350
260
  3
HIDETEXT
350
2F4
  0
SORTENTSTABLE
  5
163
102
{ACAD_REACTORS
330
3
102
}
330
3
100
AcDbSortentsTable
330
2
331
0
  5
29A
331
21E
  5
1AC
331
20E
  5
19C
331
201
  5
18F
331
245
  5
1EB
331
238
  5
1C6
331
1FF
  5
18D
331
22A
  5
1B8
331
21C
  5
1AA
331
24D
  5
1F3
331
223
  5
1B1
331
1FA
  5
188
331
242
  5
1E8
331
29E
  5
1D8
331
1F9
  5
187
331
282
  5
174
331
298
  5
1D2
331
29C
  5
1D6
331
24C
  5
1F2
331
227
  5
1B5
331
214
  5
1A2
331
248
  5
1EE
331
285
  5
177
331
229
  5
1B7
331
281
  5
173
331
29A
  5
1D4
331
29D
  5
1D7
331
21D
  5
1AB
331
2A1
  5
1DB
331
28E
  5
1C8
331
241
  5
1E7
331
295
  5
1CF
331
220
  5
1AE
331
20C
  5
19A
331
22F
  5
1BD
331
1F7
  5
185
331
23C
  5
1E2
331
213
  5
1A1
331
251
  5
1F7
331
28F
  5
1C9
331
23F
  5
1E5
331
232
  5
1C0
331
209
  5
197
331
23A
  5
1E0
331
226
  5
1B4
331
21F
  5
1AD
331
207
  5
195
331
249
  5
1EF
331
290
  5
1CA
331
28D
  5
17F
331
28C
  5
17E
331
257
  5
1FD
331
22B
  5
1B9
331
250
  5
1F6
331
244
  5
1EA
331
1FC
  5
18A
331
258
  5
1FE
331
2A0
  5
1DA
331
27B
  5
16D
331
1F4
  5
182
331
233
  5
1C1
331
252
  5
1F8
331
240
  5
1E6
331
23D
  5
1E3
331
237
  5
1C5
331
246
  5
1EC
331
231
  5
1BF
331
23B
  5
1E1
331
2A2
  5
1DC
331
20A
  5
198
331
27D
  5
16F
331
204
  5
192
331
277
  5
169
331
1FE
  5
18C
331
21A
  5
1A8
331
203
  5
191
331
299
  5
1D3
331
293
  5
1CD
331
24A
  5
1F0
331
247
  5
1ED
331
279
  5
16B
331
1F2
  5
180
331
230
  5
1BE
331
255
  5
1FB
331
1F6
  5
184
331
253
  5
1F9
331
297
  5
1D1
331
24F
  5
1F5
331
28B
  5
17D
331
1F5
  5
183
331
292
  5
1CC
331
29F
  5
1D9
331
205
  5
193
331
225
  5
1B3
331
24E
  5
1F4
331
294
  5
1CE
331
216
  5
1A4
331
296
  5
1D0
331
20F
  5
19D
331
236
  5
1C4
331
280
  5
172
331
22C
  5
1BA
331
200
  5
18E
331
278
  5
16A
331
27A
  5
16C
331
289
  5
17B
331
1FD
  5
18B
331
243
  5
1E9
331
202
  5
190
331
211
  5
19F
331
234
  5
1C2
331
228
  5
1B6
331
1F3
  5
181
331
208
  5
196
331
27F
  5
171
331
287
  5
179
331
22E
  5
1BC
331
21B
  5
1A9
331
288
  5
17A
331
29B
  5
1D5
331
218
  5
1A6
331
27C
  5
16E
331
276
  5
168
331
206
  5
194
331
256
  5
1FC
331
1F8
  5
186
331
212
  5
1A0
331
283
  5
175
331
210
  5
19E
331
219
  5
1A7
331
2A3
  5
1DD
331
217
  5
1A5
331
28A
  5
17C
331
22D
  5
1BB
331
221
  5
1AF
331
23E
  5
1E4
331
1FB
  5
189
331
235
  5
1C3
331
24B
  5
1F1
331
224
  5
1B2
331
259
  5
1FF
331
20B
  5
199
331
20D
  5
19B
331
291
  5
1CB
331
215
  5
1A3
331
2A5
  5
1DF
331
222
  5
1B0
331
286
  5
178
331
284
  5
176
331
254
  5
1FA
331
2A4
  5
1DE
331
27E
  5
170
  0
LAYOUT
  5
13
102
{ACAD_REACTORS
330
D
102
}
102
{ACAD_XDICTIONARY
360
2F8
102
}
330
D
100
AcDbPlotSettings
  1

  2
HP LaserJet 2100 Series PS
  4

  6

 40
0.0
 41
0.0
 42
0.0
 43
0.0
 44
0.0
 45
0.0
 46
0.0
 47
0.0
 48
0.0
 49
0.0
140
0.0
141
0.0
142
1.0
143
1.0
 70
   688
 72
     0
 73
     0
 74
     5
  7

 75
    16
147
1.0
148
0.0
149
0.0
100
AcDbLayout
  1
Layout1
 70
     0
 71
     1
 10
0.0
 20
0.0
 11
12.0
 21
9.0
 12
0.0
 22
0.0
 32
0.0
 14
1.000000000000000E+20
 24
1.000000000000000E+20
 34
1.000000000000000E+20
 15
-1.000000000000000E+20
 25
-1.000000000000000E+20
 35
-1.000000000000000E+20
146
0.0
 13
0.0
 23
0.0
 33
0.0
 16
1.0
 26
0.0
 36
0.0
 17
0.0
 27
1.0
 37
0.0
 76
     0
330
E
  0
LAYOUT
  5
C
102
{ACAD_REACTORS
330
D
102
}
102
{ACAD_XDICTIONARY
360
2FA
102
}
330
D
100
AcDbPlotSettings
  1

  2
HP LaserJet 2100 Series PS
  4
Letter
  6

 40
5.365749835968018
 41
5.408084392547607
 42
5.4080810546875
 43
5.365753173828125
 44
215.8999938964844
 45
279.3999938964844
 46
0.0
 47
0.0
 48
0.0
 49
0.0
140
0.0
141
0.0
142
1.0
143
2.482074006153913
 70
 28336
 72
     0
 73
     0
 74
     2
  7

 75
     0
147
0.4028888733859896
148
0.0
149
0.0
100
AcDbLayout
  1
Model
 70
     1
 71
     0
 10
0.0
 20
0.0
 11
12.0
 21
9.0
 12
0.0
 22
0.0
 32
0.0
 14
0.0
 24
0.0
 34
0.0
 15
0.0
 25
0.0
 35
0.0
146
0.0
 13
0.0
 23
0.0
 33
0.0
 16
1.0
 26
0.0
 36
0.0
 17
0.0
 27
1.0
 37
0.0
 76
     0
330
2
  0
MLINESTYLE
  5
27
102
{ACAD_REACTORS
330
24
102
}
330
24
100
AcDbMlineStyle
  2
STANDARD
 70
     0
  3

 62
   256
 51
90.0
 52
90.0
 71
     2
 49
0.5
 62
   256
  6
BYLAYER
 49
-0.5
 62
   256
  6
BYLAYER
  0
ACDBPLACEHOLDER
  5
7
102
{ACAD_REACTORS
330
8
102
}
330
8
  0
ACAD_PROXY_OBJECT
  5
15D
102
{ACAD_REACTORS
330
15C
102
}
330
15C
100
AcDbProxyObject
 90
      499
 91
      508
 95
   983063
 70
     0
 93
     1841
310
4214DD185B99185C9928B81E85EB51B8AE3F2E07A17AD46E2B8FC02B5E8DC0F42B1CFD028000000C1008070000C3001FDFF8000000C1003FBFF000000182007F7FE00000030400FEFFC00000060801FDFF8000000C1003FBFF00000018200000000000000681FA0B0000001820100E000186003FBFF000000182007F7FE000
310
00030400FEFFC00000060801FDFF8000000C1003FBFF000000182007F7FE000000304000AD7A3703D0AC73F4160000003040201C00030C007F7FE00000030400FEFFC00000060801FDFF8000000C1003FBFF000000182007F7FE00000030400FEFFC000000608000
340
16
340
16
340
16
 94
        0
  0
XRECORD
  5
2F6
102
{ACAD_REACTORS
330
2F5
102
}
330
2F5
100
AcDbXrecord
340
15B
  0
XRECORD
  5
2F7
102
{ACAD_REACTORS
330
2F5
102
}
330
2F5
100
AcDbXrecord
340
15A
  0
DICTIONARYVAR
  5
260
102
{ACAD_REACTORS
330
156
102
}
330
156
100
DictionaryVariables
280
     0
  1
STANDARD
  0
DICTIONARYVAR
  5
2F4
102
{ACAD_REACTORS
330
156
102
}
330
156
100
DictionaryVariables
280
     0
  1
0
  0
DICTIONARY
  5
2F8
330
13
100
AcDbDictionary
280
     1
281
     1
  3
ACAD_XREC_ROUNDTRIP
360
2F9
  0
DICTIONARY
  5
2FA
330
C
100
AcDbDictionary
280
     1
281
     1
  3
ACAD_XREC_ROUNDTRIP
360
2FB
  0
XRECORD
  5
2F9
102
{ACAD_REACTORS
330
2F8
102
}
330
2F8
100
AcDbXrecord
102
SHADEPLOT
 70
     0
102
SHADEPLOTRESLEVEL
 70
     2
102
SHADEPLOTCUSTOMDPI
 70
   300
  0
XRECORD
  5
2FB
102
{ACAD_REACTORS
330
2FA
102
}
330
2FA
100
AcDbXrecord
102
SHADEPLOT
 70
     0
102
SHADEPLOTRESLEVEL
 70
     2
102
SHADEPLOTCUSTOMDPI
 70
   300
  0
ENDSEC
  0
EOF
