  0
SECTION
  2
HEADER
  9
$ACADVER
  1
AC1015
  9
$ACADMAINTVER
 70
     6
  9
$DWGCODEPAGE
  3
ANSI_1252
  9
$INSBASE
 10
0.0
 20
0.0
 30
0.0
  9
$EXTMIN
 10
-11.97064386194892
 20
-2.781090338726029
 30
-0.0000000000112498
  9
$EXTMAX
 10
12.09791051165908
 20
17.57206642064103
 30
0.0000000000002956
  9
$LIMMIN
 10
0.0
 20
0.0
  9
$LIMMAX
 10
20.0
 20
26.25
  9
$ORTHOMODE
 70
     1
  9
$REGENMODE
 70
     1
  9
$FILLMODE
 70
     1
  9
$QTEXTMODE
 70
     0
  9
$MIRRTEXT
 70
     1
  9
$LTSCALE
 40
0.75
  9
$ATTMODE
 70
     1
  9
$TEXTSIZE
 40
0.225
  9
$TRACEWID
 40
0.05
  9
$TEXTSTYLE
  7
STANDARD
  9
$CLAYER
  8
0
  9
$CELTYPE
  6
ByLayer
  9
$CECOLOR
 62
   256
  9
$CELTSCALE
 40
1.0
  9
$DISPSILH
 70
     0
  9
$DIMSCALE
 40
2.5
  9
$DIMASZ
 40
0.125
  9
$DIMEXO
 40
0.062
  9
$DIMDLI
 40
0.375
  9
$DIMRND
 40
0.0
  9
$DIMDLE
 40
0.0
  9
$DIMEXE
 40
0.08
  9
$DIMTP
 40
0.0
  9
$DIMTM
 40
0.0
  9
$DIMTXT
 40
0.09
  9
$DIMCEN
 40
-0.06
  9
$DIMTSZ
 40
0.0
  9
$DIMTOL
 70
     0
  9
$DIMLIM
 70
     0
  9
$DIMTIH
 70
     1
  9
$DIMTOH
 70
     1
  9
$DIMSE1
 70
     0
  9
$DIMSE2
 70
     0
  9
$DIMTAD
 70
     0
  9
$DIMZIN
 70
     0
  9
$DIMBLK
  1

  9
$DIMASO
 70
     0
  9
$DIMSHO
 70
     0
  9
$DIMPOST
  1

  9
$DIMAPOST
  1

  9
$DIMALT
 70
     0
  9
$DIMALTD
 70
     2
  9
$DIMALTF
 40
25.4
  9
$DIMLFAC
 40
1.0
  9
$DIMTOFL
 70
     0
  9
$DIMTVP
 40
0.0
  9
$DIMTIX
 70
     0
  9
$DIMSOXD
 70
     0
  9
$DIMSAH
 70
     0
  9
$DIMBLK1
  1

  9
$DIMBLK2
  1

  9
$DIMSTYLE
  2
Standard
  9
$DIMCLRD
 70
     0
  9
$DIMCLRE
 70
     0
  9
$DIMCLRT
 70
     0
  9
$DIMTFAC
 40
1.0
  9
$DIMGAP
 40
0.09
  9
$DIMJUST
 70
     0
  9
$DIMSD1
 70
     0
  9
$DIMSD2
 70
     0
  9
$DIMTOLJ
 70
     1
  9
$DIMTZIN
 70
     0
  9
$DIMALTZ
 70
     0
  9
$DIMALTTZ
 70
     0
  9
$DIMUPT
 70
     0
  9
$DIMDEC
 70
     4
  9
$DIMTDEC
 70
     4
  9
$DIMALTU
 70
     2
  9
$DIMALTTD
 70
     2
  9
$DIMTXSTY
  7
STANDARD
  9
$DIMAUNIT
 70
     0
  9
$DIMADEC
 70
     0
  9
$DIMALTRND
 40
0.0
  9
$DIMAZIN
 70
     0
  9
$DIMDSEP
 70
    46
  9
$DIMATFIT
 70
     3
  9
$DIMFRAC
 70
     0
  9
$DIMLDRBLK
  1

  9
$DIMLUNIT
 70
     2
  9
$DIMLWD
 70
    -2
  9
$DIMLWE
 70
    -2
  9
$DIMTMOVE
 70
     2
  9
$LUNITS
 70
     2
  9
$LUPREC
 70
     4
  9
$SKETCHINC
 40
0.1
  9
$FILLETRAD
 40
0.0
  9
$AUNITS
 70
     0
  9
$AUPREC
 70
     0
  9
$MENU
  1
acad
  9
$ELEVATION
 40
0.0
  9
$PELEVATION
 40
0.0
  9
$THICKNESS
 40
0.0
  9
$LIMCHECK
 70
     0
  9
$CHAMFERA
 40
0.0
  9
$CHAMFERB
 40
0.0
  9
$CHAMFERC
 40
0.0
  9
$CHAMFERD
 40
0.0
  9
$SKPOLY
 70
     0
  9
$TDCREATE
 40
2448063.993171991
  9
$TDUCREATE
 40
2448064.326505324
  9
$TDUPDATE
 40
2454946.984960613
  9
$TDUUPDATE
 40
2454947.318293947
  9
$TDINDWG
 40
0.2236149884
  9
$TDUSRTIMER
 40
0.2236149884
  9
$USRTIMER
 70
     1
  9
$ANGBASE
 50
0.0
  9
$ANGDIR
 70
     0
  9
$PDMODE
 70
     0
  9
$PDSIZE
 40
0.0
  9
$PLINEWID
 40
0.0
  9
$SPLFRAME
 70
     0
  9
$SPLINETYPE
 70
     6
  9
$SPLINESEGS
 70
     8
  9
$HANDSEED
  5
C19
  9
$SURFTAB1
 70
     6
  9
$SURFTAB2
 70
     6
  9
$SURFTYPE
 70
     6
  9
$SURFU
 70
     6
  9
$SURFV
 70
     6
  9
$UCSBASE
  2

  9
$UCSNAME
  2

  9
$UCSORG
 10
0.0
 20
0.0
 30
0.0
  9
$UCSXDIR
 10
1.0
 20
0.0
 30
0.0
  9
$UCSYDIR
 10
0.0
 20
1.0
 30
0.0
  9
$UCSORTHOREF
  2

  9
$UCSORTHOVIEW
 70
     0
  9
$UCSORGTOP
 10
0.0
 20
0.0
 30
0.0
  9
$UCSORGBOTTOM
 10
0.0
 20
0.0
 30
0.0
  9
$UCSORGLEFT
 10
0.0
 20
0.0
 30
0.0
  9
$UCSORGRIGHT
 10
0.0
 20
0.0
 30
0.0
  9
$UCSORGFRONT
 10
0.0
 20
0.0
 30
0.0
  9
$UCSORGBACK
 10
0.0
 20
0.0
 30
0.0
  9
$PUCSBASE
  2

  9
$PUCSNAME
  2

  9
$PUCSORG
 10
0.0
 20
0.0
 30
0.0
  9
$PUCSXDIR
 10
1.0
 20
0.0
 30
0.0
  9
$PUCSYDIR
 10
0.0
 20
1.0
 30
0.0
  9
$PUCSORTHOREF
  2

  9
$PUCSORTHOVIEW
 70
     0
  9
$PUCSORGTOP
 10
0.0
 20
0.0
 30
0.0
  9
$PUCSORGBOTTOM
 10
0.0
 20
0.0
 30
0.0
  9
$PUCSORGLEFT
 10
0.0
 20
0.0
 30
0.0
  9
$PUCSORGRIGHT
 10
0.0
 20
0.0
 30
0.0
  9
$PUCSORGFRONT
 10
0.0
 20
0.0
 30
0.0
  9
$PUCSORGBACK
 10
0.0
 20
0.0
 30
0.0
  9
$USERI1
 70
     0
  9
$USERI2
 70
     0
  9
$USERI3
 70
     0
  9
$USERI4
 70
     0
  9
$USERI5
 70
     0
  9
$USERR1
 40
0.0
  9
$USERR2
 40
0.0
  9
$USERR3
 40
0.0
  9
$USERR4
 40
0.0
  9
$USERR5
 40
0.0
  9
$WORLDVIEW
 70
     1
  9
$SHADEDGE
 70
     3
  9
$SHADEDIF
 70
    70
  9
$TILEMODE
 70
     1
  9
$MAXACTVP
 70
    16
  9
$PINSBASE
 10
0.0
 20
0.0
 30
0.0
  9
$PLIMCHECK
 70
     0
  9
$PEXTMIN
 10
1.000000000000000E+20
 20
1.000000000000000E+20
 30
1.000000000000000E+20
  9
$PEXTMAX
 10
-1.000000000000000E+20
 20
-1.000000000000000E+20
 30
-1.000000000000000E+20
  9
$PLIMMIN
 10
0.0
 20
0.0
  9
$PLIMMAX
 10
12.0
 20
9.0
  9
$UNITMODE
 70
     0
  9
$VISRETAIN
 70
     0
  9
$PLINEGEN
 70
     1
  9
$PSLTSCALE
 70
     0
  9
$TREEDEPTH
 70
  3020
  9
$CMLSTYLE
  2
Standard
  9
$CMLJUST
 70
     0
  9
$CMLSCALE
 40
1.0
  9
$PROXYGRAPHICS
 70
     1
  9
$MEASUREMENT
 70
     0
  9
$CELWEIGHT
370
    -1
  9
$ENDCAPS
280
     0
  9
$JOINSTYLE
280
     0
  9
$LWDISPLAY
290
     0
  9
$INSUNITS
 70
     0
  9
$HYPERLINKBASE
  1

  9
$STYLESHEET
  1

  9
$XEDIT
290
     1
  9
$CEPSNTYPE
380
     0
  9
$PSTYLEMODE
290
     1
  9
$FINGERPRINTGUID
  2
{36260161-DC21-11D6-BE3F-00508B5FCD51}
  9
$VERSIONGUID
  2
{2FCCA0E4-00BD-4241-9D7F-2FA4E0B0D040}
  9
$EXTNAMES
290
     1
  9
$PSVPSCALE
 40
0.0
  9
$OLESTARTUP
290
     0
  0
ENDSEC
  0
SECTION
  2
CLASSES
  0
CLASS
  1
ACDBDICTIONARYWDFLT
  2
AcDbDictionaryWithDefault
  3
AutoCAD 2000
 90
        0
280
     0
281
     0
  0
CLASS
  1
ACDBPLACEHOLDER
  2
AcDbPlaceHolder
  3
ObjectDBX Classes
 90
        0
280
     0
281
     0
  0
CLASS
  1
LAYOUT
  2
AcDbLayout
  3
ObjectDBX Classes
 90
        0
280
     0
281
     0
  0
CLASS
  1
LONG_TRANSACTION
  2
AcDbLongTransaction
  3
ObjectDBX Classes
 90
   -65536
280
     1
281
     0
  0
CLASS
  1
LWPOLYLINE
  2
AcDbPolyline
  3
AutoCAD 2000
 90
        0
280
     0
281
     1
  0
CLASS
  1
HATCH
  2
AcDbHatch
  3
AutoCAD 2000
 90
        0
280
     0
281
     1
  0
CLASS
  1
XRECORD
  2
AcDbXrecord
  3
AutoCAD 2000
 90
        0
280
     0
281
     0
  0
CLASS
  1
TABLESTYLE
  2
AcDbTableStyle
  3
ObjectDBX Classes
 90
     2047
280
     1
281
     0
  0
CLASS
  1
DICTIONARYVAR
  2
AcDbDictionaryVar
  3
AutoCAD 2000
 90
        0
280
     0
281
     0
  0
ENDSEC
  0
SECTION
  2
TABLES
  0
TABLE
  2
VPORT
  5
8
330
0
100
AcDbSymbolTable
 70
     3
  0
VPORT
  5
C07
330
8
100
AcDbSymbolTableRecord
100
AcDbViewportTableRecord
  2
*Active
 70
     0
 10
0.0
 20
0.0
 11
1.0
 21
1.0
 12
10.53186334963925
 22
3.549636073665539
 13
0.0
 23
0.0
 14
0.063
 24
0.063
 15
0.25
 25
0.25
 16
0.0
 26
0.0
 36
1.0
 17
0.0
 27
0.0
 37
0.0
 40
32.42021423587227
 41
1.87741935483871
 42
50.0
 43
0.0
 44
0.0
 50
0.0
 51
0.0
 71
     0
 72
   100
 73
     1
 74
     0
 75
     0
 76
     0
 77
     0
 78
     0
281
     0
 65
     1
110
0.0
120
0.0
130
0.0
111
1.0
121
0.0
131
0.0
112
0.0
122
1.0
132
0.0
 79
     0
146
0.0
  0
ENDTAB
  0
TABLE
  2
LTYPE
  5
5
330
0
100
AcDbSymbolTable
 70
     6
  0
LTYPE
  5
13
330
5
100
AcDbSymbolTableRecord
100
AcDbLinetypeTableRecord
  2
ByBlock
 70
     0
  3

 72
    65
 73
     0
 40
0.0
  0
LTYPE
  5
14
330
5
100
AcDbSymbolTableRecord
100
AcDbLinetypeTableRecord
  2
ByLayer
 70
     0
  3

 72
    65
 73
     0
 40
0.0
  0
LTYPE
  5
15
330
5
100
AcDbSymbolTableRecord
100
AcDbLinetypeTableRecord
  2
CONTINUOUS
 70
     0
  3
Solid line
 72
    65
 73
     0
 40
0.0
  0
LTYPE
  5
3B
330
5
100
AcDbSymbolTableRecord
100
AcDbLinetypeTableRecord
  2
HIDDEN
 70
     0
  3
_ _ _ _ _ _ _ _ _ _ _ _ _ _ _ _ _ _ _ _ _ _ _
 72
    65
 73
     2
 40
0.375
 49
0.25
 74
     0
 49
-0.125
 74
     0
  0
LTYPE
  5
3C
330
5
100
AcDbSymbolTableRecord
100
AcDbLinetypeTableRecord
  2
DASHED
 70
     0
  3
__ __ __ __ __ __ __ __ __ __ __ __ __ __ __
 72
    65
 73
     2
 40
0.75
 49
0.5
 74
     0
 49
-0.25
 74
     0
  0
ENDTAB
  0
TABLE
  2
LAYER
  5
2
102
{ACAD_XDICTIONARY
360
BB1
102
}
330
0
100
AcDbSymbolTable
 70
    17
  0
LAYER
  5
10
330
2
100
AcDbSymbolTableRecord
100
AcDbLayerTableRecord
  2
0
 70
     0
 62
     7
  6
CONTINUOUS
370
    -3
390
F
  0
LAYER
  5
46
330
2
100
AcDbSymbolTableRecord
100
AcDbLayerTableRecord
  2
DIM
 70
     0
 62
     5
  6
CONTINUOUS
370
    -3
390
F
  0
LAYER
  5
49
330
2
100
AcDbSymbolTableRecord
100
AcDbLayerTableRecord
  2
HIDDEN
 70
     0
 62
   253
  6
HIDDEN
370
    -3
390
F
  0
LAYER
  5
4B
330
2
100
AcDbSymbolTableRecord
100
AcDbLayerTableRecord
  2
DASHED
 70
     0
 62
     8
  6
DASHED
370
    -3
390
F
  0
ENDTAB
  0
TABLE
  2
STYLE
  5
3
330
0
100
AcDbSymbolTable
 70
     5
  0
STYLE
  5
11
330
3
100
AcDbSymbolTableRecord
100
AcDbTextStyleTableRecord
  2
STANDARD
 70
     0
 40
0.0
 41
1.0
 50
0.0
 71
     0
 42
0.225
  3
TXT
  4

  0
ENDTAB
  0
TABLE
  2
VIEW
  5
6
330
0
100
AcDbSymbolTable
 70
     0
  0
ENDTAB
  0
TABLE
  2
UCS
  5
7
330
0
100
AcDbSymbolTable
 70
     0
  0
ENDTAB
  0
TABLE
  2
APPID
  5
9
330
0
100
AcDbSymbolTable
 70
     1
  0
APPID
  5
12
330
9
100
AcDbSymbolTableRecord
100
AcDbRegAppTableRecord
  2
ACAD
 70
     0
  0
ENDTAB
  0
TABLE
  2
DIMSTYLE
  5
A
330
0
100
AcDbSymbolTable
 70
     1
100
AcDbDimStyleTable
  0
DIMSTYLE
105
9A4
330
A
100
AcDbSymbolTableRecord
100
AcDbDimStyleTableRecord
  2
Standard
 70
     0
  3

  4

340
11
  0
ENDTAB
  0
TABLE
  2
BLOCK_RECORD
  5
1
330
0
100
AcDbSymbolTable
 70
    25
  0
BLOCK_RECORD
  5
1E
330
1
100
AcDbSymbolTableRecord
100
AcDbBlockTableRecord
  2
*Model_Space
340
21
  0
BLOCK_RECORD
  5
1A
330
1
100
AcDbSymbolTableRecord
100
AcDbBlockTableRecord
  2
*Paper_Space
340
1D
  0
BLOCK_RECORD
  5
2B
330
1
100
AcDbSymbolTableRecord
100
AcDbBlockTableRecord
  2
4PBS44
340
0
102
{BLKREFS
331
8AC
331
8AD
331
8AE
331
BDC
102
}
  0
ENDTAB
  0
ENDSEC
  0
SECTION
  2
BLOCKS
  0
BLOCK
  5
53
330
1E
100
AcDbEntity
  8
0
100
AcDbBlockBegin
  2
*Model_Space
 70
     0
 10
0.0
 20
0.0
 30
0.0
  3
*Model_Space
  1

  4

  0
ENDBLK
  5
54
330
1E
100
AcDbEntity
  8
0
100
AcDbBlockEnd
  0
BLOCK
  5
51
330
1A
100
AcDbEntity
 67
     1
  8
0
100
AcDbBlockBegin
  2
*Paper_Space
 70
     0
 10
0.0
 20
0.0
 30
0.0
  3
*Paper_Space
  1

  4

  0
ENDBLK
  5
52
330
1A
100
AcDbEntity
 67
     1
  8
0
100
AcDbBlockEnd
  0
BLOCK
  5
111
330
2B
100
AcDbEntity
  8
0
100
AcDbBlockBegin
  2
4PBS44
 70
     0
 10
6.937500000000003
 20
6.96875
 30
0.0
  3
4PBS44
  1

  4

  0
ARC
  5
112
330
2B
100
AcDbEntity
  8
0
100
AcDbCircle
 10
6.702008928571424
 20
6.629464285714284
 30
0.0
 40
0.1399546451337564
100
AcDbArc
 50
76.62866803010834
 51
175.4260787400984
  0
ARC
  5
113
330
2B
100
AcDbEntity
  8
0
100
AcDbCircle
 10
4.922991071428571
 20
6.629464285714284
 30
0.0
 40
0.1399546451337564
100
AcDbArc
 50
4.573921259901612
 51
103.3713319698917
  0
ARC
  5
114
330
2B
100
AcDbEntity
  8
0
100
AcDbCircle
 10
3.988636363636364
 20
6.028409090909093
 30
0.0
 40
1.073867394173319
100
AcDbArc
 50
44.60890005433588
 51
49.39870535499551
  0
ARC
  5
115
330
2B
100
AcDbEntity
  8
0
100
AcDbCircle
 10
7.636363636363639
 20
6.028409090909093
 30
0.0
 40
1.073867394173319
100
AcDbArc
 50
130.6012946450045
 51
135.3910999456641
  0
LINE
  5
116
330
2B
100
AcDbEntity
  8
0
100
AcDbLine
 10
6.937500000000003
 20
6.96875
 30
0.0
 11
6.937500000000003
 21
6.84375
 31
0.0
  0
LINE
  5
117
330
2B
100
AcDbEntity
  8
0
100
AcDbLine
 10
4.687500000000001
 20
6.96875
 30
0.0
 11
4.687500000000001
 21
6.84375
 31
0.0
  0
ARC
  5
118
330
2B
100
AcDbEntity
  8
0
100
AcDbCircle
 10
4.922991071428571
 20
4.80803571428572
 30
0.0
 40
0.1399546451337564
100
AcDbArc
 50
256.6286680301083
 51
355.4260787400984
  0
LINE
  5
119
330
2B
100
AcDbEntity
  8
0
100
AcDbLine
 10
5.062500000000001
 20
4.796875000000004
 30
0.0
 11
5.0625
 21
5.718750000000002
 31
0.0
  0
LINE
  5
11A
330
2B
100
AcDbEntity
  8
0
100
AcDbLine
 10
5.062500000000001
 20
6.640625
 30
0.0
 11
5.0625
 21
5.718750000000002
 31
0.0
  0
ARC
  5
11B
330
2B
100
AcDbEntity
  8
0
100
AcDbCircle
 10
3.988636363636364
 20
5.409090909090909
 30
0.0
 40
1.073867394173319
100
AcDbArc
 50
310.6012946450045
 51
315.3910999456639
  0
LINE
  5
11C
330
2B
100
AcDbEntity
  8
0
100
AcDbLine
 10
4.753140783230887
 20
4.654952876175824
 30
0.0
 11
4.753140783230887
 21
6.78254712382418
 31
0.0
  0
LINE
  5
11D
330
2B
100
AcDbEntity
  8
0
100
AcDbLine
 10
5.108973058805701
 20
6.641979552792061
 30
0.0
 11
5.108973058805701
 21
4.815676192753798
 31
0.0
  0
LINE
  5
11E
330
2B
100
AcDbEntity
  8
0
100
AcDbLine
 10
5.003466655030597
 20
6.641979552792061
 30
0.0
 11
5.003466655030597
 21
4.815676192753798
 31
0.0
  0
LINE
  5
11F
330
2B
100
AcDbEntity
  8
0
100
AcDbLine
 10
4.687500000000001
 20
4.593749999999996
 30
0.0
 11
4.687500000000001
 21
4.46875
 31
0.0
  0
ARC
  5
120
330
2B
100
AcDbEntity
  8
0
100
AcDbCircle
 10
6.702008928571424
 20
4.80803571428572
 30
0.0
 40
0.1399546451337564
100
AcDbArc
 50
184.5739212599016
 51
283.3713319698916
  0
LINE
  5
121
330
2B
100
AcDbEntity
  8
0
100
AcDbLine
 10
6.562499999999994
 20
4.796875000000004
 30
0.0
 11
6.562499999999995
 21
5.718750000000002
 31
0.0
  0
LINE
  5
122
330
2B
100
AcDbEntity
  8
0
100
AcDbLine
 10
6.562499999999994
 20
6.640625
 30
0.0
 11
6.562499999999995
 21
5.718750000000002
 31
0.0
  0
LINE
  5
123
330
2B
100
AcDbEntity
  8
DIM
100
AcDbLine
 10
6.962460277975778
 20
4.465921320100443
 30
0.0
 11
6.945824413480119
 21
4.489776396030133
 31
0.0
  0
LINE
  5
124
330
2B
100
AcDbEntity
  8
0
100
AcDbLine
 10
6.937500000000003
 20
4.593749999999996
 30
0.0
 11
6.937500000000003
 21
4.46875
 31
0.0
  0
LINE
  5
125
330
2B
100
AcDbEntity
  8
0
100
AcDbLine
 10
6.621533344969406
 20
6.641979552792061
 30
0.0
 11
6.621533344969406
 21
4.815676192753798
 31
0.0
  0
LINE
  5
126
330
2B
100
AcDbEntity
  8
0
100
AcDbLine
 10
6.516026941194302
 20
6.641979552792061
 30
0.0
 11
6.516026941194302
 21
4.815676192753798
 31
0.0
  0
LINE
  5
127
330
2B
100
AcDbEntity
  8
0
100
AcDbLine
 10
6.871859216769116
 20
4.654952876175824
 30
0.0
 11
6.871859216769116
 21
6.78254712382418
 31
0.0
  0
ARC
  5
128
330
2B
100
AcDbEntity
  8
0
100
AcDbCircle
 10
7.636363636363639
 20
5.409090909090909
 30
0.0
 40
1.073867394173319
100
AcDbArc
 50
224.6089000543361
 51
229.3987053549955
  0
CIRCLE
  5
129
330
2B
100
AcDbEntity
  8
0
100
AcDbCircle
 10
5.812500000000001
 20
6.093749999999998
 30
0.0
 40
0.375
  0
ENDBLK
  5
12A
330
2B
100
AcDbEntity
  8
0
100
AcDbBlockEnd
  0
ENDSEC
  0
SECTION
  2
ENTITIES
  0
LINE
  5
77C
330
1E
100
AcDbEntity
  8
0
100
AcDbLine
 10
-8.217588261767023
 20
17.56869169785151
 30
0.0
 11
-9.967588261767023
 21
17.56869169785151
 31
0.0
  0
LINE
  5
77D
330
1E
100
AcDbEntity
  8
0
100
AcDbLine
 10
-10.21758826176702
 20
17.31869169785151
 30
0.0
 11
-10.21758826176702
 21
11.08781520317256
 31
0.0
  0
LINE
  5
77E
330
1E
100
AcDbEntity
  8
0
100
AcDbLine
 10
-7.967588261767023
 20
17.31869169785151
 30
0.0
 11
-7.967588261767023
 21
11.08781520317256
 31
0.0
  0
CIRCLE
  5
77F
330
1E
100
AcDbEntity
  8
0
100
AcDbCircle
 10
-9.092588261767023
 20
16.75619169785151
 30
0.0
 40
0.28125
  0
CIRCLE
  5
780
330
1E
100
AcDbEntity
  8
0
100
AcDbCircle
 10
-9.092588261767023
 20
14.75619169785151
 30
0.0
 40
0.28125
  0
LINE
  5
781
330
1E
100
AcDbEntity
  8
0
100
AcDbLine
 10
-8.21758826176702
 20
11.08781520317256
 30
0.0
 11
-8.217588261767023
 21
10.69365192444484
 31
0.0
  0
LINE
  5
782
330
1E
100
AcDbEntity
  8
0
100
AcDbLine
 10
-9.967588261767023
 20
11.08781520317256
 30
0.0
 11
-9.967588261767023
 21
10.69365192444484
 31
0.0
  0
LINE
  5
783
330
1E
100
AcDbEntity
  8
0
100
AcDbLine
 10
-7.967588261767023
 20
10.06869169785151
 30
0.0
 11
-7.967588261767023
 21
7.149112898377634
 31
0.0
  0
LINE
  5
784
330
1E
100
AcDbEntity
  8
0
100
AcDbLine
 10
-10.21758826176702
 20
10.06869169785151
 30
0.0
 11
-10.21758826176702
 21
7.149112898377634
 31
0.0
  0
LINE
  5
785
330
1E
100
AcDbEntity
  8
0
100
AcDbLine
 10
-8.467588261767023
 20
13.56869169785151
 30
0.0
 11
-8.467588261767023
 21
10.69365192444484
 31
0.0
  0
LINE
  5
786
330
1E
100
AcDbEntity
  8
0
100
AcDbLine
 10
-9.717588261767023
 20
13.56869169785151
 30
0.0
 11
-9.717588261767027
 21
10.69365192444484
 31
0.0
  0
ARC
  5
787
330
1E
100
AcDbEntity
  8
0
100
AcDbCircle
 10
-9.092588261767023
 20
10.20931669785151
 30
0.0
 40
0.6406250000000004
100
AcDbArc
 50
192.68038349182
 51
347.31961650818
  0
LINE
  5
788
330
1E
100
AcDbEntity
  8
0
100
AcDbLine
 10
-7.967588261767023
 20
17.31869169785151
 30
0.0
 11
-8.217588261767023
 21
17.56869169785151
 31
0.0
  0
LINE
  5
789
330
1E
100
AcDbEntity
  8
0
100
AcDbLine
 10
-9.967588261767023
 20
17.56869169785151
 30
0.0
 11
-10.21758826176702
 21
17.31869169785151
 31
0.0
  0
LINE
  5
78A
330
1E
100
AcDbEntity
  8
0
100
AcDbLine
 10
-2.745216437240082
 20
17.57206642064103
 30
0.0
 11
-2.745216437240082
 21
11.0749112960818
 31
0.0
  0
LINE
  5
78B
330
1E
100
AcDbEntity
  8
0
100
AcDbLine
 10
-2.807716437240082
 20
17.57206642064103
 30
0.0
 11
-2.807716437240082
 21
11.06934233431395
 31
0.0
  0
LINE
  5
78C
330
1E
100
AcDbEntity
  8
0
100
AcDbLine
 10
-2.736843024976611
 20
7.165423210112374
 30
0.0
 11
-2.718423749259046
 21
7.133520088730931
 31
0.0
  0
LINE
  5
78D
330
1E
100
AcDbEntity
  8
0
100
AcDbLine
 10
-1.485547653591384
 20
5.060616051597387
 30
0.0
 11
1.012410150496439
 21
5.060616051597387
 31
0.0
  0
LINE
  5
78E
330
1E
100
AcDbEntity
  8
0
100
AcDbLine
 10
-2.790969612713138
 20
7.134173210112374
 30
0.0
 11
-1.593800829064435
 21
5.060616051597389
 31
0.0
  0
LINE
  5
78F
330
1E
100
AcDbEntity
  8
0
100
AcDbLine
 10
-1.485547653591381
 20
4.998116051597389
 30
0.0
 11
1.012410150496439
 21
4.998116051597389
 31
0.0
  0
LINE
  5
790
330
1E
100
AcDbEntity
  8
0
100
AcDbLine
 10
-1.502089849503555
 20
-1.125000000000001
 30
0.0
 11
1.499939442101191
 21
-1.125000000000001
 31
0.0
  0
LINE
  5
791
330
1E
100
AcDbEntity
  8
0
100
AcDbLine
 10
-1.502089849503555
 20
1.125
 30
0.0
 11
1.499939442101191
 21
1.125
 31
0.0
  0
CIRCLE
  5
792
330
1E
100
AcDbEntity
  8
0
100
AcDbCircle
 10
0.0
 20
0.0
 30
0.0
 40
0.375
  0
LINE
  5
794
330
1E
100
AcDbEntity
  8
0
100
AcDbLine
 10
1.494367954584266
 20
4.998116051597387
 30
0.0
 11
1.012410150496446
 21
4.998116051597389
 31
0.0
  0
LINE
  5
795
330
1E
100
AcDbEntity
  8
0
100
AcDbLine
 10
1.494367954584266
 20
5.060616051597387
 30
0.0
 11
1.012410150496446
 21
5.060616051597387
 31
0.0
  0
LINE
  5
796
330
1E
100
AcDbEntity
  8
0
100
AcDbLine
 10
2.816536738232973
 20
17.57206642064103
 30
0.0
 11
2.816536738232973
 21
11.06439909465714
 31
0.0
  0
LINE
  5
797
330
1E
100
AcDbEntity
  8
0
100
AcDbLine
 10
2.754036738232973
 20
17.57206642064103
 30
0.0
 11
2.754036738232973
 21
11.0749112960818
 31
0.0
  0
ARC
  5
798
330
1E
100
AcDbEntity
  8
0
100
AcDbCircle
 10
-1.485547653591381
 20
5.123116051597389
 30
0.0
 40
0.125
100
AcDbArc
 50
210.0
 51
269.9999999999999
  0
ARC
  5
799
330
1E
100
AcDbEntity
  8
0
100
AcDbCircle
 10
-1.485547653591384
 20
5.123116051597387
 30
0.0
 40
0.0625
100
AcDbArc
 50
210.0
 51
270.0
  0
ARC
  5
79A
330
1E
100
AcDbEntity
  8
0
100
AcDbCircle
 10
-2.682716437240082
 20
7.196673210112374
 30
0.0
 40
0.125
100
AcDbArc
 50
180.0
 51
210.0
  0
ARC
  5
79B
330
1E
100
AcDbEntity
  8
0
100
AcDbCircle
 10
-2.682716437240082
 20
7.196673210112374
 30
0.0
 40
0.0625
100
AcDbArc
 50
180.0
 51
209.9999999999999
  0
LINE
  5
79C
330
1E
100
AcDbEntity
  8
0
100
AcDbLine
 10
2.804066029837724
 20
1.124999999999998
 30
0.0
 11
2.804066029837724
 21
-1.125000000000004
 31
0.0
  0
LINE
  5
79D
330
1E
100
AcDbEntity
  8
0
100
AcDbLine
 10
-2.806216437240082
 20
1.125
 30
0.0
 11
-2.806216437240082
 21
-1.125000000000002
 31
0.0
  0
LINE
  5
79E
330
1E
100
AcDbEntity
  8
0
100
AcDbLine
 10
2.741566029837721
 20
1.124999999999998
 30
0.0
 11
2.804066029837724
 21
1.124999999999998
 31
0.0
  0
LINE
  5
79F
330
1E
100
AcDbEntity
  8
0
100
AcDbLine
 10
2.741566029837721
 20
-1.125000000000004
 30
0.0
 11
2.804066029837724
 21
-1.125000000000004
 31
0.0
  0
LINE
  5
7A0
330
1E
100
AcDbEntity
  8
0
100
AcDbLine
 10
-2.743716437240082
 20
1.125
 30
0.0
 11
-2.806216437240082
 21
1.125
 31
0.0
  0
LINE
  5
7A1
330
1E
100
AcDbEntity
  8
0
100
AcDbLine
 10
-2.743716437240082
 20
-1.125000000000003
 30
0.0
 11
-2.806216437240082
 21
-1.125000000000002
 31
0.0
  0
ARC
  5
7A2
330
1E
100
AcDbEntity
  8
0
100
AcDbCircle
 10
1.881315005575566
 20
0.0027709869334842
 30
0.0
 40
0.5805205305018613
100
AcDbArc
 50
321.4501181605234
 51
39.78136971856124
  0
ARC
  5
7A3
330
1E
100
AcDbEntity
  8
0
100
AcDbCircle
 10
-1.848029886066691
 20
0.0025580876277473
 30
0.0
 40
0.614379897890597
100
AcDbArc
 50
141.4399199925968
 51
217.3654113158657
  0
LINE
  5
7A4
330
1E
100
AcDbEntity
  8
0
100
AcDbLine
 10
-2.870216437240082
 20
14.17071925211369
 30
0.0
 11
-2.870216437240082
 21
11.04141764702792
 31
0.0
  0
ARC
  5
7A5
330
1E
100
AcDbEntity
  8
0
100
AcDbCircle
 10
-2.745173409818815
 20
14.14869024041208
 30
0.0
 40
0.1269686420468157
100
AcDbArc
 50
119.2091229555835
 51
190.0982910200228
  0
ARC
  5
7A6
330
1E
100
AcDbEntity
  8
0
100
AcDbCircle
 10
-2.745173409818815
 20
9.373287476310754
 30
0.0
 40
0.1269686420468157
100
AcDbArc
 50
169.9017089799772
 51
240.7908770444165
  0
ARC
  5
7A7
330
1E
100
AcDbEntity
  8
0
100
AcDbCircle
 10
2.753993710811702
 20
9.373287476310754
 30
0.0
 40
0.1269686420468157
100
AcDbArc
 50
299.2091229555836
 51
10.09829102002281
  0
ARC
  5
7A8
330
1E
100
AcDbEntity
  8
0
100
AcDbCircle
 10
2.753993710811702
 20
14.14869024041208
 30
0.0
 40
0.1269686420468157
100
AcDbArc
 50
349.9017089799772
 51
60.79087704441651
  0
LINE
  5
7A9
330
1E
100
AcDbEntity
  8
0
100
AcDbLine
 10
2.879036738232973
 20
14.17071925211369
 30
0.0
 11
2.879036738232973
 21
11.04141764702792
 31
0.0
  0
LINE
  5
7AA
330
1E
100
AcDbEntity
  8
0
100
AcDbLine
 10
-2.868716437240082
 20
0.5365328317482447
 30
0.0
 11
-2.868716437240082
 21
-0.5365328317482332
 31
0.0
  0
ARC
  5
7AB
330
1E
100
AcDbEntity
  8
0
100
AcDbCircle
 10
-2.743673409818813
 20
-0.5145038200470795
 30
0.0
 40
0.1269686420468157
100
AcDbArc
 50
169.9017089799772
 51
240.7908770444165
  0
ARC
  5
7AC
330
1E
100
AcDbEntity
  8
0
100
AcDbCircle
 10
-2.743673409818813
 20
0.5145038200470786
 30
0.0
 40
0.1269686420468157
100
AcDbArc
 50
119.2091229555835
 51
190.0982910200228
  0
ARC
  5
7AD
330
1E
100
AcDbEntity
  8
0
100
AcDbCircle
 10
2.74152300241645
 20
0.5145038200470786
 30
0.0
 40
0.1269686420468157
100
AcDbArc
 50
349.9017089799772
 51
60.79087704441649
  0
ARC
  5
7AE
330
1E
100
AcDbEntity
  8
0
100
AcDbCircle
 10
2.74152300241645
 20
-0.5145038200470795
 30
0.0
 40
0.1269686420468157
100
AcDbArc
 50
299.2091229555836
 51
10.09829102002281
  0
LINE
  5
7AF
330
1E
100
AcDbEntity
  8
0
100
AcDbLine
 10
2.866566029837717
 20
0.5365328317482447
 30
0.0
 11
2.866566029837717
 21
-0.5365328317482332
 31
0.0
  0
LINE
  5
7B0
330
1E
100
AcDbEntity
  8
0
100
AcDbLine
 10
-7.967588261767027
 20
4.984049388916533
 30
0.0
 11
-10.21758826176703
 21
4.984049388916533
 31
0.0
  0
LINE
  5
7B1
330
1E
100
AcDbEntity
  8
DASHED
100
AcDbLine
 10
-7.967588261767023
 20
5.046549388916533
 30
0.0
 11
-10.21758826176703
 21
5.046549388916533
 31
0.0
  0
LINE
  5
7B2
330
1E
100
AcDbEntity
  8
0
100
AcDbLine
 10
-7.967588261767023
 20
5.08434098638433
 30
0.0
 11
-7.967588261767023
 21
4.984049388916533
 31
0.0
  0
LINE
  5
7B3
330
1E
100
AcDbEntity
  8
0
100
AcDbLine
 10
-10.21758826176703
 20
5.090618637944775
 30
0.0
 11
-10.21758826176703
 21
4.984049388916532
 31
0.0
  0
ARC
  5
7B4
330
1E
100
AcDbEntity
  8
0
100
AcDbCircle
 10
-9.085912896281585
 20
6.697793715608446
 30
0.0
 40
0.4684152307000224
100
AcDbArc
 50
216.9136282255241
 51
322.1198117351944
  0
LINE
  5
7B5
330
1E
100
AcDbEntity
  8
0
100
AcDbLine
 10
-8.393983991686092
 20
7.18260654743152
 30
0.0
 11
-9.737111156756694
 21
7.18260654743152
 31
0.0
  0
LINE
  5
7B6
330
1E
100
AcDbEntity
  8
0
100
AcDbLine
 10
-9.483195330243998
 20
7.225020168496013
 30
0.0
 11
-8.570849498429418
 21
7.225020168496013
 31
0.0
  0
LINE
  5
7B7
330
1E
100
AcDbEntity
  8
0
100
AcDbLine
 10
-9.483195330243998
 20
7.152199410394854
 30
0.0
 11
-8.566471639351612
 21
7.152199410394854
 31
0.0
  0
LINE
  5
7B8
330
1E
100
AcDbEntity
  8
0
100
AcDbLine
 10
-2.24229660822348
 20
6.840093689594816
 30
0.0
 11
-1.561704719759009
 21
5.661273959555098
 31
0.0
  0
ARC
  5
7B9
330
1E
100
AcDbEntity
  8
0
100
AcDbCircle
 10
-2.695666904193239
 20
6.637440315681419
 30
0.0
 40
0.4966014651873169
100
AcDbArc
 50
24.08431168208278
 51
92.62650846538818
  0
LINE
  5
7BA
330
1E
100
AcDbEntity
  8
0
100
AcDbLine
 10
-2.282891549025877
 20
6.816656189594816
 30
0.0
 11
-1.632782011742437
 21
5.690633440534802
 31
0.0
  0
ARC
  5
7BB
330
1E
100
AcDbEntity
  8
0
100
AcDbCircle
 10
-2.741606195729194
 20
6.586175951147771
 30
0.0
 40
0.5133617315448785
100
AcDbArc
 50
26.67714749101683
 51
93.22683275465644
  0
ARC
  5
7BC
330
1E
100
AcDbEntity
  8
0
100
AcDbCircle
 10
-2.618560897897581
 20
5.331511740149194
 30
0.0
 40
1.04915604562769
100
AcDbArc
 50
345.7897635441573
 51
21.13783912844115
  0
ARC
  5
7BD
330
1E
100
AcDbEntity
  8
0
100
AcDbCircle
 10
-2.193183545690788
 20
5.370885588509575
 30
0.0
 40
0.6950474182663015
100
AcDbArc
 50
338.1512627447103
 51
24.69554859427166
  0
ARC
  5
7BE
330
1E
100
AcDbEntity
  8
0
100
AcDbCircle
 10
2.202003846683677
 20
5.370885588509575
 30
0.0
 40
0.6950474182663015
100
AcDbArc
 50
155.3044514057284
 51
201.8487372552898
  0
ARC
  5
7BF
330
1E
100
AcDbEntity
  8
0
100
AcDbCircle
 10
2.627381198890472
 20
5.331511740149194
 30
0.0
 40
1.04915604562769
100
AcDbArc
 50
158.8621608715589
 51
194.2102364558428
  0
ARC
  5
7C0
330
1E
100
AcDbEntity
  8
0
100
AcDbCircle
 10
2.750426496722085
 20
6.586175951147771
 30
0.0
 40
0.5133617315448785
100
AcDbArc
 50
86.77316724534357
 51
153.3228525089832
  0
LINE
  5
7C1
330
1E
100
AcDbEntity
  8
0
100
AcDbLine
 10
2.291711850018768
 20
6.816656189594816
 30
0.0
 11
1.641602312735326
 21
5.690633440534802
 31
0.0
  0
ARC
  5
7C2
330
1E
100
AcDbEntity
  8
0
100
AcDbCircle
 10
2.70448720518613
 20
6.637440315681419
 30
0.0
 40
0.4966014651873169
100
AcDbArc
 50
87.37349153461184
 51
155.9156883179172
  0
LINE
  5
7C3
330
1E
100
AcDbEntity
  8
0
100
AcDbLine
 10
2.251116909216371
 20
6.840093689594816
 30
0.0
 11
1.570525020751898
 21
5.661273959555098
 31
0.0
  0
ARC
  5
7C4
330
1E
100
AcDbEntity
  8
0
100
AcDbCircle
 10
2.691536738232973
 20
7.196673210112374
 30
0.0
 40
0.0625
100
AcDbArc
 50
330.0000000000001
 51
0.0000000000000254
  0
ARC
  5
7C5
330
1E
100
AcDbEntity
  8
0
100
AcDbCircle
 10
2.691536738232973
 20
7.196673210112374
 30
0.0
 40
0.125
100
AcDbArc
 50
330.0000000000001
 51
0.0000000000000254
  0
ARC
  5
7C6
330
1E
100
AcDbEntity
  8
0
100
AcDbCircle
 10
1.494367954584273
 20
5.123116051597387
 30
0.0
 40
0.0625
100
AcDbArc
 50
270.0000000000001
 51
330.0000000000001
  0
ARC
  5
7C7
330
1E
100
AcDbEntity
  8
0
100
AcDbCircle
 10
1.494367954584273
 20
5.123116051597389
 30
0.0
 40
0.125
100
AcDbArc
 50
270.0000000000002
 51
330.0000000000001
  0
LINE
  5
7C8
330
1E
100
AcDbEntity
  8
0
100
AcDbLine
 10
2.799789913706029
 20
7.134173210112374
 30
0.0
 11
1.602621130057326
 21
5.060616051597389
 31
0.0
  0
LINE
  5
7C9
330
1E
100
AcDbEntity
  8
0
100
AcDbLine
 10
2.745663325969503
 20
7.165423210112374
 30
0.0
 11
2.727244050251937
 21
7.133520088730931
 31
0.0
  0
LINE
  5
7CA
330
1E
100
AcDbEntity
  8
0
100
AcDbLine
 10
-2.807716437240082
 20
17.57206642064103
 30
0.0
 11
-2.745216437240082
 21
17.57206642064103
 31
0.0
  0
LINE
  5
7CB
330
1E
100
AcDbEntity
  8
0
100
AcDbLine
 10
2.754036738232973
 20
17.57206642064103
 30
0.0
 11
2.816536738232973
 21
17.57206642064103
 31
0.0
  0
LINE
  5
7F2
330
1E
100
AcDbEntity
  8
0
100
AcDbLine
 10
-1.502089849503555
 20
1.125
 30
0.0
 11
-1.502089849503555
 21
-1.125000000000001
 31
0.0
  0
LINE
  5
7F3
330
1E
100
AcDbEntity
  8
0
100
AcDbLine
 10
1.499939442101191
 20
1.125
 30
0.0
 11
1.499939442101191
 21
-1.125000000000001
 31
0.0
  0
LINE
  5
813
330
1E
100
AcDbEntity
  8
0
100
AcDbLine
 10
2.887410150496443
 20
10.0749112960818
 30
0.0
 11
2.572948531208507
 21
10.0749112960818
 31
0.0
  0
LINE
  5
814
330
1E
100
AcDbEntity
  8
0
100
AcDbLine
 10
-2.878589849503555
 20
10.0749112960818
 30
0.0
 11
-2.564128230215616
 21
10.0749112960818
 31
0.0
  0
LINE
  5
815
330
1E
100
AcDbEntity
  8
0
100
AcDbLine
 10
-2.840686677898404
 20
10.0749112960818
 30
0.0
 11
2.849506978891292
 21
10.0749112960818
 31
0.0
  0
LINE
  5
816
330
1E
100
AcDbEntity
  8
0
100
AcDbLine
 10
2.887410150496443
 20
10.0749112960818
 30
0.0
 11
-2.878589849503555
 21
10.0749112960818
 31
0.0
  0
LINE
  5
817
330
1E
100
AcDbEntity
  8
0
100
AcDbLine
 10
2.762410150496443
 20
10.8874112960818
 30
0.0
 11
2.849506978891292
 21
10.8874112960818
 31
0.0
  0
LINE
  5
818
330
1E
100
AcDbEntity
  8
0
100
AcDbLine
 10
2.762410150496443
 20
10.9499112960818
 30
0.0
 11
2.699910150496557
 21
10.9499112960818
 31
0.0
  0
ARC
  5
819
330
1E
100
AcDbEntity
  8
0
100
AcDbCircle
 10
2.762410150496443
 20
10.9499112960818
 30
0.0
 40
0.0625
100
AcDbArc
 50
180.0000000000001
 51
270.0
  0
LINE
  5
81A
330
1E
100
AcDbEntity
  8
0
100
AcDbLine
 10
2.762410150496443
 20
11.0749112960818
 30
0.0
 11
1.012410150496443
 21
11.0749112960818
 31
0.0
  0
LINE
  5
81B
330
1E
100
AcDbEntity
  8
0
100
AcDbLine
 10
2.887410150496443
 20
10.0749112960818
 30
0.0
 11
2.887410150496443
 21
10.8249112960818
 31
0.0
  0
LINE
  5
81C
330
1E
100
AcDbEntity
  8
0
100
AcDbLine
 10
2.699910150496443
 20
10.9499112960818
 30
0.0
 11
2.699910150496443
 21
11.0749112960818
 31
0.0
  0
ARC
  5
81D
330
1E
100
AcDbEntity
  8
0
100
AcDbCircle
 10
2.762410150496443
 20
10.8249112960818
 30
0.0
 40
0.25
100
AcDbArc
 50
0.0
 51
90.0
  0
ARC
  5
81E
330
1E
100
AcDbEntity
  8
0
100
AcDbCircle
 10
2.762410150496443
 20
10.8249112960818
 30
0.0
 40
0.125
100
AcDbArc
 50
0.0
 51
90.0
  0
LINE
  5
81F
330
1E
100
AcDbEntity
  8
DASHED
100
AcDbLine
 10
-2.691089849503669
 20
10.9499112960818
 30
0.0
 11
2.699910150496443
 21
10.9499112960818
 31
0.0
  0
ARC
  5
820
330
1E
100
AcDbEntity
  8
0
100
AcDbCircle
 10
-2.753589849503555
 20
10.8249112960818
 30
0.0
 40
0.125
100
AcDbArc
 50
90.00000000000003
 51
180.0000000000001
  0
ARC
  5
821
330
1E
100
AcDbEntity
  8
0
100
AcDbCircle
 10
-2.753589849503555
 20
10.8249112960818
 30
0.0
 40
0.25
100
AcDbArc
 50
90.00000000000003
 51
180.0000000000001
  0
LINE
  5
822
330
1E
100
AcDbEntity
  8
0
100
AcDbLine
 10
-2.691089849503555
 20
10.9499112960818
 30
0.0
 11
-2.691089849503555
 21
11.0749112960818
 31
0.0
  0
LINE
  5
823
330
1E
100
AcDbEntity
  8
0
100
AcDbLine
 10
-2.878589849503555
 20
10.0749112960818
 30
0.0
 11
-2.878589849503555
 21
10.8249112960818
 31
0.0
  0
LINE
  5
824
330
1E
100
AcDbEntity
  8
0
100
AcDbLine
 10
-2.753589849503555
 20
11.0749112960818
 30
0.0
 11
1.012410150496443
 21
11.0749112960818
 31
0.0
  0
ARC
  5
825
330
1E
100
AcDbEntity
  8
0
100
AcDbCircle
 10
-2.753589849503555
 20
10.9499112960818
 30
0.0
 40
0.0625
100
AcDbArc
 50
270.0000000000001
 51
0.0
  0
LINE
  5
826
330
1E
100
AcDbEntity
  8
0
100
AcDbLine
 10
-2.753589849503555
 20
10.9499112960818
 30
0.0
 11
-2.691089849503669
 21
10.9499112960818
 31
0.0
  0
LINE
  5
827
330
1E
100
AcDbEntity
  8
0
100
AcDbLine
 10
-2.753589849503555
 20
10.8874112960818
 30
0.0
 11
-2.861843024976551
 21
10.8874112960818
 31
0.0
  0
LINE
  5
828
330
1E
100
AcDbEntity
  8
HIDDEN
100
AcDbLine
 10
-9.96758826176702
 20
10.69365192444484
 30
0.0
 11
-9.967588261767023
 21
10.06869169785151
 31
0.0
  0
LINE
  5
829
330
1E
100
AcDbEntity
  8
HIDDEN
100
AcDbLine
 10
-8.21758826176702
 20
10.69365192444484
 30
0.0
 11
-8.217588261767023
 21
10.06869169785151
 31
0.0
  0
LINE
  5
82A
330
1E
100
AcDbEntity
  8
0
100
AcDbLine
 10
-8.21758826176702
 20
11.06869169785151
 30
0.0
 11
-6.516309356881763
 21
11.06869169785151
 31
0.0
  0
LINE
  5
82B
330
1E
100
AcDbEntity
  8
0
100
AcDbLine
 10
-6.453809356881763
 20
11.06869169785151
 30
0.0
 11
-6.453809356881763
 21
10.06869169785151
 31
0.0
  0
LINE
  5
82C
330
1E
100
AcDbEntity
  8
0
100
AcDbLine
 10
-11.73136716665228
 20
11.06869169785151
 30
0.0
 11
-11.73136716665228
 21
10.06869169785151
 31
0.0
  0
LINE
  5
82D
330
1E
100
AcDbEntity
  8
DASHED
100
AcDbLine
 10
-11.66886716665228
 20
10.94369169785152
 30
0.0
 11
-10.21700082135231
 21
10.94346959516734
 31
0.0
  0
LINE
  5
82E
330
1E
100
AcDbEntity
  8
0
100
AcDbLine
 10
-11.91886716665228
 20
10.06869169785151
 30
0.0
 11
-6.266309356881763
 21
10.06869169785151
 31
0.0
  0
LINE
  5
82F
330
1E
100
AcDbEntity
  8
0
100
AcDbLine
 10
-10.21598414340749
 20
10.69365192444484
 30
0.0
 11
-7.961658839996442
 21
10.69365192444484
 31
0.0
  0
LINE
  5
830
330
1E
100
AcDbEntity
  8
0
100
AcDbLine
 10
-11.66886716665228
 20
11.06869169785151
 30
0.0
 11
-9.967588261767023
 21
11.06869169785151
 31
0.0
  0
LINE
  5
831
330
1E
100
AcDbEntity
  8
0
100
AcDbLine
 10
-11.91886716665228
 20
10.06869169785152
 30
0.0
 11
-11.91886716665228
 21
10.81869169785151
 31
0.0
  0
LINE
  5
832
330
1E
100
AcDbEntity
  8
0
100
AcDbLine
 10
-6.266309356881763
 20
10.06869169785151
 30
0.0
 11
-6.266309356881763
 21
10.81869169785151
 31
0.0
  0
LINE
  5
833
330
1E
100
AcDbEntity
  8
DASHED
100
AcDbLine
 10
-7.965420203258727
 20
10.94369169785151
 30
0.0
 11
-6.516309356881763
 21
10.94369169785151
 31
0.0
  0
LINE
  5
834
330
1E
100
AcDbEntity
  8
DASHED
100
AcDbLine
 10
-11.79386716665228
 20
10.06869169785152
 30
0.0
 11
-11.79386716665228
 21
10.81869169785152
 31
0.0
  0
LINE
  5
835
330
1E
100
AcDbEntity
  8
DASHED
100
AcDbLine
 10
-6.391309356881763
 20
10.06869169785151
 30
0.0
 11
-6.391309356881763
 21
10.81869169785151
 31
0.0
  0
ARC
  5
836
330
1E
100
AcDbEntity
  8
0
100
AcDbCircle
 10
-11.66886716665228
 20
10.81869169785151
 30
0.0
 40
0.25
100
AcDbArc
 50
90.0
 51
179.9999999999999
  0
ARC
  5
837
330
1E
100
AcDbEntity
  8
0
100
AcDbCircle
 10
-6.516309356881763
 20
10.81869169785151
 30
0.0
 40
0.25
100
AcDbArc
 50
0.0
 51
90.0
  0
ARC
  5
838
330
1E
100
AcDbEntity
  8
DASHED
100
AcDbCircle
 10
-11.66886716665228
 20
10.81869169785152
 30
0.0
 40
0.125
100
AcDbArc
 50
90.0
 51
179.9999999999999
  0
ARC
  5
839
330
1E
100
AcDbEntity
  8
DASHED
100
AcDbCircle
 10
-6.516309356881763
 20
10.81869169785151
 30
0.0
 40
0.125
100
AcDbArc
 50
0.0
 51
90.0
  0
LINE
  5
83A
330
1E
100
AcDbEntity
  8
0
100
AcDbLine
 10
-2.752089849503546
 20
-2.25125077690233
 30
0.0
 11
-2.803866544800192
 21
-2.303027472198973
 31
0.0
  0
LINE
  5
83B
330
1E
100
AcDbEntity
  8
0
100
AcDbLine
 10
-2.75208984950355
 20
2.218293106209993
 30
0.0
 11
-2.803866544800192
 21
2.270069801506635
 31
0.0
  0
LINE
  5
83C
330
1E
100
AcDbEntity
  8
0
100
AcDbLine
 10
2.749939442101191
 20
-2.249681364012224
 30
0.0
 11
2.801716137397829
 21
-2.301458059308862
 31
0.0
  0
LINE
  5
83D
330
1E
100
AcDbEntity
  8
0
100
AcDbLine
 10
2.749939442101191
 20
2.204168390198994
 30
0.0
 11
2.801716137397829
 21
2.255945085495632
 31
0.0
  0
ARC
  5
83E
330
1E
100
AcDbEntity
  8
0
100
AcDbCircle
 10
2.624939442101191
 20
2.432721780792267
 30
0.0
 40
0.25
100
AcDbArc
 50
315.0000000000002
 51
0.0
  0
LINE
  5
83F
330
1E
100
AcDbEntity
  8
0
100
AcDbLine
 10
2.749939442101191
 20
-1.125000000000002
 30
0.0
 11
2.874939442101191
 21
-1.125000000000001
 31
0.0
  0
LINE
  5
840
330
1E
100
AcDbEntity
  8
0
100
AcDbLine
 10
2.749939442101198
 20
1.125
 30
0.0
 11
2.874939442101191
 21
1.125
 31
0.0
  0
LINE
  5
841
330
1E
100
AcDbEntity
  8
0
100
AcDbLine
 10
-2.87708984950355
 20
-1.125000000000002
 30
0.0
 11
-2.752089849503546
 21
-1.125000000000002
 31
0.0
  0
LINE
  5
842
330
1E
100
AcDbEntity
  8
0
100
AcDbLine
 10
-2.87708984950355
 20
1.125
 30
0.0
 11
-2.752089849503546
 21
1.125
 31
0.0
  0
LINE
  5
843
330
1E
100
AcDbEntity
  8
0
100
AcDbLine
 10
2.587036270496039
 20
2.568217146956831
 30
0.0
 11
-1.002089849503555
 21
2.568217146956831
 31
0.0
  0
LINE
  5
844
330
1E
100
AcDbEntity
  8
0
100
AcDbLine
 10
2.874939442101191
 20
2.447648870022718
 30
0.0
 11
2.874939442101191
 21
0.0
 31
0.0
  0
LINE
  5
845
330
1E
100
AcDbEntity
  8
0
100
AcDbLine
 10
2.867000901239155
 20
2.447648870022718
 30
0.0
 11
3.124939442101191
 21
2.447648870022718
 31
0.0
  0
LINE
  5
846
330
1E
100
AcDbEntity
  8
0
100
AcDbLine
 10
2.999939442101191
 20
2.447648870022718
 30
0.0
 11
2.999939442101191
 21
0.0
 31
0.0
  0
LINE
  5
847
330
1E
100
AcDbEntity
  8
0
100
AcDbLine
 10
2.867000901239155
 20
2.447648870022718
 30
0.0
 11
2.874939442101191
 21
2.447648870022718
 31
0.0
  0
LINE
  5
848
330
1E
100
AcDbEntity
  8
0
100
AcDbLine
 10
2.749939442101191
 20
1.125
 30
0.0
 11
2.749939442101191
 21
0.0
 31
0.0
  0
LINE
  5
849
330
1E
100
AcDbEntity
  8
DASHED
100
AcDbLine
 10
2.551065659892476
 20
2.005294607990276
 30
0.0
 11
2.749939442101191
 21
2.204168390198994
 31
0.0
  0
LINE
  5
84A
330
1E
100
AcDbEntity
  8
DASHED
100
AcDbLine
 10
2.462677312244157
 20
2.093682955638595
 30
0.0
 11
2.71332778974951
 21
2.344333433143948
 31
0.0
  0
LINE
  5
84B
330
1E
100
AcDbEntity
  8
0
100
AcDbLine
 10
2.587036270496039
 20
2.693217146956831
 30
0.0
 11
-1.002089849503555
 21
2.693217146956831
 31
0.0
  0
LINE
  5
84C
330
1E
100
AcDbEntity
  8
DASHED
100
AcDbLine
 10
2.462677312244157
 20
2.092113542748486
 30
0.0
 11
2.551065659892476
 21
2.003725195100166
 31
0.0
  0
LINE
  5
84D
330
1E
100
AcDbEntity
  8
0
100
AcDbLine
 10
2.874939442101198
 20
1.083026695296635
 30
0.0
 11
2.874939442101191
 21
2.385148870022718
 31
0.0
  0
LINE
  5
84E
330
1E
100
AcDbEntity
  8
0
100
AcDbLine
 10
2.624939442101191
 20
2.693217146956831
 30
0.0
 11
-1.002089849503555
 21
2.693217146956831
 31
0.0
  0
LINE
  5
84F
330
1E
100
AcDbEntity
  8
0
100
AcDbLine
 10
2.749939442101198
 20
1.083026695296635
 30
0.0
 11
2.749939442101191
 21
2.385148870022718
 31
0.0
  0
LINE
  5
850
330
1E
100
AcDbEntity
  8
0
100
AcDbLine
 10
2.624939442101191
 20
2.568217146956831
 30
0.0
 11
-1.002089849503555
 21
2.568217146956831
 31
0.0
  0
ARC
  5
851
330
1E
100
AcDbEntity
  8
0
100
AcDbCircle
 10
2.624939442101191
 20
2.443217146956831
 30
0.0
 40
0.25
100
AcDbArc
 50
0.0000000000000254
 51
90.00000000000003
  0
ARC
  5
852
330
1E
100
AcDbEntity
  8
0
100
AcDbCircle
 10
2.624939442101191
 20
2.443217146956831
 30
0.0
 40
0.125
100
AcDbArc
 50
0.0000000000000254
 51
90.00000000000003
  0
ARC
  5
853
330
1E
100
AcDbEntity
  8
0
100
AcDbCircle
 10
2.624939442101191
 20
2.432721780792267
 30
0.0
 40
0.125
100
AcDbArc
 50
315.0000000000002
 51
0.0000000000000254
  0
ARC
  5
854
330
1E
100
AcDbEntity
  8
0
100
AcDbCircle
 10
2.624939442101191
 20
-2.478234754605497
 30
0.0
 40
0.125
100
AcDbArc
 50
0.0
 51
44.9999999999999
  0
ARC
  5
855
330
1E
100
AcDbEntity
  8
0
100
AcDbCircle
 10
2.624939442101191
 20
-2.479313643429394
 30
0.0
 40
0.125
100
AcDbArc
 50
270.0000000000001
 51
0.0
  0
ARC
  5
856
330
1E
100
AcDbEntity
  8
0
100
AcDbCircle
 10
2.624939442101191
 20
-2.478234754605499
 30
0.0
 40
0.25
100
AcDbArc
 50
0.0
 51
44.9999999999999
  0
ARC
  5
857
330
1E
100
AcDbEntity
  8
0
100
AcDbCircle
 10
2.624939442101191
 20
-2.479313643429392
 30
0.0
 40
0.25
100
AcDbArc
 50
270.0000000000001
 51
0.0
  0
LINE
  5
858
330
1E
100
AcDbEntity
  8
0
100
AcDbLine
 10
2.624939442101191
 20
-2.604090159033841
 30
0.0
 11
-1.002089849503555
 21
-2.60409015903384
 31
0.0
  0
LINE
  5
859
330
1E
100
AcDbEntity
  8
0
100
AcDbLine
 10
2.749939442101198
 20
-1.083026695296637
 30
0.0
 11
2.749939442101191
 21
-2.394565347363389
 31
0.0
  0
LINE
  5
85A
330
1E
100
AcDbEntity
  8
0
100
AcDbLine
 10
2.624939442101191
 20
-2.72909015903384
 30
0.0
 11
-1.002089849503555
 21
-2.72909015903384
 31
0.0
  0
LINE
  5
85B
330
1E
100
AcDbEntity
  8
0
100
AcDbLine
 10
2.874939442101198
 20
-1.083026695296638
 30
0.0
 11
2.874939442101191
 21
-2.394565347363387
 31
0.0
  0
LINE
  5
85C
330
1E
100
AcDbEntity
  8
DASHED
100
AcDbLine
 10
2.462677312244157
 20
-2.139195929451825
 30
0.0
 11
2.551065659892476
 21
-2.050807581803507
 31
0.0
  0
LINE
  5
85D
330
1E
100
AcDbEntity
  8
0
100
AcDbLine
 10
2.587036270496039
 20
-2.729090159033841
 30
0.0
 11
-1.002089849503555
 21
-2.729090159033841
 31
0.0
  0
LINE
  5
85E
330
1E
100
AcDbEntity
  8
DASHED
100
AcDbLine
 10
2.462677312244157
 20
-2.139195929451825
 30
0.0
 11
2.71332778974951
 21
-2.389846406957179
 31
0.0
  0
LINE
  5
85F
330
1E
100
AcDbEntity
  8
DASHED
100
AcDbLine
 10
2.551065659892476
 20
-2.050807581803507
 30
0.0
 11
2.749939442101191
 21
-2.249681364012224
 31
0.0
  0
LINE
  5
860
330
1E
100
AcDbEntity
  8
0
100
AcDbLine
 10
2.749939442101191
 20
-1.125000000000002
 30
0.0
 11
2.749939442101191
 21
0.0
 31
0.0
  0
LINE
  5
862
330
1E
100
AcDbEntity
  8
0
100
AcDbLine
 10
2.999939442101191
 20
-2.457065347363389
 30
0.0
 11
2.999939442101191
 21
0.0
 31
0.0
  0
LINE
  5
863
330
1E
100
AcDbEntity
  8
0
100
AcDbLine
 10
2.867000901239155
 20
-2.457065347363389
 30
0.0
 11
3.124939442101191
 21
-2.457065347363389
 31
0.0
  0
LINE
  5
864
330
1E
100
AcDbEntity
  8
0
100
AcDbLine
 10
2.874939442101191
 20
-2.457065347363389
 30
0.0
 11
2.874939442101191
 21
0.0
 31
0.0
  0
LINE
  5
865
330
1E
100
AcDbEntity
  8
0
100
AcDbLine
 10
2.587036270496039
 20
-2.604090159033841
 30
0.0
 11
-1.002089849503555
 21
-2.604090159033841
 31
0.0
  0
LINE
  5
866
330
1E
100
AcDbEntity
  8
0
100
AcDbLine
 10
-2.589186677898395
 20
-2.605659571923952
 30
0.0
 11
-1.002089849503548
 21
-2.605659571923952
 31
0.0
  0
LINE
  5
867
330
1E
100
AcDbEntity
  8
0
100
AcDbLine
 10
-2.87708984950355
 20
-2.457065347363389
 30
0.0
 11
-2.87708984950355
 21
0.0
 31
0.0
  0
LINE
  5
868
330
1E
100
AcDbEntity
  8
0
100
AcDbLine
 10
-2.869151308641511
 20
-2.457065347363389
 30
0.0
 11
-3.127089849503552
 21
-2.457065347363389
 31
0.0
  0
LINE
  5
869
330
1E
100
AcDbEntity
  8
0
100
AcDbLine
 10
-3.00208984950355
 20
-2.457065347363389
 30
0.0
 11
-3.00208984950355
 21
0.0
 31
0.0
  0
LINE
  5
86B
330
1E
100
AcDbEntity
  8
0
100
AcDbLine
 10
-2.752089849503546
 20
-1.125000000000002
 30
0.0
 11
-2.75208984950355
 21
0.0
 31
0.0
  0
LINE
  5
86C
330
1E
100
AcDbEntity
  8
DASHED
100
AcDbLine
 10
-2.553216067294835
 20
-2.052376994693619
 30
0.0
 11
-2.752089849503546
 21
-2.25125077690233
 31
0.0
  0
LINE
  5
86D
330
1E
100
AcDbEntity
  8
DASHED
100
AcDbLine
 10
-2.46482771964652
 20
-2.140765342341936
 30
0.0
 11
-2.715478197151873
 21
-2.391415819847291
 31
0.0
  0
LINE
  5
86E
330
1E
100
AcDbEntity
  8
0
100
AcDbLine
 10
-2.589186677898399
 20
-2.730659571923952
 30
0.0
 11
-1.002089849503548
 21
-2.730659571923952
 31
0.0
  0
LINE
  5
86F
330
1E
100
AcDbEntity
  8
DASHED
100
AcDbLine
 10
-2.46482771964652
 20
-2.140765342341936
 30
0.0
 11
-2.553216067294835
 21
-2.052376994693619
 31
0.0
  0
LINE
  5
870
330
1E
100
AcDbEntity
  8
0
100
AcDbLine
 10
-2.877089849503554
 20
-1.083026695296638
 30
0.0
 11
-2.877089849503554
 21
-2.394565347363387
 31
0.0
  0
LINE
  5
871
330
1E
100
AcDbEntity
  8
0
100
AcDbLine
 10
-2.627089849503554
 20
-2.73065957192395
 30
0.0
 11
-1.002089849503555
 21
-2.73065957192395
 31
0.0
  0
LINE
  5
872
330
1E
100
AcDbEntity
  8
0
100
AcDbLine
 10
-2.752089849503554
 20
-1.083026695296637
 30
0.0
 11
-2.752089849503554
 21
-2.394565347363389
 31
0.0
  0
LINE
  5
873
330
1E
100
AcDbEntity
  8
0
100
AcDbLine
 10
-2.627089849503554
 20
-2.605659571923952
 30
0.0
 11
-1.002089849503555
 21
-2.60565957192395
 31
0.0
  0
ARC
  5
874
330
1E
100
AcDbEntity
  8
0
100
AcDbCircle
 10
-2.627089849503554
 20
-2.479313643429392
 30
0.0
 40
0.25
100
AcDbArc
 50
180.0000000000001
 51
270.0
  0
ARC
  5
875
330
1E
100
AcDbEntity
  8
0
100
AcDbCircle
 10
-2.627089849503554
 20
-2.47980416749561
 30
0.0
 40
0.25
100
AcDbArc
 50
135.0000000000001
 51
180.0000000000001
  0
ARC
  5
876
330
1E
100
AcDbEntity
  8
0
100
AcDbCircle
 10
-2.627089849503554
 20
-2.479313643429394
 30
0.0
 40
0.125
100
AcDbArc
 50
180.0000000000001
 51
270.0
  0
ARC
  5
877
330
1E
100
AcDbEntity
  8
0
100
AcDbCircle
 10
-2.627089849503554
 20
-2.479804167495608
 30
0.0
 40
0.125
100
AcDbArc
 50
135.0000000000001
 51
180.0000000000001
  0
ARC
  5
878
330
1E
100
AcDbEntity
  8
0
100
AcDbCircle
 10
-2.627089849503554
 20
2.445277083913156
 30
0.0
 40
0.125
100
AcDbArc
 50
180.0
 51
224.9999999999999
  0
ARC
  5
879
330
1E
100
AcDbEntity
  8
0
100
AcDbCircle
 10
-2.627089849503554
 20
2.443217146956831
 30
0.0
 40
0.125
100
AcDbArc
 50
90.0
 51
180.0
  0
ARC
  5
87A
330
1E
100
AcDbEntity
  8
0
100
AcDbCircle
 10
-2.627089849503554
 20
2.445277083913156
 30
0.0
 40
0.25
100
AcDbArc
 50
180.0
 51
224.9999999999999
  0
ARC
  5
87B
330
1E
100
AcDbEntity
  8
0
100
AcDbCircle
 10
-2.627089849503554
 20
2.443217146956831
 30
0.0
 40
0.25
100
AcDbArc
 50
90.0
 51
180.0
  0
LINE
  5
87C
330
1E
100
AcDbEntity
  8
0
100
AcDbLine
 10
-2.627089849503554
 20
2.568217146956831
 30
0.0
 11
-1.002089849503555
 21
2.568217146956831
 31
0.0
  0
LINE
  5
87D
330
1E
100
AcDbEntity
  8
0
100
AcDbLine
 10
-2.752089849503554
 20
1.083026695296635
 30
0.0
 11
-2.752089849503554
 21
2.385148870022718
 31
0.0
  0
LINE
  5
87E
330
1E
100
AcDbEntity
  8
0
100
AcDbLine
 10
-2.627089849503554
 20
2.693217146956831
 30
0.0
 11
-1.002089849503555
 21
2.693217146956831
 31
0.0
  0
LINE
  5
87F
330
1E
100
AcDbEntity
  8
0
100
AcDbLine
 10
-2.877089849503554
 20
1.083026695296635
 30
0.0
 11
-2.877089849503554
 21
2.385148870022718
 31
0.0
  0
LINE
  5
880
330
1E
100
AcDbEntity
  8
DASHED
100
AcDbLine
 10
-2.46482771964652
 20
2.104668845869375
 30
0.0
 11
-2.553216067294835
 21
2.016280498221056
 31
0.0
  0
LINE
  5
881
330
1E
100
AcDbEntity
  8
0
100
AcDbLine
 10
-2.589186677898399
 20
2.693217146956831
 30
0.0
 11
-1.002089849503548
 21
2.693217146956831
 31
0.0
  0
LINE
  5
882
330
1E
100
AcDbEntity
  8
DASHED
100
AcDbLine
 10
-2.46482771964652
 20
2.106238258759484
 30
0.0
 11
-2.715478197151873
 21
2.356888736264837
 31
0.0
  0
LINE
  5
883
330
1E
100
AcDbEntity
  8
DASHED
100
AcDbLine
 10
-2.553216067294835
 20
2.017849911111165
 30
0.0
 11
-2.75208984950355
 21
2.21672369331988
 31
0.0
  0
LINE
  5
884
330
1E
100
AcDbEntity
  8
0
100
AcDbLine
 10
-2.752089849503546
 20
1.125
 30
0.0
 11
-2.75208984950355
 21
0.0
 31
0.0
  0
LINE
  5
885
330
1E
100
AcDbEntity
  8
0
100
AcDbLine
 10
-2.869151308641515
 20
2.447648870022718
 30
0.0
 11
-2.87708984950355
 21
2.447648870022718
 31
0.0
  0
LINE
  5
886
330
1E
100
AcDbEntity
  8
0
100
AcDbLine
 10
-3.00208984950355
 20
2.447648870022718
 30
0.0
 11
-3.00208984950355
 21
0.0
 31
0.0
  0
LINE
  5
887
330
1E
100
AcDbEntity
  8
0
100
AcDbLine
 10
-2.869151308641511
 20
2.447648870022718
 30
0.0
 11
-3.127089849503552
 21
2.447648870022718
 31
0.0
  0
LINE
  5
888
330
1E
100
AcDbEntity
  8
0
100
AcDbLine
 10
-2.87708984950355
 20
2.447648870022718
 30
0.0
 11
-2.87708984950355
 21
0.0
 31
0.0
  0
LINE
  5
889
330
1E
100
AcDbEntity
  8
0
100
AcDbLine
 10
-2.589186677898395
 20
2.568217146956831
 30
0.0
 11
-1.002089849503548
 21
2.568217146956831
 31
0.0
  0
INSERT
  5
8AC
330
1E
100
AcDbEntity
  8
0
100
AcDbBlockReference
  2
4PBS44
 10
-2.752089849503546
 20
1.125
 30
0.0
 42
0.5
 50
90.0
  0
INSERT
  5
8AD
330
1E
100
AcDbEntity
  8
0
100
AcDbBlockReference
  2
4PBS44
 10
2.749939442101194
 20
-1.125000000000002
 30
0.0
 42
0.5
 50
270.0
  0
INSERT
  5
8AE
330
1E
100
AcDbEntity
  8
0
100
AcDbBlockReference
  2
4PBS44
 10
-7.967588261767023
 20
7.149112898377634
 30
0.0
 42
0.8374799999999999
  0
ARC
  5
8C6
330
1E
100
AcDbEntity
  8
0
100
AcDbCircle
 10
-9.092588261767023
 20
13.42806669785151
 30
0.0
 40
0.6406250000000001
100
AcDbArc
 50
12.68038349181983
 51
167.3196165081801
  0
CIRCLE
  5
8C9
330
1E
100
AcDbEntity
  8
0
100
AcDbCircle
 10
-8.217588261767023
 20
12.13119169785151
 30
0.0
 40
0.0859375
  0
CIRCLE
  5
8CA
330
1E
100
AcDbEntity
  8
0
100
AcDbCircle
 10
-9.967588261767023
 20
13.25619169785151
 30
0.0
 40
0.0859375
  0
CIRCLE
  5
8CB
330
1E
100
AcDbEntity
  8
0
100
AcDbCircle
 10
-8.21758826176702
 20
13.75619169785151
 30
0.0
 40
0.0859375
  0
CIRCLE
  5
8CC
330
1E
100
AcDbEntity
  8
0
100
AcDbCircle
 10
-9.967588261767023
 20
15.00619169785151
 30
0.0
 40
0.0859375
  0
CIRCLE
  5
8CD
330
1E
100
AcDbEntity
  8
0
100
AcDbCircle
 10
-8.21758826176702
 20
15.50619169785151
 30
0.0
 40
0.0859375
  0
CIRCLE
  5
8CE
330
1E
100
AcDbEntity
  8
0
100
AcDbCircle
 10
-9.967588261767023
 20
16.75619169785151
 30
0.0
 40
0.0859375
  0
CIRCLE
  5
8CF
330
1E
100
AcDbEntity
  8
0
100
AcDbCircle
 10
-8.21758826176702
 20
17.25619169785151
 30
0.0
 40
0.0859375
  0
LINE
  5
908
330
1E
100
AcDbEntity
  8
0
100
AcDbLine
 10
-2.870216437240082
 20
10.0749112960818
 30
0.0
 11
-2.870216437240082
 21
9.351258464609597
 31
0.0
  0
LINE
  5
909
330
1E
100
AcDbEntity
  8
0
100
AcDbLine
 10
-2.807716437240085
 20
10.0749112960818
 30
0.0
 11
-2.807716437240082
 21
7.196673210112374
 31
0.0
  0
LINE
  5
90A
330
1E
100
AcDbEntity
  8
0
100
AcDbLine
 10
-2.745216437240082
 20
10.0749112960818
 30
0.0
 11
-2.745216437240082
 21
7.196673210112374
 31
0.0
  0
LINE
  5
90B
330
1E
100
AcDbEntity
  8
0
100
AcDbLine
 10
2.879036738232973
 20
10.0749112960818
 30
0.0
 11
2.879036738232973
 21
9.351258464609597
 31
0.0
  0
LINE
  5
90C
330
1E
100
AcDbEntity
  8
0
100
AcDbLine
 10
2.816536738232973
 20
10.0749112960818
 30
0.0
 11
2.816536738232973
 21
7.196673210112374
 31
0.0
  0
LINE
  5
90D
330
1E
100
AcDbEntity
  8
0
100
AcDbLine
 10
2.754036738232973
 20
10.0749112960818
 30
0.0
 11
2.754036738232973
 21
7.196673210112374
 31
0.0
  0
ARC
  5
91A
330
1E
100
AcDbEntity
  8
0
100
AcDbCircle
 10
-2.745216437240082
 20
10.0749112960818
 30
0.0
 40
0.125
100
AcDbArc
 50
0.0000000000000013
 51
90.0
  0
ARC
  5
91B
330
1E
100
AcDbEntity
  8
HIDDEN
100
AcDbCircle
 10
-2.745216437240082
 20
10.0749112960818
 30
0.0
 40
0.125
100
AcDbArc
 50
89.99999999999999
 51
180.0
  0
ARC
  5
91C
330
1E
100
AcDbEntity
  8
HIDDEN
100
AcDbCircle
 10
2.762410150496443
 20
10.0749112960818
 30
0.0
 40
0.125
100
AcDbArc
 50
89.99999999999999
 51
180.0
  0
ARC
  5
91D
330
1E
100
AcDbEntity
  8
HIDDEN
100
AcDbCircle
 10
2.762410150496443
 20
10.0749112960818
 30
0.0
 40
0.125
100
AcDbArc
 50
0.0000000000000013
 51
90.0
  0
LINE
  5
91E
330
1E
100
AcDbEntity
  8
DASHED
100
AcDbLine
 10
1.556881965248603
 20
5.112218482498163
 30
0.0
 11
2.727244050251894
 21
7.133520088730858
 31
0.0
  0
LINE
  5
91F
330
1E
100
AcDbEntity
  8
DASHED
100
AcDbLine
 10
-2.736843069505127
 20
7.165423287238033
 30
0.0
 11
-1.581827705796187
 21
5.170537529567545
 31
0.0
  0
LINE
  5
923
330
1E
100
AcDbEntity
  8
HIDDEN
100
AcDbLine
 10
-2.527588261767029
 20
6.678804561058488
 30
0.0
 11
-2.473296605785087
 21
6.710238790582272
 31
0.0
  0
LINE
  5
924
330
1E
100
AcDbEntity
  8
HIDDEN
100
AcDbLine
 10
-2.152588261767029
 20
6.053804561058488
 30
0.0
 11
-2.108131904092247
 21
6.079544268674063
 31
0.0
  0
LINE
  5
944
330
1E
100
AcDbEntity
  8
0
100
AcDbLine
 10
-10.21758826176702
 20
11.08781520317256
 30
0.0
 11
-9.967588261767023
 21
11.08781520317256
 31
0.0
  0
LINE
  5
945
330
1E
100
AcDbEntity
  8
0
100
AcDbLine
 10
-8.21758826176702
 20
11.08781520317256
 30
0.0
 11
-7.967588261767023
 21
11.08781520317256
 31
0.0
  0
LINE
  5
957
330
1E
100
AcDbEntity
  8
0
100
AcDbLine
 10
3.124939442101191
 20
2.447648870022718
 30
0.0
 11
3.124939442101191
 21
0.0
 31
0.0
  0
LINE
  5
958
330
1E
100
AcDbEntity
  8
0
100
AcDbLine
 10
3.124939442101191
 20
-2.457065347363389
 30
0.0
 11
3.124939442101191
 21
0.0
 31
0.0
  0
LINE
  5
959
330
1E
100
AcDbEntity
  8
0
100
AcDbLine
 10
-3.127089849503552
 20
2.447648870022718
 30
0.0
 11
-3.127089849503552
 21
0.0
 31
0.0
  0
LINE
  5
95A
330
1E
100
AcDbEntity
  8
0
100
AcDbLine
 10
-3.127089849503552
 20
-2.457065347363389
 30
0.0
 11
-3.127089849503552
 21
0.0
 31
0.0
  0
LINE
  5
95B
330
1E
100
AcDbEntity
  8
0
100
AcDbLine
 10
2.887410150496443
 20
10.8249112960818
 30
0.0
 11
3.012410150496439
 21
10.0749112960818
 31
0.0
  0
LINE
  5
95C
330
1E
100
AcDbEntity
  8
0
100
AcDbLine
 10
3.012410150496439
 20
10.8249112960818
 30
0.0
 11
3.137410150496439
 21
10.0749112960818
 31
0.0
  0
LINE
  5
95D
330
1E
100
AcDbEntity
  8
0
100
AcDbLine
 10
3.137410150496439
 20
10.0749112960818
 30
0.0
 11
3.012410150496439
 21
10.0749112960818
 31
0.0
  0
LINE
  5
95E
330
1E
100
AcDbEntity
  8
0
100
AcDbLine
 10
-2.878589849503555
 20
10.82491137206311
 30
0.0
 11
-3.003589849503555
 21
10.0749112960818
 31
0.0
  0
LINE
  5
95F
330
1E
100
AcDbEntity
  8
0
100
AcDbLine
 10
-3.003589849503555
 20
10.8249112960818
 30
0.0
 11
-3.128589849503552
 21
10.0749112960818
 31
0.0
  0
LINE
  5
960
330
1E
100
AcDbEntity
  8
0
100
AcDbLine
 10
-3.003589849503555
 20
10.0749112960818
 30
0.0
 11
-3.128589849503552
 21
10.0749112960818
 31
0.0
  0
LINE
  5
961
330
1E
100
AcDbEntity
  8
0
100
AcDbLine
 10
-7.967515251966653
 20
11.06869169785151
 30
0.0
 11
-7.966083423516388
 21
10.69365192444484
 31
0.0
  0
LINE
  5
962
330
1E
100
AcDbEntity
  8
0
100
AcDbLine
 10
-7.965420203258727
 20
10.94369169785151
 30
0.0
 11
-8.21758826176702
 21
10.94508982355058
 31
0.0
  0
LINE
  5
963
330
1E
100
AcDbEntity
  8
0
100
AcDbLine
 10
-10.21758826176702
 20
11.08781520317256
 30
0.0
 11
-10.21758826176702
 21
10.6938248014127
 31
0.0
  0
LINE
  5
964
330
1E
100
AcDbEntity
  8
0
100
AcDbLine
 10
-10.21758826176702
 20
10.6938248014127
 30
0.0
 11
-10.2148779975275
 21
10.6938248014127
 31
0.0
  0
LINE
  5
965
330
1E
100
AcDbEntity
  8
0
100
AcDbLine
 10
-10.21700082135231
 20
10.94346959516734
 30
0.0
 11
-9.965995174530697
 21
10.94346959516734
 31
0.0
  0
TEXT
  5
96A
330
1E
100
AcDbEntity
  8
DIM
100
AcDbText
 10
4.471329917729883
 20
19.62674731182796
 30
0.0
 40
0.225
  1
   
100
AcDbText
  0
TEXT
  5
970
330
1E
100
AcDbEntity
  8
DIM
100
AcDbText
 10
10.37593662509404
 20
10.18715211891208
 30
0.0
 40
0.225
  1
   
100
AcDbText
  0
LINE
  5
972
330
1E
100
AcDbEntity
  8
0
100
AcDbLine
 10
-9.467588261767023
 20
10.94397649024745
 30
0.0
 11
-9.467588261767023
 21
10.68705127824618
 31
0.0
  0
LINE
  5
973
330
1E
100
AcDbEntity
  8
0
100
AcDbLine
 10
-8.717588261767023
 20
10.6870512782419
 30
0.0
 11
-8.717588261767023
 21
10.94397649014766
 31
0.0
  0
LINE
  5
974
330
1E
100
AcDbEntity
  8
0
100
AcDbLine
 10
-8.842588261767023
 20
11.06869169785151
 30
0.0
 11
-9.342588261767023
 21
11.06869169785151
 31
0.0
  0
LINE
  5
975
330
1E
100
AcDbEntity
  8
0
100
AcDbLine
 10
-8.717588261767023
 20
10.75619169785151
 30
0.0
 11
-8.717588261767023
 21
10.94369169785151
 31
0.0
  0
LINE
  5
976
330
1E
100
AcDbEntity
  8
0
100
AcDbLine
 10
-8.717588261767023
 20
10.75619169785151
 30
0.0
 11
-8.717588261767023
 21
10.69369169785151
 31
0.0
  0
LINE
  5
977
330
1E
100
AcDbEntity
  8
0
100
AcDbLine
 10
-9.467588261767023
 20
10.75619169785151
 30
0.0
 11
-9.467588261767023
 21
10.94369169785151
 31
0.0
  0
LINE
  5
978
330
1E
100
AcDbEntity
  8
0
100
AcDbLine
 10
-9.467588261767023
 20
10.75619169785151
 30
0.0
 11
-9.467588261767023
 21
10.69369169785151
 31
0.0
  0
ARC
  5
979
330
1E
100
AcDbEntity
  8
0
100
AcDbCircle
 10
-8.842445865577339
 20
10.94383409404119
 30
0.0
 40
0.1248576850094878
100
AcDbArc
 50
359.9346559848864
 51
90.06534401511365
  0
ARC
  5
97A
330
1E
100
AcDbEntity
  8
0
100
AcDbCircle
 10
-8.839268051963341
 20
10.69037148804783
 30
0.0
 40
0.1217250801411129
100
AcDbArc
 50
1.544282567118248
 51
1.563010724140686
  0
ARC
  5
97B
330
1E
100
AcDbEntity
  8
0
100
AcDbCircle
 10
-9.342730657956707
 20
10.94383409404119
 30
0.0
 40
0.1248576850094878
100
AcDbArc
 50
89.93465598488635
 51
180.0653440151136
  0
ARC
  5
97C
330
1E
100
AcDbEntity
  8
0
100
AcDbCircle
 10
-9.345908471570706
 20
10.69037148804783
 30
0.0
 40
0.1217250801411129
100
AcDbArc
 50
178.4369892758593
 51
178.455717432882
  0
LINE
  5
97D
330
1E
100
AcDbEntity
  8
0
100
AcDbLine
 10
-9.092588261767023
 20
10.94369169785151
 30
0.0
 11
-9.217588261767023
 21
10.94369169785151
 31
0.0
  0
LINE
  5
97E
330
1E
100
AcDbEntity
  8
0
100
AcDbLine
 10
-9.217588261767023
 20
10.94369169785151
 30
0.0
 11
-8.967873054121451
 21
10.94369169785151
 31
0.0
  0
ARC
  5
97F
330
1E
100
AcDbEntity
  8
0
100
AcDbCircle
 10
-9.217730657956707
 20
10.81883409404119
 30
0.0
 40
0.1248576850094878
100
AcDbArc
 50
89.93465598488635
 51
180.0653440151136
  0
ARC
  5
980
330
1E
100
AcDbEntity
  8
0
100
AcDbCircle
 10
-8.967730657931767
 20
10.81883409404119
 30
0.0
 40
0.1248576850094878
100
AcDbArc
 50
359.9346559848864
 51
90.06534401511365
  0
LINE
  5
981
330
1E
100
AcDbEntity
  8
0
100
AcDbLine
 10
-8.842873054121451
 20
10.81869169785151
 30
0.0
 11
-8.787502118556287
 21
10.69365192444484
 31
0.0
  0
LINE
  5
982
330
1E
100
AcDbEntity
  8
0
100
AcDbLine
 10
-9.342588261767023
 20
10.81869169785151
 30
0.0
 11
-9.396705677000426
 21
10.69365192444484
 31
0.0
  0
LINE
  5
BB4
330
1E
100
AcDbEntity
  8
0
100
AcDbLine
 10
10.09400656899421
 20
17.56869169785151
 30
0.0
 11
8.344006568994214
 21
17.56869169785151
 31
0.0
  0
LINE
  5
BB5
330
1E
100
AcDbEntity
  8
0
100
AcDbLine
 10
8.094006568994214
 20
17.31869169785151
 30
0.0
 11
8.094006568994214
 21
11.08781520317256
 31
0.0
  0
LINE
  5
BB6
330
1E
100
AcDbEntity
  8
0
100
AcDbLine
 10
10.34400656899421
 20
17.31869169785151
 30
0.0
 11
10.34400656899421
 21
11.08781520317256
 31
0.0
  0
CIRCLE
  5
BB7
330
1E
100
AcDbEntity
  8
0
100
AcDbCircle
 10
9.219006568994214
 20
16.75619169785151
 30
0.0
 40
0.28125
  0
CIRCLE
  5
BB8
330
1E
100
AcDbEntity
  8
0
100
AcDbCircle
 10
9.219006568994214
 20
14.75619169785151
 30
0.0
 40
0.28125
  0
LINE
  5
BB9
330
1E
100
AcDbEntity
  8
0
100
AcDbLine
 10
10.09400656899421
 20
11.08781520317256
 30
0.0
 11
10.09400656899421
 21
10.69365192444484
 31
0.0
  0
LINE
  5
BBA
330
1E
100
AcDbEntity
  8
0
100
AcDbLine
 10
8.344006568994214
 20
11.08781520317256
 30
0.0
 11
8.344006568994214
 21
10.69365192444484
 31
0.0
  0
LINE
  5
BBB
330
1E
100
AcDbEntity
  8
0
100
AcDbLine
 10
10.34400656899421
 20
10.06869169785151
 30
0.0
 11
10.34400656899421
 21
7.149112898377634
 31
0.0
  0
LINE
  5
BBC
330
1E
100
AcDbEntity
  8
0
100
AcDbLine
 10
8.094006568994214
 20
10.06869169785151
 30
0.0
 11
8.094006568994214
 21
7.149112898377634
 31
0.0
  0
LINE
  5
BBD
330
1E
100
AcDbEntity
  8
0
100
AcDbLine
 10
9.844006568994214
 20
13.56869169785151
 30
0.0
 11
9.844006568994214
 21
10.69365192444484
 31
0.0
  0
LINE
  5
BBE
330
1E
100
AcDbEntity
  8
0
100
AcDbLine
 10
8.594006568994214
 20
13.56869169785151
 30
0.0
 11
8.594006568994214
 21
10.69365192444484
 31
0.0
  0
ARC
  5
BBF
330
1E
100
AcDbEntity
  8
0
100
AcDbCircle
 10
9.219006568994214
 20
10.20931669785151
 30
0.0
 40
0.6406250000000004
100
AcDbArc
 50
192.68038349182
 51
347.31961650818
  0
LINE
  5
BC0
330
1E
100
AcDbEntity
  8
0
100
AcDbLine
 10
10.34400656899421
 20
17.31869169785151
 30
0.0
 11
10.09400656899421
 21
17.56869169785151
 31
0.0
  0
LINE
  5
BC1
330
1E
100
AcDbEntity
  8
0
100
AcDbLine
 10
8.344006568994214
 20
17.56869169785151
 30
0.0
 11
8.094006568994214
 21
17.31869169785151
 31
0.0
  0
LINE
  5
BC2
330
1E
100
AcDbEntity
  8
0
100
AcDbLine
 10
10.34400656899421
 20
4.984049388916535
 30
0.0
 11
8.09400656899421
 21
4.984049388916535
 31
0.0
  0
LINE
  5
BC3
330
1E
100
AcDbEntity
  8
DASHED
100
AcDbLine
 10
10.34400656899421
 20
5.046549388916535
 30
0.0
 11
8.09400656899421
 21
5.046549388916535
 31
0.0
  0
LINE
  5
BC4
330
1E
100
AcDbEntity
  8
0
100
AcDbLine
 10
10.34400656899421
 20
5.08434098638433
 30
0.0
 11
10.34400656899421
 21
4.984049388916535
 31
0.0
  0
LINE
  5
BC5
330
1E
100
AcDbEntity
  8
0
100
AcDbLine
 10
8.09400656899421
 20
5.090618637944775
 30
0.0
 11
8.09400656899421
 21
4.984049388916532
 31
0.0
  0
ARC
  5
BC6
330
1E
100
AcDbEntity
  8
0
100
AcDbCircle
 10
9.225681934479653
 20
6.697793715608446
 30
0.0
 40
0.4684152307000224
100
AcDbArc
 50
216.9136282255241
 51
322.1198117351944
  0
LINE
  5
BC7
330
1E
100
AcDbEntity
  8
0
100
AcDbLine
 10
9.917610839075145
 20
7.18260654743152
 30
0.0
 11
8.574483674004544
 21
7.18260654743152
 31
0.0
  0
LINE
  5
BC8
330
1E
100
AcDbEntity
  8
0
100
AcDbLine
 10
8.828399500517239
 20
7.225020168496013
 30
0.0
 11
9.740745332331823
 21
7.225020168496013
 31
0.0
  0
LINE
  5
BC9
330
1E
100
AcDbEntity
  8
0
100
AcDbLine
 10
8.828399500517239
 20
7.152199410394854
 30
0.0
 11
9.745123191409626
 21
7.152199410394854
 31
0.0
  0
LINE
  5
BCA
330
1E
100
AcDbEntity
  8
HIDDEN
100
AcDbLine
 10
8.344006568994217
 20
10.69365192444484
 30
0.0
 11
8.344006568994214
 21
10.06869169785151
 31
0.0
  0
LINE
  5
BCB
330
1E
100
AcDbEntity
  8
HIDDEN
100
AcDbLine
 10
10.09400656899421
 20
10.69365192444484
 30
0.0
 11
10.09400656899421
 21
10.06869169785151
 31
0.0
  0
LINE
  5
BCC
330
1E
100
AcDbEntity
  8
0
100
AcDbLine
 10
10.09400656899421
 20
11.06869169785151
 30
0.0
 11
11.79528547387947
 21
11.06869169785151
 31
0.0
  0
LINE
  5
BCD
330
1E
100
AcDbEntity
  8
0
100
AcDbLine
 10
11.85778547387947
 20
11.06869169785151
 30
0.0
 11
11.85778547387947
 21
10.06869169785151
 31
0.0
  0
LINE
  5
BCE
330
1E
100
AcDbEntity
  8
0
100
AcDbLine
 10
6.580227664108957
 20
11.06869169785151
 30
0.0
 11
6.580227664108957
 21
10.06869169785151
 31
0.0
  0
LINE
  5
BCF
330
1E
100
AcDbEntity
  8
DASHED
100
AcDbLine
 10
6.642727664108957
 20
10.94369169785152
 30
0.0
 11
8.094594009408926
 21
10.94346959516734
 31
0.0
  0
LINE
  5
BD0
330
1E
100
AcDbEntity
  8
0
100
AcDbLine
 10
6.392727664108957
 20
10.06869169785151
 30
0.0
 11
12.04528547387947
 21
10.06869169785151
 31
0.0
  0
LINE
  5
BD1
330
1E
100
AcDbEntity
  8
0
100
AcDbLine
 10
8.095610687353751
 20
10.69365192444484
 30
0.0
 11
10.3499359907648
 21
10.69365192444484
 31
0.0
  0
LINE
  5
BD2
330
1E
100
AcDbEntity
  8
0
100
AcDbLine
 10
6.642727664108957
 20
11.06869169785151
 30
0.0
 11
8.344006568994214
 21
11.06869169785151
 31
0.0
  0
LINE
  5
BD3
330
1E
100
AcDbEntity
  8
0
100
AcDbLine
 10
6.392727664108957
 20
10.06869169785152
 30
0.0
 11
6.392727664108957
 21
10.81869169785151
 31
0.0
  0
LINE
  5
BD4
330
1E
100
AcDbEntity
  8
0
100
AcDbLine
 10
12.04528547387947
 20
10.06869169785151
 30
0.0
 11
12.04528547387947
 21
10.81869169785151
 31
0.0
  0
LINE
  5
BD5
330
1E
100
AcDbEntity
  8
DASHED
100
AcDbLine
 10
10.34617462750251
 20
10.94369169785151
 30
0.0
 11
11.79528547387947
 21
10.94369169785151
 31
0.0
  0
LINE
  5
BD6
330
1E
100
AcDbEntity
  8
DASHED
100
AcDbLine
 10
6.517727664108957
 20
10.06869169785152
 30
0.0
 11
6.517727664108957
 21
10.81869169785152
 31
0.0
  0
LINE
  5
BD7
330
1E
100
AcDbEntity
  8
DASHED
100
AcDbLine
 10
11.92028547387947
 20
10.06869169785151
 30
0.0
 11
11.92028547387947
 21
10.81869169785151
 31
0.0
  0
ARC
  5
BD8
330
1E
100
AcDbEntity
  8
0
100
AcDbCircle
 10
6.642727664108957
 20
10.81869169785151
 30
0.0
 40
0.25
100
AcDbArc
 50
90.0
 51
179.9999999999999
  0
ARC
  5
BD9
330
1E
100
AcDbEntity
  8
0
100
AcDbCircle
 10
11.79528547387947
 20
10.81869169785151
 30
0.0
 40
0.25
100
AcDbArc
 50
0.0
 51
90.0
  0
ARC
  5
BDA
330
1E
100
AcDbEntity
  8
DASHED
100
AcDbCircle
 10
6.642727664108957
 20
10.81869169785152
 30
0.0
 40
0.125
100
AcDbArc
 50
90.0
 51
179.9999999999999
  0
ARC
  5
BDB
330
1E
100
AcDbEntity
  8
DASHED
100
AcDbCircle
 10
11.79528547387947
 20
10.81869169785151
 30
0.0
 40
0.125
100
AcDbArc
 50
0.0
 51
90.0
  0
INSERT
  5
BDC
330
1E
100
AcDbEntity
  8
0
100
AcDbBlockReference
  2
4PBS44
 10
10.34400656899421
 20
7.149112898377634
 30
0.0
 42
0.8374799999999999
  0
ARC
  5
BDD
330
1E
100
AcDbEntity
  8
0
100
AcDbCircle
 10
9.219006568994214
 20
13.42806669785151
 30
0.0
 40
0.6406250000000001
100
AcDbArc
 50
12.68038349181983
 51
167.3196165081801
  0
CIRCLE
  5
BDE
330
1E
100
AcDbEntity
  8
0
100
AcDbCircle
 10
10.09400656899421
 20
12.13119169785151
 30
0.0
 40
0.0859375
  0
CIRCLE
  5
BDF
330
1E
100
AcDbEntity
  8
0
100
AcDbCircle
 10
8.344006568994214
 20
13.25619169785151
 30
0.0
 40
0.0859375
  0
CIRCLE
  5
BE0
330
1E
100
AcDbEntity
  8
0
100
AcDbCircle
 10
10.09400656899421
 20
13.75619169785151
 30
0.0
 40
0.0859375
  0
CIRCLE
  5
BE1
330
1E
100
AcDbEntity
  8
0
100
AcDbCircle
 10
8.344006568994214
 20
15.00619169785151
 30
0.0
 40
0.0859375
  0
CIRCLE
  5
BE2
330
1E
100
AcDbEntity
  8
0
100
AcDbCircle
 10
10.09400656899421
 20
15.50619169785151
 30
0.0
 40
0.0859375
  0
CIRCLE
  5
BE3
330
1E
100
AcDbEntity
  8
0
100
AcDbCircle
 10
8.344006568994214
 20
16.75619169785151
 30
0.0
 40
0.0859375
  0
CIRCLE
  5
BE4
330
1E
100
AcDbEntity
  8
0
100
AcDbCircle
 10
10.09400656899421
 20
17.25619169785151
 30
0.0
 40
0.0859375
  0
LINE
  5
BE5
330
1E
100
AcDbEntity
  8
0
100
AcDbLine
 10
8.094006568994214
 20
11.08781520317256
 30
0.0
 11
8.344006568994214
 21
11.08781520317256
 31
0.0
  0
LINE
  5
BE6
330
1E
100
AcDbEntity
  8
0
100
AcDbLine
 10
10.09400656899421
 20
11.08781520317256
 30
0.0
 11
10.34400656899421
 21
11.08781520317256
 31
0.0
  0
LINE
  5
BE7
330
1E
100
AcDbEntity
  8
0
100
AcDbLine
 10
10.34407957879459
 20
11.06869169785151
 30
0.0
 11
10.34551140724485
 21
10.69365192444484
 31
0.0
  0
LINE
  5
BE8
330
1E
100
AcDbEntity
  8
0
100
AcDbLine
 10
10.34617462750251
 20
10.94369169785151
 30
0.0
 11
10.09400656899421
 21
10.94508982355058
 31
0.0
  0
LINE
  5
BE9
330
1E
100
AcDbEntity
  8
0
100
AcDbLine
 10
8.094006568994214
 20
11.08781520317256
 30
0.0
 11
8.094006568994214
 21
10.6938248014127
 31
0.0
  0
LINE
  5
BEA
330
1E
100
AcDbEntity
  8
0
100
AcDbLine
 10
8.094006568994214
 20
10.6938248014127
 30
0.0
 11
8.096716833233735
 21
10.6938248014127
 31
0.0
  0
LINE
  5
BEB
330
1E
100
AcDbEntity
  8
0
100
AcDbLine
 10
8.094594009408926
 20
10.94346959516734
 30
0.0
 11
8.34559965623054
 21
10.94346959516734
 31
0.0
  0
LINE
  5
BEC
330
1E
100
AcDbEntity
  8
0
100
AcDbLine
 10
8.844006568994214
 20
10.94397649024745
 30
0.0
 11
8.844006568994214
 21
10.68705127824618
 31
0.0
  0
LINE
  5
BED
330
1E
100
AcDbEntity
  8
0
100
AcDbLine
 10
9.594006568994214
 20
10.6870512782419
 30
0.0
 11
9.594006568994214
 21
10.94397649014766
 31
0.0
  0
LINE
  5
BEE
330
1E
100
AcDbEntity
  8
0
100
AcDbLine
 10
9.469006568994214
 20
11.06869169785151
 30
0.0
 11
8.969006568994214
 21
11.06869169785151
 31
0.0
  0
LINE
  5
BEF
330
1E
100
AcDbEntity
  8
0
100
AcDbLine
 10
9.594006568994214
 20
10.75619169785151
 30
0.0
 11
9.594006568994214
 21
10.94369169785151
 31
0.0
  0
LINE
  5
BF0
330
1E
100
AcDbEntity
  8
0
100
AcDbLine
 10
9.594006568994214
 20
10.75619169785151
 30
0.0
 11
9.594006568994214
 21
10.69369169785151
 31
0.0
  0
LINE
  5
BF1
330
1E
100
AcDbEntity
  8
0
100
AcDbLine
 10
8.844006568994214
 20
10.75619169785151
 30
0.0
 11
8.844006568994214
 21
10.94369169785151
 31
0.0
  0
LINE
  5
BF2
330
1E
100
AcDbEntity
  8
0
100
AcDbLine
 10
8.844006568994214
 20
10.75619169785151
 30
0.0
 11
8.844006568994214
 21
10.69369169785151
 31
0.0
  0
ARC
  5
BF3
330
1E
100
AcDbEntity
  8
0
100
AcDbCircle
 10
9.469148965183898
 20
10.94383409404119
 30
0.0
 40
0.1248576850094878
100
AcDbArc
 50
359.9346559848864
 51
90.06534401511365
  0
ARC
  5
BF4
330
1E
100
AcDbEntity
  8
0
100
AcDbCircle
 10
9.472326778797896
 20
10.69037148804783
 30
0.0
 40
0.1217250801411129
100
AcDbArc
 50
1.544282567118248
 51
1.563010724140686
  0
ARC
  5
BF5
330
1E
100
AcDbEntity
  8
0
100
AcDbCircle
 10
8.968864172804526
 20
10.94383409404119
 30
0.0
 40
0.1248576850094878
100
AcDbArc
 50
89.93465598488635
 51
180.0653440151136
  0
ARC
  5
BF6
330
1E
100
AcDbEntity
  8
0
100
AcDbCircle
 10
8.965686359190531
 20
10.69037148804783
 30
0.0
 40
0.1217250801411129
100
AcDbArc
 50
178.4369892758593
 51
178.455717432882
  0
LINE
  5
BF7
330
1E
100
AcDbEntity
  8
0
100
AcDbLine
 10
9.219006568994214
 20
10.94369169785151
 30
0.0
 11
9.094006568994214
 21
10.94369169785151
 31
0.0
  0
LINE
  5
BF8
330
1E
100
AcDbEntity
  8
0
100
AcDbLine
 10
9.094006568994214
 20
10.94369169785151
 30
0.0
 11
9.343721776639786
 21
10.94369169785151
 31
0.0
  0
ARC
  5
BF9
330
1E
100
AcDbEntity
  8
0
100
AcDbCircle
 10
9.093864172804526
 20
10.81883409404119
 30
0.0
 40
0.1248576850094878
100
AcDbArc
 50
89.93465598488635
 51
180.0653440151136
  0
ARC
  5
BFA
330
1E
100
AcDbEntity
  8
0
100
AcDbCircle
 10
9.34386417282947
 20
10.81883409404119
 30
0.0
 40
0.1248576850094878
100
AcDbArc
 50
359.9346559848864
 51
90.06534401511365
  0
LINE
  5
BFB
330
1E
100
AcDbEntity
  8
0
100
AcDbLine
 10
9.468721776639786
 20
10.81869169785151
 30
0.0
 11
9.524092712204951
 21
10.69365192444484
 31
0.0
  0
LINE
  5
BFC
330
1E
100
AcDbEntity
  8
0
100
AcDbLine
 10
8.969006568994214
 20
10.81869169785151
 30
0.0
 11
8.914889153760814
 21
10.69365192444484
 31
0.0
  0
ENDSEC
  0
SECTION
  2
OBJECTS
  0
DICTIONARY
  5
C
330
0
100
AcDbDictionary
281
     1
  3
ACAD_COLOR
350
BAA
  3
ACAD_GROUP
350
D
  3
ACAD_LAYOUT
350
19
  3
ACAD_MATERIAL
350
BA9
  3
ACAD_MLINESTYLE
350
16
  3
ACAD_PLOTSETTINGS
350
18
  3
ACAD_PLOTSTYLENAME
350
E
  3
ACAD_TABLESTYLE
350
BAB
  3
ACDBHEADERROUNDTRIPXREC
350
C12
  3
AcDbVariableDictionary
350
C0D
  0
DICTIONARY
  5
BB1
330
2
100
AcDbDictionary
280
     1
281
     1
  3
ACAD_LAYERFILTERS
360
BB3
  3
ACLYDICTIONARY
360
BB2
  0
DICTIONARY
  5
BAA
102
{ACAD_REACTORS
330
C
102
}
330
C
100
AcDbDictionary
281
     1
  0
DICTIONARY
  5
D
102
{ACAD_REACTORS
330
C
102
}
330
C
100
AcDbDictionary
281
     1
  0
DICTIONARY
  5
19
102
{ACAD_REACTORS
330
C
102
}
330
C
100
AcDbDictionary
281
     1
  3
Layout1
350
1D
  3
Model
350
21
  0
DICTIONARY
  5
BA9
102
{ACAD_REACTORS
330
C
102
}
330
C
100
AcDbDictionary
281
     1
  0
DICTIONARY
  5
16
102
{ACAD_REACTORS
330
C
102
}
330
C
100
AcDbDictionary
281
     1
  3
Standard
350
17
  0
DICTIONARY
  5
18
102
{ACAD_REACTORS
330
C
102
}
330
C
100
AcDbDictionary
281
     1
  0
ACDBDICTIONARYWDFLT
  5
E
102
{ACAD_REACTORS
330
C
102
}
330
C
100
AcDbDictionary
281
     1
  3
Normal
350
F
100
AcDbDictionaryWithDefault
340
F
  0
DICTIONARY
  5
BAB
102
{ACAD_REACTORS
330
C
102
}
330
C
100
AcDbDictionary
281
     1
  3
Standard
350
BAC
  0
DICTIONARY
  5
C12
102
{ACAD_REACTORS
330
C
102
}
330
C
100
AcDbDictionary
281
     1
  3
COLORDICT
350
C13
  3
MATERIALDICT
350
C14
  0
DICTIONARY
  5
C0D
102
{ACAD_REACTORS
330
C
102
}
330
C
100
AcDbDictionary
281
     1
  3
CTABLESTYLE
350
C0E
  0
DICTIONARY
  5
BB3
102
{ACAD_REACTORS
330
BB1
102
}
330
BB1
100
AcDbDictionary
281
     1
  0
DICTIONARY
  5
BB2
102
{ACAD_REACTORS
330
BB1
102
}
330
BB1
100
AcDbDictionary
281
     1
1001
ACAD
1000
<All
  0
LAYOUT
  5
1D
102
{ACAD_REACTORS
330
19
102
}
102
{ACAD_XDICTIONARY
360
C15
102
}
330
19
100
AcDbPlotSettings
  1

  2
HP LaserJet 2100 Series PS
  4

  6

 40
0.0
 41
0.0
 42
0.0
 43
0.0
 44
0.0
 45
0.0
 46
0.0
 47
0.0
 48
0.0
 49
0.0
140
0.0
141
0.0
142
1.0
143
1.0
 70
   688
 72
     0
 73
     0
 74
     5
  7

 75
    16
147
1.0
148
0.0
149
0.0
100
AcDbLayout
  1
Layout1
 70
     0
 71
     1
 10
0.0
 20
0.0
 11
12.0
 21
9.0
 12
0.0
 22
0.0
 32
0.0
 14
1.000000000000000E+20
 24
1.000000000000000E+20
 34
1.000000000000000E+20
 15
-1.000000000000000E+20
 25
-1.000000000000000E+20
 35
-1.000000000000000E+20
146
0.0
 13
0.0
 23
0.0
 33
0.0
 16
1.0
 26
0.0
 36
0.0
 17
0.0
 27
1.0
 37
0.0
 76
     0
330
1A
  0
LAYOUT
  5
21
102
{ACAD_REACTORS
330
19
102
}
102
{ACAD_XDICTIONARY
360
C17
102
}
330
19
100
AcDbPlotSettings
  1

  2
HP LaserJet 2100 Series PS
  4
Letter
  6

 40
5.365749835968018
 41
5.408084392547607
 42
5.4080810546875
 43
5.365753173828125
 44
215.8999938964844
 45
279.3999938964844
 46
0.0
 47
0.0
 48
0.0
 49
0.0
140
0.0
141
0.0
142
1.0
143
2.482074006153913
 70
 28336
 72
     0
 73
     0
 74
     2
  7

 75
     0
147
0.4028888733859896
148
0.0
149
0.0
100
AcDbLayout
  1
Model
 70
     1
 71
     0
 10
0.0
 20
0.0
 11
12.0
 21
9.0
 12
0.0
 22
0.0
 32
0.0
 14
0.0
 24
0.0
 34
0.0
 15
0.0
 25
0.0
 35
0.0
146
0.0
 13
0.0
 23
0.0
 33
0.0
 16
1.0
 26
0.0
 36
0.0
 17
0.0
 27
1.0
 37
0.0
 76
     0
330
1E
  0
MLINESTYLE
  5
17
102
{ACAD_REACTORS
330
16
102
}
330
16
100
AcDbMlineStyle
  2
STANDARD
 70
     0
  3

 62
   256
 51
90.0
 52
90.0
 71
     2
 49
0.5
 62
   256
  6
BYLAYER
 49
-0.5
 62
   256
  6
BYLAYER
  0
ACDBPLACEHOLDER
  5
F
102
{ACAD_REACTORS
330
E
102
}
330
E
  0
ACAD_PROXY_OBJECT
  5
BAC
102
{ACAD_REACTORS
330
BAB
102
}
330
BAB
100
AcDbProxyObject
 90
      499
 91
      507
 95
   983063
 70
     0
 93
     1841
310
4214DD185B99185C9928B81E85EB51B8AE3F2E07A17AD46E2B8FC02B5E8DC0F42B1CFD028000000C1008070000C3001FDFF8000000C1003FBFF000000182007F7FE00000030400FEFFC00000060801FDFF8000000C1003FBFF00000018200000000000000681FA0B0000001820100E000186003FBFF000000182007F7FE000
310
00030400FEFFC00000060801FDFF8000000C1003FBFF000000182007F7FE000000304000AD7A3703D0AC73F4160000003040201C00030C007F7FE00000030400FEFFC00000060801FDFF8000000C1003FBFF000000182007F7FE00000030400FEFFC000000608000
340
11
340
11
340
11
 94
        0
  0
XRECORD
  5
C13
102
{ACAD_REACTORS
330
C12
102
}
330
C12
100
AcDbXrecord
340
BAA
  0
XRECORD
  5
C14
102
{ACAD_REACTORS
330
C12
102
}
330
C12
100
AcDbXrecord
340
BA9
  0
DICTIONARYVAR
  5
C0E
102
{ACAD_REACTORS
330
C0D
102
}
330
C0D
100
DictionaryVariables
280
     0
  1
STANDARD
  0
DICTIONARY
  5
C15
330
1D
100
AcDbDictionary
280
     1
281
     1
  3
ACAD_XREC_ROUNDTRIP
360
C16
  0
DICTIONARY
  5
C17
330
21
100
AcDbDictionary
280
     1
281
     1
  3
ACAD_XREC_ROUNDTRIP
360
C18
  0
XRECORD
  5
C16
102
{ACAD_REACTORS
330
C15
102
}
330
C15
100
AcDbXrecord
102
SHADEPLOT
 70
     0
102
SHADEPLOTRESLEVEL
 70
     2
102
SHADEPLOTCUSTOMDPI
 70
   300
  0
XRECORD
  5
C18
102
{ACAD_REACTORS
330
C17
102
}
330
C17
100
AcDbXrecord
102
SHADEPLOT
 70
     0
102
SHADEPLOTRESLEVEL
 70
     2
102
SHADEPLOTCUSTOMDPI
 70
   300
  0
ENDSEC
  0
EOF
