  0
SECTION
  2
HEADER
  9
$ACADVER
  1
AC1015
  9
$ACADMAINTVER
 70
     6
  9
$DWGCODEPAGE
  3
ANSI_1252
  9
$INSBASE
 10
0.0
 20
0.0
 30
0.0
  9
$EXTMIN
 10
-0.0210315532445833
 20
0.2267075809961057
 30
-0.0015258207003583
  9
$EXTMAX
 10
34.6396806418488
 20
22.96955117428412
 30
0.0000000349246037
  9
$LIMMIN
 10
0.0
 20
0.0
  9
$LIMMAX
 10
40.00000000000039
 20
52.50000000000051
  9
$ORTHOMODE
 70
     0
  9
$REGENMODE
 70
     1
  9
$FILLMODE
 70
     1
  9
$QTEXTMODE
 70
     0
  9
$MIRRTEXT
 70
     0
  9
$LTSCALE
 40
0.75
  9
$ATTMODE
 70
     1
  9
$TEXTSIZE
 40
0.450000000000004
  9
$TRACEWID
 40
0.05
  9
$TEXTSTYLE
  7
STANDARD
  9
$CLAYER
  8
0
  9
$CELTYPE
  6
ByLayer
  9
$CECOLOR
 62
   256
  9
$CELTSCALE
 40
1.0
  9
$DISPSILH
 70
     0
  9
$DIMSCALE
 40
1.0
  9
$DIMASZ
 40
0.625000000000004
  9
$DIMEXO
 40
0.1
  9
$DIMDLI
 40
0.375
  9
$DIMRND
 40
0.0
  9
$DIMDLE
 40
0.0
  9
$DIMEXE
 40
0.400000000000004
  9
$DIMTP
 40
0.0
  9
$DIMTM
 40
0.0
  9
$DIMTXT
 40
0.450000000000004
  9
$DIMCEN
 40
-0.06
  9
$DIMTSZ
 40
0.0
  9
$DIMTOL
 70
     0
  9
$DIMLIM
 70
     0
  9
$DIMTIH
 70
     1
  9
$DIMTOH
 70
     1
  9
$DIMSE1
 70
     0
  9
$DIMSE2
 70
     0
  9
$DIMTAD
 70
     0
  9
$DIMZIN
 70
     0
  9
$DIMBLK
  1

  9
$DIMASO
 70
     0
  9
$DIMSHO
 70
     0
  9
$DIMPOST
  1

  9
$DIMAPOST
  1

  9
$DIMALT
 70
     0
  9
$DIMALTD
 70
     2
  9
$DIMALTF
 40
25.4
  9
$DIMLFAC
 40
1.0
  9
$DIMTOFL
 70
     0
  9
$DIMTVP
 40
0.0
  9
$DIMTIX
 70
     0
  9
$DIMSOXD
 70
     0
  9
$DIMSAH
 70
     0
  9
$DIMBLK1
  1

  9
$DIMBLK2
  1

  9
$DIMSTYLE
  2
Standard
  9
$DIMCLRD
 70
     0
  9
$DIMCLRE
 70
     0
  9
$DIMCLRT
 70
     0
  9
$DIMTFAC
 40
1.0
  9
$DIMGAP
 40
0.09
  9
$DIMJUST
 70
     0
  9
$DIMSD1
 70
     0
  9
$DIMSD2
 70
     0
  9
$DIMTOLJ
 70
     1
  9
$DIMTZIN
 70
     0
  9
$DIMALTZ
 70
     0
  9
$DIMALTTZ
 70
     0
  9
$DIMUPT
 70
     0
  9
$DIMDEC
 70
     3
  9
$DIMTDEC
 70
     3
  9
$DIMALTU
 70
     2
  9
$DIMALTTD
 70
     2
  9
$DIMTXSTY
  7
STANDARD
  9
$DIMAUNIT
 70
     0
  9
$DIMADEC
 70
     0
  9
$DIMALTRND
 40
0.0
  9
$DIMAZIN
 70
     0
  9
$DIMDSEP
 70
    46
  9
$DIMATFIT
 70
     3
  9
$DIMFRAC
 70
     0
  9
$DIMLDRBLK
  1

  9
$DIMLUNIT
 70
     2
  9
$DIMLWD
 70
    -2
  9
$DIMLWE
 70
    -2
  9
$DIMTMOVE
 70
     2
  9
$LUNITS
 70
     2
  9
$LUPREC
 70
     3
  9
$SKETCHINC
 40
0.1
  9
$FILLETRAD
 40
0.0
  9
$AUNITS
 70
     0
  9
$AUPREC
 70
     0
  9
$MENU
  1
acad
  9
$ELEVATION
 40
0.0
  9
$PELEVATION
 40
0.0
  9
$THICKNESS
 40
0.0
  9
$LIMCHECK
 70
     0
  9
$CHAMFERA
 40
0.0
  9
$CHAMFERB
 40
0.0
  9
$CHAMFERC
 40
0.0
  9
$CHAMFERD
 40
0.0
  9
$SKPOLY
 70
     0
  9
$TDCREATE
 40
2449188.748739583
  9
$TDUCREATE
 40
2449189.082072916
  9
$TDUPDATE
 40
2454162.995937581
  9
$TDUUPDATE
 40
2454163.329270914
  9
$TDINDWG
 40
0.0339090394
  9
$TDUSRTIMER
 40
0.0339090394
  9
$USRTIMER
 70
     1
  9
$ANGBASE
 50
0.0
  9
$ANGDIR
 70
     0
  9
$PDMODE
 70
     0
  9
$PDSIZE
 40
0.0
  9
$PLINEWID
 40
0.0
  9
$SPLFRAME
 70
     0
  9
$SPLINETYPE
 70
     6
  9
$SPLINESEGS
 70
     8
  9
$HANDSEED
  5
16E
  9
$SURFTAB1
 70
     6
  9
$SURFTAB2
 70
     6
  9
$SURFTYPE
 70
     6
  9
$SURFU
 70
     6
  9
$SURFV
 70
     6
  9
$UCSBASE
  2

  9
$UCSNAME
  2

  9
$UCSORG
 10
0.0
 20
0.0
 30
0.0
  9
$UCSXDIR
 10
1.0
 20
0.0
 30
0.0
  9
$UCSYDIR
 10
0.0
 20
1.0
 30
0.0
  9
$UCSORTHOREF
  2

  9
$UCSORTHOVIEW
 70
     0
  9
$UCSORGTOP
 10
0.0
 20
0.0
 30
0.0
  9
$UCSORGBOTTOM
 10
0.0
 20
0.0
 30
0.0
  9
$UCSORGLEFT
 10
0.0
 20
0.0
 30
0.0
  9
$UCSORGRIGHT
 10
0.0
 20
0.0
 30
0.0
  9
$UCSORGFRONT
 10
0.0
 20
0.0
 30
0.0
  9
$UCSORGBACK
 10
0.0
 20
0.0
 30
0.0
  9
$PUCSBASE
  2

  9
$PUCSNAME
  2

  9
$PUCSORG
 10
0.0
 20
0.0
 30
0.0
  9
$PUCSXDIR
 10
1.0
 20
0.0
 30
0.0
  9
$PUCSYDIR
 10
0.0
 20
1.0
 30
0.0
  9
$PUCSORTHOREF
  2

  9
$PUCSORTHOVIEW
 70
     0
  9
$PUCSORGTOP
 10
0.0
 20
0.0
 30
0.0
  9
$PUCSORGBOTTOM
 10
0.0
 20
0.0
 30
0.0
  9
$PUCSORGLEFT
 10
0.0
 20
0.0
 30
0.0
  9
$PUCSORGRIGHT
 10
0.0
 20
0.0
 30
0.0
  9
$PUCSORGFRONT
 10
0.0
 20
0.0
 30
0.0
  9
$PUCSORGBACK
 10
0.0
 20
0.0
 30
0.0
  9
$USERI1
 70
     0
  9
$USERI2
 70
     0
  9
$USERI3
 70
     0
  9
$USERI4
 70
     0
  9
$USERI5
 70
     0
  9
$USERR1
 40
0.0
  9
$USERR2
 40
0.0
  9
$USERR3
 40
0.0
  9
$USERR4
 40
0.0
  9
$USERR5
 40
0.0
  9
$WORLDVIEW
 70
     1
  9
$SHADEDGE
 70
     3
  9
$SHADEDIF
 70
    70
  9
$TILEMODE
 70
     1
  9
$MAXACTVP
 70
    16
  9
$PINSBASE
 10
0.0
 20
0.0
 30
0.0
  9
$PLIMCHECK
 70
     0
  9
$PEXTMIN
 10
1.000000000000000E+20
 20
1.000000000000000E+20
 30
1.000000000000000E+20
  9
$PEXTMAX
 10
-1.000000000000000E+20
 20
-1.000000000000000E+20
 30
-1.000000000000000E+20
  9
$PLIMMIN
 10
0.0
 20
0.0
  9
$PLIMMAX
 10
12.0
 20
9.0
  9
$UNITMODE
 70
     0
  9
$VISRETAIN
 70
     0
  9
$PLINEGEN
 70
     0
  9
$PSLTSCALE
 70
     0
  9
$TREEDEPTH
 70
  3020
  9
$CMLSTYLE
  2
Standard
  9
$CMLJUST
 70
     0
  9
$CMLSCALE
 40
1.0
  9
$PROXYGRAPHICS
 70
     1
  9
$MEASUREMENT
 70
     0
  9
$CELWEIGHT
370
    -1
  9
$ENDCAPS
280
     0
  9
$JOINSTYLE
280
     0
  9
$LWDISPLAY
290
     0
  9
$INSUNITS
 70
     0
  9
$HYPERLINKBASE
  1

  9
$STYLESHEET
  1

  9
$XEDIT
290
     1
  9
$CEPSNTYPE
380
     0
  9
$PSTYLEMODE
290
     1
  9
$FINGERPRINTGUID
  2
{BEA83209-4279-45C9-9A29-7F9B7DBBFB61}
  9
$VERSIONGUID
  2
{197F9D20-0624-4EDC-9742-8BE172D01C5C}
  9
$EXTNAMES
290
     1
  9
$PSVPSCALE
 40
0.0
  9
$OLESTARTUP
290
     0
  0
ENDSEC
  0
SECTION
  2
CLASSES
  0
CLASS
  1
ACDBDICTIONARYWDFLT
  2
AcDbDictionaryWithDefault
  3
AutoCAD 2000
 90
        0
280
     0
281
     0
  0
CLASS
  1
ACDBPLACEHOLDER
  2
AcDbPlaceHolder
  3
ObjectDBX Classes
 90
        0
280
     0
281
     0
  0
CLASS
  1
LAYOUT
  2
AcDbLayout
  3
ObjectDBX Classes
 90
        0
280
     0
281
     0
  0
CLASS
  1
DICTIONARYVAR
  2
AcDbDictionaryVar
  3
AutoCAD 2000
 90
        0
280
     0
281
     0
  0
CLASS
  1
TABLESTYLE
  2
AcDbTableStyle
  3
ObjectDBX Classes
 90
     2047
280
     1
281
     0
  0
CLASS
  1
SORTENTSTABLE
  2
AcDbSortentsTable
  3
AutoCAD 2000
 90
        0
280
     0
281
     0
  0
ENDSEC
  0
SECTION
  2
TABLES
  0
TABLE
  2
VPORT
  5
19
330
0
100
AcDbSymbolTable
 70
     2
  0
VPORT
  5
160
330
19
100
AcDbSymbolTableRecord
100
AcDbViewportTableRecord
  2
*Active
 70
     0
 10
0.0
 20
0.0
 11
1.0
 21
1.0
 12
19.9894842233779
 22
26.25000000000026
 13
0.0
 23
0.0
 14
0.0625
 24
0.0625
 15
0.25
 25
0.25
 16
0.0
 26
0.0
 36
1.0
 17
0.0
 27
0.0
 37
0.0
 40
53.15488565488617
 41
1.814583333333333
 42
50.0
 43
0.0
 44
0.0
 50
0.0
 51
0.0
 71
     0
 72
   100
 73
     1
 74
     1
 75
     0
 76
     0
 77
     0
 78
     0
281
     0
 65
     1
110
0.0
120
0.0
130
0.0
111
1.0
121
0.0
131
0.0
112
0.0
122
1.0
132
0.0
 79
     0
146
0.0
  0
ENDTAB
  0
TABLE
  2
LTYPE
  5
14
330
0
100
AcDbSymbolTable
 70
     2
  0
LTYPE
  5
15
330
14
100
AcDbSymbolTableRecord
100
AcDbLinetypeTableRecord
  2
ByBlock
 70
     0
  3

 72
    65
 73
     0
 40
0.0
  0
LTYPE
  5
16
330
14
100
AcDbSymbolTableRecord
100
AcDbLinetypeTableRecord
  2
ByLayer
 70
     0
  3

 72
    65
 73
     0
 40
0.0
  0
LTYPE
  5
8
330
14
100
AcDbSymbolTableRecord
100
AcDbLinetypeTableRecord
  2
CONTINUOUS
 70
     0
  3
Solid line
 72
    65
 73
     0
 40
0.0
  0
LTYPE
  5
140
330
14
100
AcDbSymbolTableRecord
100
AcDbLinetypeTableRecord
  2
HIDDEN
 70
     0
  3
Hidden __ __ __ __ __ __ __ __ __ __ __ __ __ _
 72
    65
 73
     2
 40
0.375
 49
0.25
 74
     0
 49
-0.125
 74
     0
  0
ENDTAB
  0
TABLE
  2
LAYER
  5
10
330
0
100
AcDbSymbolTable
 70
     1
  0
LAYER
  5
4
330
10
100
AcDbSymbolTableRecord
100
AcDbLayerTableRecord
  2
0
 70
     0
 62
     7
  6
CONTINUOUS
370
    -3
390
5
  0
ENDTAB
  0
TABLE
  2
STYLE
  5
11
330
0
100
AcDbSymbolTable
 70
     2
  0
STYLE
  5
12
330
11
100
AcDbSymbolTableRecord
100
AcDbTextStyleTableRecord
  2
STANDARD
 70
     0
 40
0.0
 41
1.0
 50
0.0
 71
     0
 42
0.450000000000004
  3
TXT
  4

  0
STYLE
  5
13F
330
11
100
AcDbSymbolTableRecord
100
AcDbTextStyleTableRecord
  2

 70
     1
 40
0.0
 41
1.0
 50
0.0
 71
     0
 42
0.450000000000004
  3
ltypeshp.shx
  4

  0
ENDTAB
  0
TABLE
  2
VIEW
  5
17
330
0
100
AcDbSymbolTable
 70
     0
  0
ENDTAB
  0
TABLE
  2
UCS
  5
18
330
0
100
AcDbSymbolTable
 70
     0
  0
ENDTAB
  0
TABLE
  2
APPID
  5
1B
330
0
100
AcDbSymbolTable
 70
     1
  0
APPID
  5
1C
330
1B
100
AcDbSymbolTableRecord
100
AcDbRegAppTableRecord
  2
ACAD
 70
     0
  0
ENDTAB
  0
TABLE
  2
DIMSTYLE
  5
1D
330
0
100
AcDbSymbolTable
 70
     1
100
AcDbDimStyleTable
  0
DIMSTYLE
105
24
330
1D
100
AcDbSymbolTableRecord
100
AcDbDimStyleTableRecord
  2
Standard
 70
     0
  3

  4

340
12
  0
ENDTAB
  0
TABLE
  2
BLOCK_RECORD
  5
1
330
0
100
AcDbSymbolTable
 70
     0
  0
BLOCK_RECORD
  5
2
102
{ACAD_XDICTIONARY
360
AA
102
}
330
1
100
AcDbSymbolTableRecord
100
AcDbBlockTableRecord
  2
*Model_Space
340
A
  0
BLOCK_RECORD
  5
C
330
1
100
AcDbSymbolTableRecord
100
AcDbBlockTableRecord
  2
*Paper_Space
340
F
  0
ENDTAB
  0
ENDSEC
  0
SECTION
  2
BLOCKS
  0
BLOCK
  5
3
330
2
100
AcDbEntity
  8
0
100
AcDbBlockBegin
  2
*Model_Space
 70
     0
 10
0.0
 20
0.0
 30
0.0
  3
*Model_Space
  1

  4

  0
ENDBLK
  5
9
330
2
100
AcDbEntity
  8
0
100
AcDbBlockEnd
  0
BLOCK
  5
D
330
C
100
AcDbEntity
 67
     1
  8
0
100
AcDbBlockBegin
  2
*Paper_Space
 70
     0
 10
0.0
 20
0.0
 30
0.0
  3
*Paper_Space
  1

  4

  0
ENDBLK
  5
E
330
C
100
AcDbEntity
 67
     1
  8
0
100
AcDbBlockEnd
  0
ENDSEC
  0
SECTION
  2
ENTITIES
  0
LINE
  5
AF
330
2
100
AcDbEntity
  8
0
100
AcDbLine
 10
23.99307647218367
 20
19.59201564072372
 30
0.0
 11
11.05557647218367
 21
19.59201564072372
 31
0.0
  0
LINE
  5
B0
330
2
100
AcDbEntity
  8
0
100
AcDbLine
 10
23.99307647218367
 20
22.96701564072372
 30
0.0
 11
11.05557647218368
 21
22.96701564072372
 31
0.0
  0
ARC
  5
B1
330
2
100
AcDbEntity
  8
0
100
AcDbCircle
 10
20.27427647218368
 20
22.5925156407237
 30
0.0
 40
0.1875
100
AcDbArc
 50
90.0
 51
270.0
  0
ARC
  5
B2
330
2
100
AcDbEntity
  8
0
100
AcDbCircle
 10
20.27427647218368
 20
19.96651564072372
 30
0.0
 40
0.1875000000000025
100
AcDbArc
 50
90.0
 51
270.0
  0
LINE
  5
B5
330
2
100
AcDbEntity
  8
0
100
AcDbLine
 10
14.71187647218368
 20
22.5920156407237
 30
0.0
 11
14.71187647218368
 21
19.96701564072372
 31
0.0
  0
LINE
  5
B7
330
2
100
AcDbEntity
  8
0
100
AcDbLine
 10
14.33687847220146
 20
19.96701564072372
 30
0.0
 11
11.05557647218367
 21
19.96701564072372
 31
0.0
  0
LINE
  5
B8
330
2
100
AcDbEntity
  8
0
100
AcDbLine
 10
11.05557647218367
 20
19.96701564072372
 30
0.0
 11
11.05557647218367
 21
19.59201564072372
 31
0.0
  0
ARC
  5
B9
330
2
100
AcDbEntity
  8
0
100
AcDbCircle
 10
14.52437580551583
 20
19.96601564072372
 30
0.0
 40
0.1875000000000025
100
AcDbArc
 50
179.6944210605799
 51
274.18522251963
  0
LINE
  5
BA
330
2
100
AcDbEntity
  8
0
100
AcDbLine
 10
14.77437647218368
 20
20.15401564072372
 30
0.0
 11
14.77437647218368
 21
19.96701564072372
 31
0.0
  0
ARC
  5
BB
330
2
100
AcDbEntity
  8
0
100
AcDbCircle
 10
14.77437647218368
 20
19.96651564072372
 30
0.0
 40
0.1875000000000025
100
AcDbArc
 50
270.0
 51
90.0
  0
LINE
  5
BC
330
2
100
AcDbEntity
  8
0
100
AcDbLine
 10
14.71187647218368
 20
20.15401564072372
 30
0.0
 11
14.77437647218367
 21
20.15401564072372
 31
0.0
  0
LINE
  5
BD
330
2
100
AcDbEntity
  8
0
100
AcDbLine
 10
14.77437647218368
 20
19.77901564072372
 30
0.0
 11
14.53805973769934
 21
19.77901564072372
 31
0.0
  0
LINE
  5
BE
330
2
100
AcDbEntity
  8
0
100
AcDbLine
 10
14.77437647218368
 20
19.96701564072372
 30
0.0
 11
14.71187647218368
 21
19.96701564072372
 31
0.0
  0
LINE
  5
BF
330
2
100
AcDbEntity
  8
0
100
AcDbLine
 10
11.05557647218368
 20
22.59201564072372
 30
0.0
 11
14.33687847220146
 21
22.59201564072371
 31
0.0
  0
LINE
  5
C0
330
2
100
AcDbEntity
  8
0
100
AcDbLine
 10
11.05557647218368
 20
22.96701564072372
 30
0.0
 11
11.05557647218368
 21
22.59201564072372
 31
0.0
  0
ARC
  5
C1
330
2
100
AcDbEntity
  8
0
100
AcDbCircle
 10
14.52437580551583
 20
22.59301564072371
 30
0.0
 40
0.1875000000000025
100
AcDbArc
 50
85.81477748037005
 51
180.3055789394201
  0
ARC
  5
C2
330
2
100
AcDbEntity
  8
0
100
AcDbCircle
 10
14.77437647218368
 20
22.5925156407237
 30
0.0
 40
0.1875
100
AcDbArc
 50
270.0
 51
90.0
  0
LINE
  5
C3
330
2
100
AcDbEntity
  8
0
100
AcDbLine
 10
14.77437647218368
 20
22.59201564072371
 30
0.0
 11
14.77437647218368
 21
22.4050156407237
 31
0.0
  0
LINE
  5
C4
330
2
100
AcDbEntity
  8
0
100
AcDbLine
 10
14.77437647218368
 20
22.4050156407237
 30
0.0
 11
14.71187647218368
 21
22.4050156407237
 31
0.0
  0
LINE
  5
C5
330
2
100
AcDbEntity
  8
0
100
AcDbLine
 10
14.71187647218368
 20
22.5920156407237
 30
0.0
 11
14.77437647218368
 21
22.59201564072371
 31
0.0
  0
LINE
  5
C6
330
2
100
AcDbEntity
  8
0
100
AcDbLine
 10
14.77437647218368
 20
22.7800156407237
 30
0.0
 11
14.53805973769935
 21
22.7800156407237
 31
0.0
  0
LINE
  5
C7
330
2
100
AcDbEntity
  8
0
100
AcDbLine
 10
20.33677647218367
 20
22.5920156407237
 30
0.0
 11
20.33677647218368
 21
19.96701564072372
 31
0.0
  0
LINE
  5
C9
330
2
100
AcDbEntity
  8
0
100
AcDbLine
 10
20.7117744721659
 20
19.96701564072372
 30
0.0
 11
23.99307647218367
 21
19.96701564072372
 31
0.0
  0
ARC
  5
CA
330
2
100
AcDbEntity
  8
0
100
AcDbCircle
 10
20.52427713885152
 20
19.96601564072372
 30
0.0
 40
0.1875000000000025
100
AcDbArc
 50
265.81477748037
 51
0.3055789394200826
  0
LINE
  5
CB
330
2
100
AcDbEntity
  8
0
100
AcDbLine
 10
20.27427647218368
 20
20.15401564072373
 30
0.0
 11
20.27427647218368
 21
19.96701564072372
 31
0.0
  0
LINE
  5
CC
330
2
100
AcDbEntity
  8
0
100
AcDbLine
 10
20.33677647218368
 20
20.15401564072372
 30
0.0
 11
20.27427647218368
 21
20.15401564072372
 31
0.0
  0
LINE
  5
CD
330
2
100
AcDbEntity
  8
0
100
AcDbLine
 10
20.27427647218368
 20
19.77901564072372
 30
0.0
 11
20.51059320666808
 21
19.77901564072372
 31
0.0
  0
LINE
  5
CE
330
2
100
AcDbEntity
  8
0
100
AcDbLine
 10
20.27427647218368
 20
19.96701564072372
 30
0.0
 11
20.33677647218368
 21
19.96701564072372
 31
0.0
  0
LINE
  5
CF
330
2
100
AcDbEntity
  8
0
100
AcDbLine
 10
23.99307647218367
 20
19.96701564072372
 30
0.0
 11
23.99307647218367
 21
19.59201564072372
 31
0.0
  0
LINE
  5
D0
330
2
100
AcDbEntity
  8
0
100
AcDbLine
 10
23.99307647218367
 20
22.59201564072371
 30
0.0
 11
20.7117744721659
 21
22.5920156407237
 31
0.0
  0
LINE
  5
D1
330
2
100
AcDbEntity
  8
0
100
AcDbLine
 10
20.27427647218368
 20
22.59201564072371
 30
0.0
 11
20.27427647218368
 21
22.4050156407237
 31
0.0
  0
LINE
  5
D2
330
2
100
AcDbEntity
  8
0
100
AcDbLine
 10
20.27427647218367
 20
22.4050156407237
 30
0.0
 11
20.33677647218367
 21
22.4050156407237
 31
0.0
  0
ARC
  5
D3
330
2
100
AcDbEntity
  8
0
100
AcDbCircle
 10
20.52427713885152
 20
22.59301564072371
 30
0.0
 40
0.1875000000000025
100
AcDbArc
 50
359.6944210605799
 51
94.18522251962995
  0
LINE
  5
D4
330
2
100
AcDbEntity
  8
0
100
AcDbLine
 10
20.33677647218367
 20
22.5920156407237
 30
0.0
 11
20.27427647218368
 21
22.59201564072371
 31
0.0
  0
LINE
  5
D5
330
2
100
AcDbEntity
  8
0
100
AcDbLine
 10
20.27427647218368
 20
22.7800156407237
 30
0.0
 11
20.51059320666801
 21
22.7800156407237
 31
0.0
  0
LINE
  5
D6
330
2
100
AcDbEntity
  8
0
100
AcDbLine
 10
23.99307647218367
 20
22.96701564072372
 30
0.0
 11
23.99307647218367
 21
22.59201564072371
 31
0.0
  0
LINE
  5
D7
330
2
100
AcDbEntity
  8
0
100
AcDbLine
 10
34.27038150884217
 20
4.098172301044869
 30
0.0
 11
34.57594479477199
 21
7.590776641026238
 31
0.0
  0
LINE
  5
D8
330
2
100
AcDbEntity
  8
0
100
AcDbLine
 10
30.42466786848676
 20
7.601671108869695
 30
0.0
 11
30.7306875873979
 21
4.098181047913865
 31
0.0
  0
LINE
  5
D9
330
2
100
AcDbEntity
  8
0
100
AcDbLine
 10
34.3326436774729
 20
4.092725067123141
 30
0.0
 11
34.63820696340272
 21
7.58532940710451
 31
0.0
  0
LINE
  5
DA
330
2
100
AcDbEntity
  8
0
100
AcDbLine
 10
30.36240493522324
 20
7.596232621816963
 30
0.0
 11
30.66842465413438
 21
4.092742560861133
 31
0.0
  0
CIRCLE
  5
DB
330
2
100
AcDbEntity
  8
0
100
AcDbCircle
 10
32.50079416299864
 20
1.603619534966597
 30
0.0
 40
0.2810000000000025
  0
LINE
  5
DD
330
2
100
AcDbEntity
  8
0
100
AcDbLine
 10
34.20811934021144
 20
4.041119534966597
 30
0.0
 11
30.79295052066142
 21
4.041119534966597
 31
0.0
  0
LINE
  5
DE
330
2
100
AcDbEntity
  8
0
100
AcDbLine
 10
33.81304416299864
 20
0.2286195349666009
 30
0.0
 11
31.18804416299864
 21
0.2286195349665903
 31
0.0
  0
LINE
  5
DF
330
2
100
AcDbEntity
  8
0
100
AcDbLine
 10
31.18804416299864
 20
3.541119534966597
 30
0.0
 11
31.18804416299864
 21
0.2286195349665903
 31
0.0
  0
CIRCLE
  5
E0
330
2
100
AcDbEntity
  8
0
100
AcDbCircle
 10
31.50054416299864
 20
0.6036195349665974
 30
0.0
 40
0.0855000000000025
  0
CIRCLE
  5
E1
330
2
100
AcDbEntity
  8
0
100
AcDbCircle
 10
31.50054416299864
 20
2.728619534966597
 30
0.0
 40
0.0855000000000025
  0
ARC
  5
E2
330
2
100
AcDbEntity
  8
0
100
AcDbCircle
 10
30.79295052066142
 20
4.103619534966597
 30
0.0
 40
0.0625
100
AcDbArc
 50
184.9919508810836
 51
270.0
  0
ARC
  5
E3
330
2
100
AcDbEntity
  8
0
100
AcDbCircle
 10
30.79295052066142
 20
4.103619534966597
 30
0.0
 40
0.125
100
AcDbArc
 50
184.9919508810836
 51
270.0
  0
LINE
  5
E4
330
2
100
AcDbEntity
  8
0
100
AcDbLine
 10
30.79295052066142
 20
3.978619534966597
 30
0.0
 11
31.37554416299864
 21
3.978619534966597
 31
0.0
  0
LINE
  5
E5
330
2
100
AcDbEntity
  8
0
100
AcDbLine
 10
31.18804416299864
 20
4.041119534966597
 30
0.0
 11
31.18804416299864
 21
3.978619534966597
 31
0.0
  0
ARC
  5
E6
330
2
100
AcDbEntity
  8
0
100
AcDbCircle
 10
31.18854416299864
 20
3.728618868298749
 30
0.0
 40
0.1875000000000025
100
AcDbArc
 50
269.6944210605799
 51
4.185222519629921
  0
LINE
  5
E7
330
2
100
AcDbEntity
  8
0
100
AcDbLine
 10
31.37554416299864
 20
4.041119534966597
 30
0.0
 11
31.37554416299864
 21
3.742302800482261
 31
0.0
  0
LINE
  5
E8
330
2
100
AcDbEntity
  8
0
100
AcDbLine
 10
33.81304416299864
 20
3.541119534966597
 30
0.0
 11
33.81304416299864
 21
0.2286195349666009
 31
0.0
  0
CIRCLE
  5
E9
330
2
100
AcDbEntity
  8
0
100
AcDbCircle
 10
33.50054416299864
 20
0.6036195349665974
 30
0.0
 40
0.0855000000000025
  0
CIRCLE
  5
EA
330
2
100
AcDbEntity
  8
0
100
AcDbCircle
 10
33.50054416299864
 20
2.728619534966597
 30
0.0
 40
0.0855000000000025
  0
ARC
  5
EB
330
2
100
AcDbEntity
  8
0
100
AcDbCircle
 10
33.81254416299863
 20
3.728618868298749
 30
0.0
 40
0.1875000000000025
100
AcDbArc
 50
175.8147774803701
 51
270.3055789394201
  0
LINE
  5
EC
330
2
100
AcDbEntity
  8
0
100
AcDbLine
 10
34.20811934021144
 20
3.978619534966597
 30
0.0
 11
33.62554416299864
 21
3.978619534966597
 31
0.0
  0
LINE
  5
ED
330
2
100
AcDbEntity
  8
0
100
AcDbLine
 10
33.62554416299864
 20
4.041119534966597
 30
0.0
 11
33.62554416299864
 21
3.742302800482261
 31
0.0
  0
ARC
  5
EE
330
2
100
AcDbEntity
  8
0
100
AcDbCircle
 10
34.20811934021144
 20
4.103619534966597
 30
0.0
 40
0.0625
100
AcDbArc
 50
270.0
 51
354.9999999999999
  0
ARC
  5
EF
330
2
100
AcDbEntity
  8
0
100
AcDbCircle
 10
34.20811934021144
 20
4.103619534966597
 30
0.0
 40
0.125
100
AcDbArc
 50
270.0
 51
354.9999999999999
  0
LINE
  5
F0
330
2
100
AcDbEntity
  8
0
100
AcDbLine
 10
33.81304416299864
 20
4.041119534966597
 30
0.0
 11
33.81304416299864
 21
3.978619534966597
 31
0.0
  0
LINE
  5
F1
330
2
100
AcDbEntity
  8
0
100
AcDbLine
 10
30.36240569924163
 20
7.596223874894214
 30
0.0
 11
30.42466786848676
 21
7.601671108869695
 31
0.0
  0
LINE
  5
F2
330
2
100
AcDbEntity
  8
0
100
AcDbLine
 10
34.57594479477199
 20
7.590776641026238
 30
0.0
 11
34.63820696340272
 21
7.58532940710451
 31
0.0
  0
ARC
  5
F3
330
2
100
AcDbEntity
  8
0
100
AcDbCircle
 10
19.99051405132512
 20
3.916119534966594
 30
0.0
 40
0.125
100
AcDbArc
 50
4.999999999999995
 51
29.99999999999832
  0
LINE
  5
F4
330
2
100
AcDbEntity
  8
0
100
AcDbLine
 10
20.11503838858659
 20
3.927014002810051
 30
0.0
 11
20.4378757111644
 21
0.2369665204622926
 31
0.0
  0
LINE
  5
F6
330
2
100
AcDbEntity
  8
0
100
AcDbLine
 10
20.05277621995586
 20
3.921566768888322
 30
0.0
 11
20.37561354253366
 21
0.2315192865405642
 31
0.0
  0
LINE
  5
F7
330
2
100
AcDbEntity
  8
0
100
AcDbLine
 10
23.80919831233487
 20
7.603619534966594
 30
0.0
 11
10.80919831233487
 21
7.603619534966597
 31
0.0
  0
LINE
  5
F8
330
2
100
AcDbEntity
  8
0
100
AcDbLine
 10
10.80919831233487
 20
3.978619534966601
 30
0.0
 11
23.80919831233486
 21
3.97861953496659
 31
0.0
  0
LINE
  5
F9
330
2
100
AcDbEntity
  8
0
100
AcDbLine
 10
10.80919831233487
 20
7.603619534966597
 30
0.0
 11
10.80919831233487
 21
3.978619534966597
 31
0.0
  0
CIRCLE
  5
FA
330
2
100
AcDbEntity
  8
0
100
AcDbCircle
 10
13.30919831233487
 20
5.103619534966594
 30
0.0
 40
0.0855000000000025
  0
LINE
  5
FB
330
2
100
AcDbEntity
  8
0
100
AcDbLine
 10
14.18099657624388
 20
0.247860988305753
 30
0.0
 11
14.50288075639023
 21
3.927014002810054
 31
0.0
  0
LINE
  5
FC
330
2
100
AcDbEntity
  8
0
100
AcDbLine
 10
14.24325874487461
 20
0.2424137543840246
 30
0.0
 11
14.56514292502097
 21
3.921566768888326
 31
0.0
  0
LINE
  5
FD
330
2
100
AcDbEntity
  8
0
100
AcDbLine
 10
14.18099657624388
 20
0.247860988305753
 30
0.0
 11
14.24325874487461
 21
0.2424137543840246
 31
0.0
  0
ARC
  5
FE
330
2
100
AcDbEntity
  8
0
100
AcDbCircle
 10
14.6274050936517
 20
3.916119534966597
 30
0.0
 40
0.0625
100
AcDbArc
 50
89.99999999999999
 51
175.0
  0
ARC
  5
FF
330
2
100
AcDbEntity
  8
0
100
AcDbCircle
 10
14.6274050936517
 20
3.916119534966597
 30
0.0
 40
0.125
100
AcDbArc
 50
150.0000000000003
 51
175.0
  0
ARC
  5
100
330
2
100
AcDbEntity
  8
0
100
AcDbCircle
 10
19.99051405132512
 20
3.916119534966594
 30
0.0
 40
0.0625
100
AcDbArc
 50
4.999999999999995
 51
89.99999999999997
  0
CIRCLE
  5
101
330
2
100
AcDbEntity
  8
0
100
AcDbCircle
 10
11.18419831233487
 20
6.603619534966594
 30
0.0
 40
0.0855000000000025
  0
CIRCLE
  5
102
330
2
100
AcDbEntity
  8
0
100
AcDbCircle
 10
12.55919831233487
 20
6.478619534966594
 30
0.0
 40
0.2810000000000025
  0
CIRCLE
  5
103
330
2
100
AcDbEntity
  8
0
100
AcDbCircle
 10
14.80919831233487
 20
6.603619534966594
 30
0.0
 40
0.0855000000000025
  0
CIRCLE
  5
104
330
2
100
AcDbEntity
  8
0
100
AcDbCircle
 10
21.30919831233487
 20
5.103619534966594
 30
0.0
 40
0.0855000000000025
  0
LINE
  5
105
330
2
100
AcDbEntity
  8
0
100
AcDbLine
 10
23.80919831233487
 20
7.603619534966594
 30
0.0
 11
23.80919831233486
 21
3.97861953496659
 31
0.0
  0
LINE
  5
106
330
2
100
AcDbEntity
  8
0
100
AcDbLine
 10
20.37561354253366
 20
0.2315192865405642
 30
0.0
 11
20.4378757111644
 21
0.2369665204622926
 31
0.0
  0
CIRCLE
  5
107
330
2
100
AcDbEntity
  8
0
100
AcDbCircle
 10
22.05919831233487
 20
6.478619534966594
 30
0.0
 40
0.2810000000000025
  0
CIRCLE
  5
108
330
2
100
AcDbEntity
  8
0
100
AcDbCircle
 10
23.43419831233487
 20
6.603619534966594
 30
0.0
 40
0.0855000000000025
  0
CIRCLE
  5
118
330
2
100
AcDbEntity
  8
0
100
AcDbCircle
 10
19.80919831233487
 20
6.603619534966594
 30
0.0
 40
0.0855000000000025
  0
LINE
  5
119
330
2
100
AcDbEntity
  8
0
100
AcDbLine
 10
0.3480151158275717
 20
4.098172301044869
 30
0.0
 11
0.0424518298977574
 21
7.590776641026238
 31
0.0
  0
LINE
  5
11A
330
2
100
AcDbEntity
  8
0
100
AcDbLine
 10
4.193728756182985
 20
7.601671108869695
 30
0.0
 11
3.887709037271847
 21
4.098181047913865
 31
0.0
  0
LINE
  5
11B
330
2
100
AcDbEntity
  8
0
100
AcDbLine
 10
0.2857529471968405
 20
4.092725067123141
 30
0.0
 11
-0.0198103387329809
 21
7.58532940710451
 31
0.0
  0
LINE
  5
11C
330
2
100
AcDbEntity
  8
0
100
AcDbLine
 10
4.255991689446503
 20
7.596232621816963
 30
0.0
 11
3.949971970535358
 21
4.092742560861133
 31
0.0
  0
CIRCLE
  5
11D
330
2
100
AcDbEntity
  8
0
100
AcDbCircle
 10
2.117602461671105
 20
1.603619534966597
 30
0.0
 40
0.2810000000000025
  0
LINE
  5
11E
330
2
100
AcDbEntity
  8
0
100
AcDbLine
 10
0.4102772844583029
 20
4.041119534966597
 30
0.0
 11
3.825446104008321
 21
4.041119534966597
 31
0.0
  0
LINE
  5
11F
330
2
100
AcDbEntity
  8
0
100
AcDbLine
 10
0.8053524616711059
 20
0.2286195349666009
 30
0.0
 11
3.430352461671106
 21
0.2286195349665903
 31
0.0
  0
LINE
  5
120
330
2
100
AcDbEntity
  8
0
100
AcDbLine
 10
3.430352461671106
 20
3.541119534966597
 30
0.0
 11
3.430352461671106
 21
0.2286195349665903
 31
0.0
  0
CIRCLE
  5
121
330
2
100
AcDbEntity
  8
0
100
AcDbCircle
 10
3.117852461671106
 20
0.6036195349665974
 30
0.0
 40
0.0855000000000025
  0
CIRCLE
  5
122
330
2
100
AcDbEntity
  8
0
100
AcDbCircle
 10
3.117852461671106
 20
2.728619534966597
 30
0.0
 40
0.0855000000000025
  0
ARC
  5
123
330
2
100
AcDbEntity
  8
0
100
AcDbCircle
 10
3.825446104008321
 20
4.103619534966597
 30
0.0
 40
0.0625
100
AcDbArc
 50
270.0
 51
355.0080491189165
  0
ARC
  5
124
330
2
100
AcDbEntity
  8
0
100
AcDbCircle
 10
3.825446104008321
 20
4.103619534966597
 30
0.0
 40
0.125
100
AcDbArc
 50
270.0
 51
355.0080491189165
  0
LINE
  5
125
330
2
100
AcDbEntity
  8
0
100
AcDbLine
 10
3.825446104008321
 20
3.978619534966597
 30
0.0
 11
3.242852461671106
 21
3.978619534966597
 31
0.0
  0
LINE
  5
126
330
2
100
AcDbEntity
  8
0
100
AcDbLine
 10
3.430352461671106
 20
4.041119534966597
 30
0.0
 11
3.430352461671106
 21
3.978619534966597
 31
0.0
  0
ARC
  5
127
330
2
100
AcDbEntity
  8
0
100
AcDbCircle
 10
3.429852461671104
 20
3.728618868298749
 30
0.0
 40
0.1875000000000025
100
AcDbArc
 50
175.8147774803701
 51
270.3055789394201
  0
LINE
  5
128
330
2
100
AcDbEntity
  8
0
100
AcDbLine
 10
3.242852461671106
 20
4.041119534966597
 30
0.0
 11
3.242852461671106
 21
3.742302800482261
 31
0.0
  0
LINE
  5
129
330
2
100
AcDbEntity
  8
0
100
AcDbLine
 10
0.8053524616711059
 20
3.541119534966597
 30
0.0
 11
0.8053524616711059
 21
0.2286195349666009
 31
0.0
  0
CIRCLE
  5
12A
330
2
100
AcDbEntity
  8
0
100
AcDbCircle
 10
1.117852461671106
 20
0.6036195349665974
 30
0.0
 40
0.0855000000000025
  0
CIRCLE
  5
12B
330
2
100
AcDbEntity
  8
0
100
AcDbCircle
 10
1.117852461671106
 20
2.728619534966597
 30
0.0
 40
0.0855000000000025
  0
ARC
  5
12C
330
2
100
AcDbEntity
  8
0
100
AcDbCircle
 10
0.8058524616711082
 20
3.728618868298749
 30
0.0
 40
0.1875000000000025
100
AcDbArc
 50
269.6944210605799
 51
4.185222519629929
  0
LINE
  5
12D
330
2
100
AcDbEntity
  8
0
100
AcDbLine
 10
0.4102772844583029
 20
3.978619534966597
 30
0.0
 11
0.9928524616711059
 21
3.978619534966597
 31
0.0
  0
LINE
  5
12E
330
2
100
AcDbEntity
  8
0
100
AcDbLine
 10
0.9928524616711059
 20
4.041119534966597
 30
0.0
 11
0.9928524616711059
 21
3.742302800482261
 31
0.0
  0
ARC
  5
12F
330
2
100
AcDbEntity
  8
0
100
AcDbCircle
 10
0.4102772844583029
 20
4.103619534966597
 30
0.0
 40
0.0625
100
AcDbArc
 50
185.0000000000001
 51
270.0
  0
ARC
  5
130
330
2
100
AcDbEntity
  8
0
100
AcDbCircle
 10
0.4102772844583029
 20
4.103619534966597
 30
0.0
 40
0.125
100
AcDbArc
 50
185.0000000000001
 51
270.0
  0
LINE
  5
131
330
2
100
AcDbEntity
  8
0
100
AcDbLine
 10
0.8053524616711059
 20
4.041119534966597
 30
0.0
 11
0.8053524616711059
 21
3.978619534966597
 31
0.0
  0
LINE
  5
132
330
2
100
AcDbEntity
  8
0
100
AcDbLine
 10
4.255990925428108
 20
7.596223874894214
 30
0.0
 11
4.193728756182985
 21
7.601671108869695
 31
0.0
  0
LINE
  5
133
330
2
100
AcDbEntity
  8
0
100
AcDbLine
 10
0.0424518298977574
 20
7.590776641026238
 30
0.0
 11
-0.0198103387329809
 21
7.58532940710451
 31
0.0
  0
LINE
  5
141
330
2
100
AcDbEntity
  8
0
  6
HIDDEN
100
AcDbLine
 10
0.9928524616711059
 20
3.978619534966597
 30
0.0
 11
3.242852461671106
 21
3.978619534966597
 31
0.0
  0
LINE
  5
142
330
2
100
AcDbEntity
  8
0
  6
HIDDEN
100
AcDbLine
 10
10.80919831233487
 20
4.041119534966601
 30
0.0
 11
23.80919831233486
 21
4.04111953496659
 31
0.0
  0
LINE
  5
143
330
2
100
AcDbEntity
  8
0
  6
HIDDEN
100
AcDbLine
 10
31.37554416299864
 20
3.978619534966597
 30
0.0
 11
33.62554416299864
 21
3.978619534966597
 31
0.0
  0
LINE
  5
144
330
2
100
AcDbEntity
  8
0
  6
HIDDEN
100
AcDbLine
 10
14.77437647218368
 20
22.4050156407237
 30
0.0
 11
14.77437647218368
 21
20.15401564072372
 31
0.0
  0
LINE
  5
145
330
2
100
AcDbEntity
  8
0
  6
HIDDEN
100
AcDbLine
 10
20.27427647218365
 20
22.4050156407237
 30
0.0
 11
20.27427647218368
 21
20.15401564072373
 31
0.0
  0
ENDSEC
  0
SECTION
  2
OBJECTS
  0
DICTIONARY
  5
7
330
0
100
AcDbDictionary
281
     1
  3
ACAD_COLOR
350
A2
  3
ACAD_GROUP
350
1F
  3
ACAD_LAYOUT
350
B
  3
ACAD_MATERIAL
350
A1
  3
ACAD_MLINESTYLE
350
20
  3
ACAD_PLOTSETTINGS
350
21
  3
ACAD_PLOTSTYLENAME
350
6
  3
ACAD_TABLESTYLE
350
A3
  3
ACDBHEADERROUNDTRIPXREC
350
167
  3
AcDbVariableDictionary
350
9D
  0
DICTIONARY
  5
AA
330
2
100
AcDbDictionary
280
     1
281
     1
  3
ACAD_SORTENTS
360
AB
  0
DICTIONARY
  5
A2
102
{ACAD_REACTORS
330
7
102
}
330
7
100
AcDbDictionary
281
     1
  0
DICTIONARY
  5
1F
102
{ACAD_REACTORS
330
7
102
}
330
7
100
AcDbDictionary
281
     1
  0
DICTIONARY
  5
B
102
{ACAD_REACTORS
330
7
102
}
330
7
100
AcDbDictionary
281
     1
  3
Layout1
350
F
  3
Model
350
A
  0
DICTIONARY
  5
A1
102
{ACAD_REACTORS
330
7
102
}
330
7
100
AcDbDictionary
281
     1
  0
DICTIONARY
  5
20
102
{ACAD_REACTORS
330
7
102
}
330
7
100
AcDbDictionary
281
     1
  3
Standard
350
23
  0
DICTIONARY
  5
21
102
{ACAD_REACTORS
330
7
102
}
330
7
100
AcDbDictionary
281
     1
  0
ACDBDICTIONARYWDFLT
  5
6
102
{ACAD_REACTORS
330
7
102
}
330
7
100
AcDbDictionary
281
     1
  3
Normal
350
5
100
AcDbDictionaryWithDefault
340
5
  0
DICTIONARY
  5
A3
102
{ACAD_REACTORS
330
7
102
}
330
7
100
AcDbDictionary
281
     1
  3
Standard
350
A4
  0
DICTIONARY
  5
167
102
{ACAD_REACTORS
330
7
102
}
330
7
100
AcDbDictionary
281
     1
  3
COLORDICT
350
168
  3
MATERIALDICT
350
169
  0
DICTIONARY
  5
9D
102
{ACAD_REACTORS
330
7
102
}
330
7
100
AcDbDictionary
281
     1
  3
CTABLESTYLE
350
10F
  3
HIDETEXT
350
166
  0
SORTENTSTABLE
  5
AB
102
{ACAD_REACTORS
330
AA
102
}
330
AA
100
AcDbSortentsTable
330
2
331
E4
  5
D2
331
D1
  5
103
331
C2
  5
F4
331
F9
  5
B5
331
CF
  5
101
331
C7
  5
F9
331
DE
  5
CC
331
D8
  5
C6
331
FD
  5
B9
331
ED
  5
DB
331
C5
  5
F7
331
CC
  5
FE
331
E1
  5
CF
331
CB
  5
FD
331
E5
  5
D3
331
D7
  5
C5
331
D2
  5
104
331
FF
  5
BB
331
B9
  5
EB
331
C3
  5
F5
331
C6
  5
F8
331
EB
  5
D9
331
F2
  5
E0
331
E9
  5
D7
331
C9
  5
FB
331
105
  5
C1
331
FC
  5
B8
331
F8
  5
B4
331
C1
  5
F3
331
BF
  5
F1
331
E0
  5
CE
331
F6
  5
B2
331
108
  5
C4
331
AF
  5
E1
331
C4
  5
F6
331
C0
  5
F2
331
F4
  5
B0
331
F7
  5
B3
331
DF
  5
CD
331
DA
  5
C8
331
BA
  5
EC
331
E7
  5
D5
331
EC
  5
DA
331
D0
  5
102
331
CA
  5
FC
331
103
  5
BF
331
D5
  5
107
331
E3
  5
D1
331
BD
  5
EF
331
F1
  5
DF
331
B1
  5
E3
331
EA
  5
D8
331
B5
  5
E7
331
E2
  5
D0
331
CD
  5
FF
331
DB
  5
C9
331
F3
  5
AF
331
100
  5
BC
331
CE
  5
100
331
BC
  5
EE
331
106
  5
C2
331
101
  5
BD
331
D3
  5
105
331
B2
  5
E4
331
BE
  5
F0
331
EE
  5
DC
331
102
  5
BE
331
B0
  5
E2
331
107
  5
C3
331
EF
  5
DD
331
F0
  5
DE
331
D9
  5
C7
331
FE
  5
BA
331
DD
  5
CB
331
B8
  5
EA
331
D6
  5
108
331
D4
  5
106
331
E8
  5
D6
331
104
  5
C0
331
E6
  5
D4
331
BB
  5
ED
331
B7
  5
E9
331
FA
  5
B6
331
FB
  5
B7
  0
LAYOUT
  5
F
102
{ACAD_REACTORS
330
B
102
}
102
{ACAD_XDICTIONARY
360
16A
102
}
330
B
100
AcDbPlotSettings
  1

  2
C:\ACAD2000\plotters\HP LaserJet 2100 Series PS.pc3
  4

  6

 40
0.0
 41
0.0
 42
0.0
 43
0.0
 44
0.0
 45
0.0
 46
0.0
 47
0.0
 48
0.0
 49
0.0
140
0.0
141
0.0
142
1.0
143
1.0
 70
   688
 72
     0
 73
     0
 74
     5
  7

 75
    16
147
1.0
148
0.0
149
0.0
100
AcDbLayout
  1
Layout1
 70
     0
 71
     1
 10
0.0
 20
0.0
 11
12.0
 21
9.0
 12
0.0
 22
0.0
 32
0.0
 14
1.000000000000000E+20
 24
1.000000000000000E+20
 34
1.000000000000000E+20
 15
-1.000000000000000E+20
 25
-1.000000000000000E+20
 35
-1.000000000000000E+20
146
0.0
 13
0.0
 23
0.0
 33
0.0
 16
1.0
 26
0.0
 36
0.0
 17
0.0
 27
1.0
 37
0.0
 76
     0
330
C
  0
LAYOUT
  5
A
102
{ACAD_REACTORS
330
B
102
}
102
{ACAD_XDICTIONARY
360
16C
102
}
330
B
100
AcDbPlotSettings
  1

  2
HP LaserJet 2100 Series PS
  4
Letter
  6

 40
5.365749835968018
 41
5.408073902130127
 42
5.132904052734375
 43
5.090576171875
 44
215.8999938964844
 45
279.3999938964844
 46
0.0
 47
0.0
 48
0.0
 49
0.0
140
0.0
141
0.0
142
1.0
143
1.0
 70
 11952
 72
     0
 73
     1
 74
     0
  7

 75
     0
147
1.0
148
-61.62826498066534
149
11.35177639356848
100
AcDbLayout
  1
Model
 70
     1
 71
     0
 10
0.0
 20
0.0
 11
12.0
 21
9.0
 12
0.0
 22
0.0
 32
0.0
 14
0.0
 24
0.0
 34
0.0
 15
0.0
 25
0.0
 35
0.0
146
0.0
 13
0.0
 23
0.0
 33
0.0
 16
1.0
 26
0.0
 36
0.0
 17
0.0
 27
1.0
 37
0.0
 76
     0
330
2
  0
MLINESTYLE
  5
23
102
{ACAD_REACTORS
330
20
102
}
330
20
100
AcDbMlineStyle
  2
STANDARD
 70
     0
  3

 62
   256
 51
90.0
 52
90.0
 71
     2
 49
0.5
 62
   256
  6
BYLAYER
 49
-0.5
 62
   256
  6
BYLAYER
  0
ACDBPLACEHOLDER
  5
5
102
{ACAD_REACTORS
330
6
102
}
330
6
  0
ACAD_PROXY_OBJECT
  5
A4
102
{ACAD_REACTORS
330
A3
102
}
330
A3
100
AcDbProxyObject
 90
      499
 91
      504
 95
   983063
 70
     0
 93
     1841
310
4214DD185B99185C9928B81E85EB51B8AE3F2E07A17AD46E2B8FC02B5E8DC0F42B1CFD028000000C1008070000C3001FDFF8000000C1003FBFF000000182007F7FE00000030400FEFFC00000060801FDFF8000000C1003FBFF00000018200000000000000681FA0B0000001820100E000186003FBFF000000182007F7FE000
310
00030400FEFFC00000060801FDFF8000000C1003FBFF000000182007F7FE000000304000AD7A3703D0AC73F4160000003040201C00030C007F7FE00000030400FEFFC00000060801FDFF8000000C1003FBFF000000182007F7FE00000030400FEFFC000000608000
340
12
340
12
340
12
 94
        0
  0
XRECORD
  5
168
102
{ACAD_REACTORS
330
167
102
}
330
167
100
AcDbXrecord
340
A2
  0
XRECORD
  5
169
102
{ACAD_REACTORS
330
167
102
}
330
167
100
AcDbXrecord
340
A1
  0
DICTIONARYVAR
  5
10F
102
{ACAD_REACTORS
330
9D
102
}
330
9D
100
DictionaryVariables
280
     0
  1
STANDARD
  0
DICTIONARYVAR
  5
166
102
{ACAD_REACTORS
330
9D
102
}
330
9D
100
DictionaryVariables
280
     0
  1
0
  0
DICTIONARY
  5
16A
330
F
100
AcDbDictionary
280
     1
281
     1
  3
ACAD_XREC_ROUNDTRIP
360
16B
  0
DICTIONARY
  5
16C
330
A
100
AcDbDictionary
280
     1
281
     1
  3
ACAD_XREC_ROUNDTRIP
360
16D
  0
XRECORD
  5
16B
102
{ACAD_REACTORS
330
16A
102
}
330
16A
100
AcDbXrecord
102
SHADEPLOT
 70
     0
102
SHADEPLOTRESLEVEL
 70
     2
102
SHADEPLOTCUSTOMDPI
 70
   300
  0
XRECORD
  5
16D
102
{ACAD_REACTORS
330
16C
102
}
330
16C
100
AcDbXrecord
102
SHADEPLOT
 70
     0
102
SHADEPLOTRESLEVEL
 70
     2
102
SHADEPLOTCUSTOMDPI
 70
   300
  0
ENDSEC
  0
EOF
