  0
SECTION
  2
HEADER
  9
$ACADVER
  1
AC1015
  9
$ACADMAINTVER
 70
     6
  9
$DWGCODEPAGE
  3
ANSI_1252
  9
$INSBASE
 10
0.0
 20
0.0
 30
0.0
  9
$EXTMIN
 10
-15.19592277612077
 20
-3.751716482804284
 30
-0.0015258207003583
  9
$EXTMAX
 10
28.19396980595101
 20
22.31077203796127
 30
0.0000000349246037
  9
$LIMMIN
 10
0.0
 20
0.0
  9
$LIMMAX
 10
40.00000000000039
 20
52.50000000000051
  9
$ORTHOMODE
 70
     1
  9
$REGENMODE
 70
     1
  9
$FILLMODE
 70
     1
  9
$QTEXTMODE
 70
     0
  9
$MIRRTEXT
 70
     0
  9
$LTSCALE
 40
1.5
  9
$ATTMODE
 70
     1
  9
$TEXTSIZE
 40
0.450000000000004
  9
$TRACEWID
 40
0.05
  9
$TEXTSTYLE
  7
STANDARD
  9
$CLAYER
  8
0
  9
$CELTYPE
  6
ByLayer
  9
$CECOLOR
 62
   256
  9
$CELTSCALE
 40
1.0
  9
$DISPSILH
 70
     0
  9
$DIMSCALE
 40
1.0
  9
$DIMASZ
 40
0.625000000000004
  9
$DIMEXO
 40
0.1
  9
$DIMDLI
 40
0.375
  9
$DIMRND
 40
0.0
  9
$DIMDLE
 40
0.0
  9
$DIMEXE
 40
0.400000000000004
  9
$DIMTP
 40
0.0
  9
$DIMTM
 40
0.0
  9
$DIMTXT
 40
0.450000000000004
  9
$DIMCEN
 40
-0.06
  9
$DIMTSZ
 40
0.0
  9
$DIMTOL
 70
     0
  9
$DIMLIM
 70
     0
  9
$DIMTIH
 70
     1
  9
$DIMTOH
 70
     1
  9
$DIMSE1
 70
     0
  9
$DIMSE2
 70
     0
  9
$DIMTAD
 70
     0
  9
$DIMZIN
 70
     0
  9
$DIMBLK
  1

  9
$DIMASO
 70
     0
  9
$DIMSHO
 70
     0
  9
$DIMPOST
  1

  9
$DIMAPOST
  1

  9
$DIMALT
 70
     0
  9
$DIMALTD
 70
     2
  9
$DIMALTF
 40
25.4
  9
$DIMLFAC
 40
1.0
  9
$DIMTOFL
 70
     0
  9
$DIMTVP
 40
0.0
  9
$DIMTIX
 70
     0
  9
$DIMSOXD
 70
     0
  9
$DIMSAH
 70
     0
  9
$DIMBLK1
  1

  9
$DIMBLK2
  1

  9
$DIMSTYLE
  2
Standard
  9
$DIMCLRD
 70
     0
  9
$DIMCLRE
 70
     0
  9
$DIMCLRT
 70
     0
  9
$DIMTFAC
 40
1.0
  9
$DIMGAP
 40
0.09
  9
$DIMJUST
 70
     0
  9
$DIMSD1
 70
     0
  9
$DIMSD2
 70
     0
  9
$DIMTOLJ
 70
     1
  9
$DIMTZIN
 70
     0
  9
$DIMALTZ
 70
     0
  9
$DIMALTTZ
 70
     0
  9
$DIMUPT
 70
     0
  9
$DIMDEC
 70
     3
  9
$DIMTDEC
 70
     3
  9
$DIMALTU
 70
     2
  9
$DIMALTTD
 70
     2
  9
$DIMTXSTY
  7
STANDARD
  9
$DIMAUNIT
 70
     0
  9
$DIMADEC
 70
     0
  9
$DIMALTRND
 40
0.0
  9
$DIMAZIN
 70
     0
  9
$DIMDSEP
 70
    46
  9
$DIMATFIT
 70
     3
  9
$DIMFRAC
 70
     0
  9
$DIMLDRBLK
  1

  9
$DIMLUNIT
 70
     2
  9
$DIMLWD
 70
    -2
  9
$DIMLWE
 70
    -2
  9
$DIMTMOVE
 70
     2
  9
$LUNITS
 70
     2
  9
$LUPREC
 70
     3
  9
$SKETCHINC
 40
0.1
  9
$FILLETRAD
 40
0.125
  9
$AUNITS
 70
     0
  9
$AUPREC
 70
     0
  9
$MENU
  1
acad
  9
$ELEVATION
 40
0.0
  9
$PELEVATION
 40
0.0
  9
$THICKNESS
 40
0.0
  9
$LIMCHECK
 70
     0
  9
$CHAMFERA
 40
0.0
  9
$CHAMFERB
 40
0.0
  9
$CHAMFERC
 40
0.0
  9
$CHAMFERD
 40
0.0
  9
$SKPOLY
 70
     0
  9
$TDCREATE
 40
2449185.929627315
  9
$TDUCREATE
 40
2449186.262960648
  9
$TDUPDATE
 40
2454163.005979248
  9
$TDUUPDATE
 40
2454163.339312581
  9
$TDINDWG
 40
0.0852454861
  9
$TDUSRTIMER
 40
0.0852454861
  9
$USRTIMER
 70
     1
  9
$ANGBASE
 50
0.0
  9
$ANGDIR
 70
     0
  9
$PDMODE
 70
     0
  9
$PDSIZE
 40
0.0
  9
$PLINEWID
 40
0.0
  9
$SPLFRAME
 70
     0
  9
$SPLINETYPE
 70
     6
  9
$SPLINESEGS
 70
     8
  9
$HANDSEED
  5
16C
  9
$SURFTAB1
 70
     6
  9
$SURFTAB2
 70
     6
  9
$SURFTYPE
 70
     6
  9
$SURFU
 70
     6
  9
$SURFV
 70
     6
  9
$UCSBASE
  2

  9
$UCSNAME
  2

  9
$UCSORG
 10
0.0
 20
0.0
 30
0.0
  9
$UCSXDIR
 10
1.0
 20
0.0
 30
0.0
  9
$UCSYDIR
 10
0.0
 20
1.0
 30
0.0
  9
$UCSORTHOREF
  2

  9
$UCSORTHOVIEW
 70
     0
  9
$UCSORGTOP
 10
0.0
 20
0.0
 30
0.0
  9
$UCSORGBOTTOM
 10
0.0
 20
0.0
 30
0.0
  9
$UCSORGLEFT
 10
0.0
 20
0.0
 30
0.0
  9
$UCSORGRIGHT
 10
0.0
 20
0.0
 30
0.0
  9
$UCSORGFRONT
 10
0.0
 20
0.0
 30
0.0
  9
$UCSORGBACK
 10
0.0
 20
0.0
 30
0.0
  9
$PUCSBASE
  2

  9
$PUCSNAME
  2

  9
$PUCSORG
 10
0.0
 20
0.0
 30
0.0
  9
$PUCSXDIR
 10
1.0
 20
0.0
 30
0.0
  9
$PUCSYDIR
 10
0.0
 20
1.0
 30
0.0
  9
$PUCSORTHOREF
  2

  9
$PUCSORTHOVIEW
 70
     0
  9
$PUCSORGTOP
 10
0.0
 20
0.0
 30
0.0
  9
$PUCSORGBOTTOM
 10
0.0
 20
0.0
 30
0.0
  9
$PUCSORGLEFT
 10
0.0
 20
0.0
 30
0.0
  9
$PUCSORGRIGHT
 10
0.0
 20
0.0
 30
0.0
  9
$PUCSORGFRONT
 10
0.0
 20
0.0
 30
0.0
  9
$PUCSORGBACK
 10
0.0
 20
0.0
 30
0.0
  9
$USERI1
 70
     0
  9
$USERI2
 70
     0
  9
$USERI3
 70
     0
  9
$USERI4
 70
     0
  9
$USERI5
 70
     0
  9
$USERR1
 40
0.0
  9
$USERR2
 40
0.0
  9
$USERR3
 40
0.0
  9
$USERR4
 40
0.0
  9
$USERR5
 40
0.0
  9
$WORLDVIEW
 70
     1
  9
$SHADEDGE
 70
     3
  9
$SHADEDIF
 70
    70
  9
$TILEMODE
 70
     1
  9
$MAXACTVP
 70
    16
  9
$PINSBASE
 10
0.0
 20
0.0
 30
0.0
  9
$PLIMCHECK
 70
     0
  9
$PEXTMIN
 10
1.000000000000000E+20
 20
1.000000000000000E+20
 30
1.000000000000000E+20
  9
$PEXTMAX
 10
-1.000000000000000E+20
 20
-1.000000000000000E+20
 30
-1.000000000000000E+20
  9
$PLIMMIN
 10
0.0
 20
0.0
  9
$PLIMMAX
 10
12.0
 20
9.0
  9
$UNITMODE
 70
     0
  9
$VISRETAIN
 70
     0
  9
$PLINEGEN
 70
     0
  9
$PSLTSCALE
 70
     0
  9
$TREEDEPTH
 70
  3020
  9
$CMLSTYLE
  2
Standard
  9
$CMLJUST
 70
     0
  9
$CMLSCALE
 40
1.0
  9
$PROXYGRAPHICS
 70
     1
  9
$MEASUREMENT
 70
     0
  9
$CELWEIGHT
370
    -1
  9
$ENDCAPS
280
     0
  9
$JOINSTYLE
280
     0
  9
$LWDISPLAY
290
     0
  9
$INSUNITS
 70
     0
  9
$HYPERLINKBASE
  1

  9
$STYLESHEET
  1

  9
$XEDIT
290
     1
  9
$CEPSNTYPE
380
     0
  9
$PSTYLEMODE
290
     1
  9
$FINGERPRINTGUID
  2
{C6CAA7F8-BA91-4D30-A871-86CD73075BAC}
  9
$VERSIONGUID
  2
{E0416D9D-1778-4869-A895-5897DCE7228F}
  9
$EXTNAMES
290
     1
  9
$PSVPSCALE
 40
0.0
  9
$OLESTARTUP
290
     0
  0
ENDSEC
  0
SECTION
  2
CLASSES
  0
CLASS
  1
ACDBDICTIONARYWDFLT
  2
AcDbDictionaryWithDefault
  3
AutoCAD 2000
 90
        0
280
     0
281
     0
  0
CLASS
  1
ACDBPLACEHOLDER
  2
AcDbPlaceHolder
  3
ObjectDBX Classes
 90
        0
280
     0
281
     0
  0
CLASS
  1
LAYOUT
  2
AcDbLayout
  3
ObjectDBX Classes
 90
        0
280
     0
281
     0
  0
CLASS
  1
DICTIONARYVAR
  2
AcDbDictionaryVar
  3
AutoCAD 2000
 90
        0
280
     0
281
     0
  0
CLASS
  1
TABLESTYLE
  2
AcDbTableStyle
  3
ObjectDBX Classes
 90
     2047
280
     1
281
     0
  0
CLASS
  1
SORTENTSTABLE
  2
AcDbSortentsTable
  3
AutoCAD 2000
 90
        0
280
     0
281
     0
  0
ENDSEC
  0
SECTION
  2
TABLES
  0
TABLE
  2
VPORT
  5
19
330
0
100
AcDbSymbolTable
 70
     2
  0
VPORT
  5
15F
330
19
100
AcDbSymbolTableRecord
100
AcDbViewportTableRecord
  2
*Active
 70
     0
 10
0.0
 20
0.0
 11
1.0
 21
1.0
 12
12.40203861193982
 22
24.37414175859811
 13
0.0
 23
0.0
 14
0.0625
 24
0.0625
 15
0.25
 25
0.25
 16
0.0
 26
0.0
 36
1.0
 17
0.0
 27
0.0
 37
0.0
 40
56.95340109589591
 41
1.814583333333333
 42
50.0
 43
0.0
 44
0.0
 50
0.0
 51
0.0
 71
     0
 72
   100
 73
     1
 74
     0
 75
     0
 76
     0
 77
     0
 78
     0
281
     0
 65
     1
110
0.0
120
0.0
130
0.0
111
1.0
121
0.0
131
0.0
112
0.0
122
1.0
132
0.0
 79
     0
146
0.0
  0
ENDTAB
  0
TABLE
  2
LTYPE
  5
14
330
0
100
AcDbSymbolTable
 70
     2
  0
LTYPE
  5
15
330
14
100
AcDbSymbolTableRecord
100
AcDbLinetypeTableRecord
  2
ByBlock
 70
     0
  3

 72
    65
 73
     0
 40
0.0
  0
LTYPE
  5
16
330
14
100
AcDbSymbolTableRecord
100
AcDbLinetypeTableRecord
  2
ByLayer
 70
     0
  3

 72
    65
 73
     0
 40
0.0
  0
LTYPE
  5
8
330
14
100
AcDbSymbolTableRecord
100
AcDbLinetypeTableRecord
  2
CONTINUOUS
 70
     0
  3
Solid line
 72
    65
 73
     0
 40
0.0
  0
LTYPE
  5
13D
330
14
100
AcDbSymbolTableRecord
100
AcDbLinetypeTableRecord
  2
HIDDEN
 70
     0
  3
Hidden __ __ __ __ __ __ __ __ __ __ __ __ __ _
 72
    65
 73
     2
 40
0.375
 49
0.25
 74
     0
 49
-0.125
 74
     0
  0
ENDTAB
  0
TABLE
  2
LAYER
  5
10
330
0
100
AcDbSymbolTable
 70
     1
  0
LAYER
  5
4
330
10
100
AcDbSymbolTableRecord
100
AcDbLayerTableRecord
  2
0
 70
     0
 62
     7
  6
CONTINUOUS
370
    -3
390
5
  0
ENDTAB
  0
TABLE
  2
STYLE
  5
11
330
0
100
AcDbSymbolTable
 70
     2
  0
STYLE
  5
12
330
11
100
AcDbSymbolTableRecord
100
AcDbTextStyleTableRecord
  2
STANDARD
 70
     0
 40
0.0
 41
1.0
 50
0.0
 71
     0
 42
0.450000000000004
  3
TXT
  4

  0
STYLE
  5
13C
330
11
100
AcDbSymbolTableRecord
100
AcDbTextStyleTableRecord
  2

 70
     1
 40
0.0
 41
1.0
 50
0.0
 71
     0
 42
0.450000000000004
  3
ltypeshp.shx
  4

  0
ENDTAB
  0
TABLE
  2
VIEW
  5
17
330
0
100
AcDbSymbolTable
 70
     0
  0
ENDTAB
  0
TABLE
  2
UCS
  5
18
330
0
100
AcDbSymbolTable
 70
     0
  0
ENDTAB
  0
TABLE
  2
APPID
  5
1B
330
0
100
AcDbSymbolTable
 70
     1
  0
APPID
  5
1C
330
1B
100
AcDbSymbolTableRecord
100
AcDbRegAppTableRecord
  2
ACAD
 70
     0
  0
ENDTAB
  0
TABLE
  2
DIMSTYLE
  5
1D
330
0
100
AcDbSymbolTable
 70
     1
100
AcDbDimStyleTable
  0
DIMSTYLE
105
24
330
1D
100
AcDbSymbolTableRecord
100
AcDbDimStyleTableRecord
  2
Standard
 70
     0
  3

  4

340
12
  0
ENDTAB
  0
TABLE
  2
BLOCK_RECORD
  5
1
330
0
100
AcDbSymbolTable
 70
     0
  0
BLOCK_RECORD
  5
2
102
{ACAD_XDICTIONARY
360
BB
102
}
330
1
100
AcDbSymbolTableRecord
100
AcDbBlockTableRecord
  2
*Model_Space
340
A
  0
BLOCK_RECORD
  5
C
330
1
100
AcDbSymbolTableRecord
100
AcDbBlockTableRecord
  2
*Paper_Space
340
F
  0
ENDTAB
  0
ENDSEC
  0
SECTION
  2
BLOCKS
  0
BLOCK
  5
3
330
2
100
AcDbEntity
  8
0
100
AcDbBlockBegin
  2
*Model_Space
 70
     0
 10
0.0
 20
0.0
 30
0.0
  3
*Model_Space
  1

  4

  0
ENDBLK
  5
9
330
2
100
AcDbEntity
  8
0
100
AcDbBlockEnd
  0
BLOCK
  5
D
330
C
100
AcDbEntity
 67
     1
  8
0
100
AcDbBlockBegin
  2
*Paper_Space
 70
     0
 10
0.0
 20
0.0
 30
0.0
  3
*Paper_Space
  1

  4

  0
ENDBLK
  5
E
330
C
100
AcDbEntity
 67
     1
  8
0
100
AcDbBlockEnd
  0
ENDSEC
  0
SECTION
  2
ENTITIES
  0
LINE
  5
C1
330
2
100
AcDbEntity
  8
0
100
AcDbLine
 10
0.0
 20
3.625
 30
0.0
 11
13.0
 21
3.624999999999996
 31
0.0
  0
LINE
  5
C6
330
2
100
AcDbEntity
  8
0
100
AcDbLine
 10
1.850000000000001
 20
0.0
 30
0.0
 11
2.150000000000006
 21
0.0
 31
0.0
  0
CIRCLE
  5
C7
330
2
100
AcDbEntity
  8
0
100
AcDbCircle
 10
1.75
 20
2.499999999999996
 30
0.0
 40
0.2810000000000025
  0
ARC
  5
C8
330
2
100
AcDbEntity
  8
0
100
AcDbCircle
 10
3.875
 20
-0.1250000000000036
 30
0.0
 40
0.125
100
AcDbArc
 50
89.99999999999999
 51
180.0
  0
LINE
  5
C9
330
2
100
AcDbEntity
  8
0
100
AcDbLine
 10
3.625475662738534
 20
-0.1141055321565432
 30
0.0
 11
3.309536095278272
 21
-3.725311312739116
 31
0.0
  0
LINE
  5
CA
330
2
100
AcDbEntity
  8
0
100
AcDbLine
 10
3.434060432539742
 20
-3.736205780582573
 30
0.0
 11
3.75
 21
-0.125
 31
0.0
  0
LINE
  5
CB
330
2
100
AcDbEntity
  8
0
100
AcDbLine
 10
3.309536095278272
 20
-3.725311312739116
 30
0.0
 11
3.434060432539742
 21
-3.736205780582573
 31
0.0
  0
ARC
  5
CC
330
2
100
AcDbEntity
  8
0
100
AcDbCircle
 10
3.875
 20
-0.1250000000000036
 30
0.0
 40
0.25
100
AcDbArc
 50
150.0
 51
180.0
  0
CIRCLE
  5
CD
330
2
100
AcDbEntity
  8
0
100
AcDbCircle
 10
2.5
 20
1.124999999999996
 30
0.0
 40
0.0855000000000025
  0
LINE
  5
CE
330
2
100
AcDbEntity
  8
0
100
AcDbLine
 10
9.690939567460262
 20
-3.736205780582576
 30
0.0
 11
9.375
 21
-0.125
 31
0.0
  0
LINE
  5
CF
330
2
100
AcDbEntity
  8
0
100
AcDbLine
 10
9.250475662738531
 20
-0.1358944678434568
 30
0.0
 11
9.566415230198793
 21
-3.747100248426033
 31
0.0
  0
LINE
  5
D0
330
2
100
AcDbEntity
  8
0
100
AcDbLine
 10
9.566415230198793
 20
-3.747100248426033
 30
0.0
 11
9.690939567460262
 21
-3.736205780582576
 31
0.0
  0
ARC
  5
D1
330
2
100
AcDbEntity
  8
0
100
AcDbCircle
 10
9.125
 20
-0.1250000000000036
 30
0.0
 40
0.25
100
AcDbArc
 50
0.0
 51
31.91065168996291
  0
LINE
  5
D2
330
2
100
AcDbEntity
  8
0
100
AcDbLine
 10
9.25
 20
-0.0625
 30
0.0
 11
9.25
 21
0.0
 31
0.0
  0
ARC
  5
D3
330
2
100
AcDbEntity
  8
0
100
AcDbCircle
 10
9.125
 20
-0.1250000000000036
 30
0.0
 40
0.125
100
AcDbArc
 50
0.0
 51
89.99999999999993
  0
CIRCLE
  5
D4
330
2
100
AcDbEntity
  8
0
100
AcDbCircle
 10
9.0
 20
2.624999999999996
 30
0.0
 40
0.0855000000000025
  0
CIRCLE
  5
D5
330
2
100
AcDbEntity
  8
0
100
AcDbCircle
 10
10.5
 20
1.124999999999996
 30
0.0
 40
0.0855000000000025
  0
CIRCLE
  5
D6
330
2
100
AcDbEntity
  8
0
100
AcDbCircle
 10
11.25
 20
2.499999999999996
 30
0.0
 40
0.2810000000000025
  0
LINE
  5
D7
330
2
100
AcDbEntity
  8
0
100
AcDbLine
 10
13.0
 20
3.624999999999996
 30
0.0
 11
12.99999999999999
 21
-0.0000000000000071
 31
0.0
  0
CIRCLE
  5
D8
330
2
100
AcDbEntity
  8
0
100
AcDbCircle
 10
12.625
 20
2.624999999999996
 30
0.0
 40
0.0855000000000025
  0
LINE
  5
DA
330
2
100
AcDbEntity
  8
0
100
AcDbLine
 10
0.0
 20
0.0
 30
0.0
 11
12.99999999999999
 21
-0.0000000000000055
 31
0.0
  0
LINE
  5
DB
330
2
100
AcDbEntity
  8
0
100
AcDbLine
 10
0.0
 20
3.625
 30
0.0
 11
0.0
 21
0.0
 31
0.0
  0
CIRCLE
  5
DC
330
2
100
AcDbEntity
  8
0
100
AcDbCircle
 10
0.375
 20
2.624999999999996
 30
0.0
 40
0.0855000000000025
  0
LINE
  5
DD
330
2
100
AcDbEntity
  8
0
100
AcDbLine
 10
22.46225817711508
 20
0.125
 30
0.0
 11
27.64975817711508
 21
0.125
 31
0.0
  0
LINE
  5
DF
330
2
100
AcDbEntity
  8
0
100
AcDbLine
 10
22.77475817711508
 20
-3.75
 30
0.0
 11
27.33725817711508
 21
-3.75
 31
0.0
  0
ARC
  5
E0
330
2
100
AcDbEntity
  8
0
100
AcDbCircle
 10
22.46225817711508
 20
0.25
 30
0.0
 40
0.125
100
AcDbArc
 50
180.0
 51
269.9999999999999
  0
ARC
  5
E1
330
2
100
AcDbEntity
  8
0
100
AcDbCircle
 10
22.46225817711508
 20
0.25
 30
0.0
 40
0.25
100
AcDbArc
 50
180.0
 51
269.9999999999999
  0
LINE
  5
E2
330
2
100
AcDbEntity
  8
0
100
AcDbLine
 10
22.46225817711508
 20
0.0
 30
0.0
 11
22.96275817711492
 21
0.0
 31
0.0
  0
LINE
  5
E3
330
2
100
AcDbEntity
  8
0
100
AcDbLine
 10
22.77475817711508
 20
-0.4374979999822202
 30
0.0
 11
22.77475817711508
 21
-3.75
 31
0.0
  0
CIRCLE
  5
E4
330
2
100
AcDbEntity
  8
0
100
AcDbCircle
 10
23.08725817711508
 20
-3.375
 30
0.0
 40
0.0855000000000025
  0
CIRCLE
  5
E5
330
2
100
AcDbEntity
  8
0
100
AcDbCircle
 10
23.08725817711508
 20
-1.25
 30
0.0
 40
0.0855000000000025
  0
LINE
  5
E6
330
2
100
AcDbEntity
  8
0
100
AcDbLine
 10
22.77475817711508
 20
0.125
 30
0.0
 11
22.77475817711508
 21
0.0
 31
0.0
  0
ARC
  5
E7
330
2
100
AcDbEntity
  8
0
100
AcDbCircle
 10
22.77575817711492
 20
-0.250000666667848
 30
0.0
 40
0.1875000000000025
100
AcDbArc
 50
269.6944210605799
 51
4.185222519629921
  0
LINE
  5
E8
330
2
100
AcDbEntity
  8
0
100
AcDbLine
 10
22.96275817711492
 20
0.125
 30
0.0
 11
22.96275817711492
 21
-0.2363167344843369
 31
0.0
  0
LINE
  5
E9
330
2
100
AcDbEntity
  8
0
100
AcDbLine
 10
22.0426318826032
 20
3.623051573903098
 30
0.0
 11
22.33725817711508
 21
0.25
 31
0.0
  0
LINE
  5
EA
330
2
100
AcDbEntity
  8
0
100
AcDbLine
 10
22.21225817711508
 20
0.25
 30
0.0
 11
21.91810754534173
 21
3.612157106059641
 31
0.0
  0
LINE
  5
EB
330
2
100
AcDbEntity
  8
0
100
AcDbLine
 10
21.91810754534173
 20
3.612157106059641
 30
0.0
 11
22.0426318826032
 21
3.623051573903098
 31
0.0
  0
ARC
  5
EC
330
2
100
AcDbEntity
  8
0
100
AcDbCircle
 10
27.33625817711523
 20
-0.250000666667848
 30
0.0
 40
0.1875000000000025
100
AcDbArc
 50
175.8147774803701
 51
270.3055789394201
  0
LINE
  5
ED
330
2
100
AcDbEntity
  8
0
100
AcDbLine
 10
27.64975817711508
 20
0.0
 30
0.0
 11
27.14925817711523
 21
0.0
 31
0.0
  0
CIRCLE
  5
EE
330
2
100
AcDbEntity
  8
0
100
AcDbCircle
 10
25.05625817711508
 20
-2.375
 30
0.0
 40
0.2810000000000025
  0
CIRCLE
  5
EF
330
2
100
AcDbEntity
  8
0
100
AcDbCircle
 10
27.02475817711508
 20
-3.375
 30
0.0
 40
0.0855000000000025
  0
CIRCLE
  5
F0
330
2
100
AcDbEntity
  8
0
100
AcDbCircle
 10
27.02475817711508
 20
-1.25
 30
0.0
 40
0.0855000000000025
  0
LINE
  5
F1
330
2
100
AcDbEntity
  8
0
100
AcDbLine
 10
27.14925817711523
 20
0.125
 30
0.0
 11
27.14925817711523
 21
-0.2363167344843369
 31
0.0
  0
ARC
  5
F2
330
2
100
AcDbEntity
  8
0
100
AcDbCircle
 10
27.64975817711508
 20
0.25
 30
0.0
 40
0.125
100
AcDbArc
 50
270.0
 51
0.0
  0
ARC
  5
F3
330
2
100
AcDbEntity
  8
0
100
AcDbCircle
 10
27.64975817711508
 20
0.25
 30
0.0
 40
0.25
100
AcDbArc
 50
270.0
 51
0.0
  0
LINE
  5
F4
330
2
100
AcDbEntity
  8
0
100
AcDbLine
 10
27.33725817711508
 20
-0.4374979999822202
 30
0.0
 11
27.33725817711508
 21
-3.75
 31
0.0
  0
LINE
  5
F5
330
2
100
AcDbEntity
  8
0
100
AcDbLine
 10
27.33725817711508
 20
0.125
 30
0.0
 11
27.33725817711508
 21
0.0
 31
0.0
  0
LINE
  5
F6
330
2
100
AcDbEntity
  8
0
100
AcDbLine
 10
28.19343314614989
 20
3.601262638216184
 30
0.0
 11
27.89928251437654
 21
0.2391055321565432
 31
0.0
  0
LINE
  5
F7
330
2
100
AcDbEntity
  8
0
100
AcDbLine
 10
27.77475817711508
 20
0.25
 30
0.0
 11
28.06890880888842
 21
3.612157106059641
 31
0.0
  0
LINE
  5
F8
330
2
100
AcDbEntity
  8
0
100
AcDbLine
 10
28.06890880888842
 20
3.612157106059641
 30
0.0
 11
28.19343314614989
 21
3.601262638216184
 31
0.0
  0
LINE
  5
F9
330
2
100
AcDbEntity
  8
0
100
AcDbLine
 10
13.0313
 20
17.0055
 30
0.0
 11
0.0311999999999983
 21
17.0055
 31
0.0
  0
LINE
  5
FA
330
2
100
AcDbEntity
  8
0
100
AcDbLine
 10
13.0313
 20
22.307
 30
0.0
 11
0.0312000000000019
 21
22.307
 31
0.0
  0
LINE
  5
FB
330
2
100
AcDbEntity
  8
0
100
AcDbLine
 10
13.0313
 20
21.93749999999999
 30
0.0
 11
9.718747999982224
 21
21.93749999999999
 31
0.0
  0
LINE
  5
FC
330
2
100
AcDbEntity
  8
0
100
AcDbLine
 10
9.718747999982224
 20
17.375
 30
0.0
 11
13.0313
 21
17.375
 31
0.0
  0
LINE
  5
FF
330
2
100
AcDbEntity
  8
0
100
AcDbLine
 10
3.724250000000009
 20
21.93800000000042
 30
0.0
 11
3.724250000000005
 21
17.3745
 31
0.0
  0
LINE
  5
100
330
2
100
AcDbEntity
  8
0
100
AcDbLine
 10
9.338250000000006
 20
21.93800000000042
 30
0.0
 11
9.338250000000006
 21
17.37450000000001
 31
0.0
  0
LINE
  5
101
330
2
100
AcDbEntity
  8
0
100
AcDbLine
 10
3.343752000017783
 20
17.375
 30
0.0
 11
0.0311999999999983
 21
17.375
 31
0.0
  0
LINE
  5
102
330
2
100
AcDbEntity
  8
0
100
AcDbLine
 10
0.0311999999999983
 20
17.375
 30
0.0
 11
0.0311999999999983
 21
17.0055
 31
0.0
  0
ARC
  5
103
330
2
100
AcDbEntity
  8
0
100
AcDbCircle
 10
3.781250000000004
 20
17.37450000000001
 30
0.0
 40
0.1875000000000025
100
AcDbArc
 50
270.0
 51
90.0
  0
ARC
  5
104
330
2
100
AcDbEntity
  8
0
100
AcDbCircle
 10
3.531249333332156
 20
17.374
 30
0.0
 40
0.1875000000000025
100
AcDbArc
 50
179.6944210605799
 51
274.18522251963
  0
LINE
  5
105
330
2
100
AcDbEntity
  8
0
100
AcDbLine
 10
3.781250000000018
 20
17.37450000000001
 30
0.0
 11
3.724250000000016
 21
17.3745
 31
0.0
  0
LINE
  5
106
330
2
100
AcDbEntity
  8
0
100
AcDbLine
 10
3.781250000000004
 20
17.37450000000001
 30
0.0
 11
3.781250000000004
 21
17.56200000000001
 31
0.0
  0
LINE
  5
107
330
2
100
AcDbEntity
  8
0
100
AcDbLine
 10
3.724250000000005
 20
17.56200000000001
 30
0.0
 11
3.781249999999996
 21
17.56200000000001
 31
0.0
  0
LINE
  5
108
330
2
100
AcDbEntity
  8
0
100
AcDbLine
 10
3.781250000000004
 20
17.18700000000001
 30
0.0
 11
3.544933265515667
 21
17.18700000000001
 31
0.0
  0
LINE
  5
109
330
2
100
AcDbEntity
  8
0
100
AcDbLine
 10
9.281250000000004
 20
17.18700000000001
 30
0.0
 11
9.51756673448438
 21
17.18700000000001
 31
0.0
  0
LINE
  5
10A
330
2
100
AcDbEntity
  8
0
100
AcDbLine
 10
9.281250000000004
 20
17.37450000000001
 30
0.0
 11
9.281250000000004
 21
17.56200000000001
 31
0.0
  0
LINE
  5
10B
330
2
100
AcDbEntity
  8
0
100
AcDbLine
 10
9.28125
 20
17.37450000000001
 30
0.0
 11
9.338250000000006
 21
17.37450000000001
 31
0.0
  0
LINE
  5
10C
330
2
100
AcDbEntity
  8
0
100
AcDbLine
 10
9.338250000000006
 20
17.56200000000001
 30
0.0
 11
9.281250000000004
 21
17.56200000000001
 31
0.0
  0
ARC
  5
10D
330
2
100
AcDbEntity
  8
0
100
AcDbCircle
 10
9.281250000000004
 20
17.37450000000001
 30
0.0
 40
0.1875000000000025
100
AcDbArc
 50
90.0
 51
270.0
  0
ARC
  5
10E
330
2
100
AcDbEntity
  8
0
100
AcDbCircle
 10
9.531250666667852
 20
17.374
 30
0.0
 40
0.1875000000000025
100
AcDbArc
 50
265.81477748037
 51
0.3055789394200826
  0
LINE
  5
10F
330
2
100
AcDbEntity
  8
0
100
AcDbLine
 10
0.0312000000000019
 20
21.9375
 30
0.0
 11
3.343752000017787
 21
21.9375
 31
0.0
  0
LINE
  5
110
330
2
100
AcDbEntity
  8
0
100
AcDbLine
 10
0.0312000000000019
 20
22.30700000000001
 30
0.0
 11
0.0312000000000019
 21
21.9375
 31
0.0
  0
ARC
  5
111
330
2
100
AcDbEntity
  8
0
100
AcDbCircle
 10
3.781250000000007
 20
21.93800000000042
 30
0.0
 40
0.1875
100
AcDbArc
 50
270.0
 51
90.0
  0
ARC
  5
112
330
2
100
AcDbEntity
  8
0
100
AcDbCircle
 10
3.531249333332159
 20
21.93850000000042
 30
0.0
 40
0.1875000000000025
100
AcDbArc
 50
85.81477748037005
 51
180.3055789394201
  0
LINE
  5
113
330
2
100
AcDbEntity
  8
0
100
AcDbLine
 10
3.781250000000021
 20
21.93800000000042
 30
0.0
 11
3.724250000000019
 21
21.93800000000043
 31
0.0
  0
LINE
  5
114
330
2
100
AcDbEntity
  8
0
100
AcDbLine
 10
3.781250000000007
 20
21.75050000000042
 30
0.0
 11
3.724250000000009
 21
21.75050000000043
 31
0.0
  0
LINE
  5
115
330
2
100
AcDbEntity
  8
0
100
AcDbLine
 10
3.781250000000007
 20
22.12550000000042
 30
0.0
 11
3.544933265515674
 21
22.12550000000042
 31
0.0
  0
LINE
  5
116
330
2
100
AcDbEntity
  8
0
100
AcDbLine
 10
3.781250000000007
 20
21.93800000000042
 30
0.0
 11
3.781250000000007
 21
21.75050000000042
 31
0.0
  0
LINE
  5
117
330
2
100
AcDbEntity
  8
0
100
AcDbLine
 10
9.281250000000007
 20
22.12550000000042
 30
0.0
 11
9.51756673448434
 21
22.12550000000042
 31
0.0
  0
LINE
  5
118
330
2
100
AcDbEntity
  8
0
100
AcDbLine
 10
9.281250000000004
 20
21.93800000000042
 30
0.0
 11
9.338250000000006
 21
21.93800000000042
 31
0.0
  0
LINE
  5
119
330
2
100
AcDbEntity
  8
0
100
AcDbLine
 10
9.281250000000007
 20
21.93800000000042
 30
0.0
 11
9.281250000000007
 21
21.75050000000042
 31
0.0
  0
LINE
  5
11A
330
2
100
AcDbEntity
  8
0
100
AcDbLine
 10
9.281250000000004
 20
21.75050000000042
 30
0.0
 11
9.338250000000006
 21
21.75050000000042
 31
0.0
  0
ARC
  5
11B
330
2
100
AcDbEntity
  8
0
100
AcDbCircle
 10
9.281250000000007
 20
21.93800000000042
 30
0.0
 40
0.1875
100
AcDbArc
 50
90.0
 51
270.0
  0
ARC
  5
11C
330
2
100
AcDbEntity
  8
0
100
AcDbCircle
 10
9.531250666667855
 20
21.93850000000042
 30
0.0
 40
0.1875000000000025
100
AcDbArc
 50
359.6944210605799
 51
94.18522251962995
  0
LINE
  5
11D
330
2
100
AcDbEntity
  8
0
100
AcDbLine
 10
13.0313
 20
17.375
 30
0.0
 11
13.0313
 21
17.0055
 31
0.0
  0
LINE
  5
11E
330
2
100
AcDbEntity
  8
0
100
AcDbLine
 10
13.0313
 20
22.30700000000001
 30
0.0
 11
13.0313
 21
21.93749999999999
 31
0.0
  0
LINE
  5
13E
330
2
100
AcDbEntity
  8
0
  6
HIDDEN
100
AcDbLine
 10
22.96275817711492
 20
0.0
 30
0.0
 11
27.14925817711523
 21
0.0
 31
0.0
  0
LINE
  5
13F
330
2
100
AcDbEntity
  8
0
  6
HIDDEN
100
AcDbLine
 10
0.0
 20
0.125
 30
0.0
 11
12.99999999999999
 21
0.1249999999999945
 31
0.0
  0
LINE
  5
140
330
2
100
AcDbEntity
  8
0
100
AcDbLine
 10
-9.462258177115086
 20
0.125
 30
0.0
 11
-14.64975817711508
 21
0.125
 31
0.0
  0
LINE
  5
141
330
2
100
AcDbEntity
  8
0
100
AcDbLine
 10
-9.774758177115086
 20
-3.75
 30
0.0
 11
-14.33725817711508
 21
-3.75
 31
0.0
  0
ARC
  5
142
330
2
100
AcDbEntity
  8
0
100
AcDbCircle
 10
-9.462258177115086
 20
0.25
 30
0.0
 40
0.125
100
AcDbArc
 50
270.0000000000001
 51
0.0000000000000325
  0
ARC
  5
143
330
2
100
AcDbEntity
  8
0
100
AcDbCircle
 10
-9.462258177115086
 20
0.25
 30
0.0
 40
0.25
100
AcDbArc
 50
270.0000000000001
 51
0.0000000000000325
  0
LINE
  5
144
330
2
100
AcDbEntity
  8
0
100
AcDbLine
 10
-9.462258177115086
 20
0.0
 30
0.0
 11
-9.962758177114932
 21
0.0
 31
0.0
  0
LINE
  5
145
330
2
100
AcDbEntity
  8
0
100
AcDbLine
 10
-9.774758177115086
 20
-0.4374979999822202
 30
0.0
 11
-9.774758177115086
 21
-3.75
 31
0.0
  0
CIRCLE
  5
146
330
2
100
AcDbEntity
  8
0
100
AcDbCircle
 10
-10.08725817711509
 20
-3.375
 30
0.0
 40
0.0855000000000025
  0
CIRCLE
  5
147
330
2
100
AcDbEntity
  8
0
100
AcDbCircle
 10
-10.08725817711509
 20
-1.25
 30
0.0
 40
0.0855000000000025
  0
LINE
  5
148
330
2
100
AcDbEntity
  8
0
100
AcDbLine
 10
-9.774758177115086
 20
0.125
 30
0.0
 11
-9.774758177115086
 21
0.0
 31
0.0
  0
ARC
  5
149
330
2
100
AcDbEntity
  8
0
100
AcDbCircle
 10
-9.775758177114934
 20
-0.250000666667848
 30
0.0
 40
0.1875000000000025
100
AcDbArc
 50
175.8147774803701
 51
270.3055789394201
  0
LINE
  5
14A
330
2
100
AcDbEntity
  8
0
100
AcDbLine
 10
-9.962758177114932
 20
0.125
 30
0.0
 11
-9.962758177114932
 21
-0.2363167344843369
 31
0.0
  0
LINE
  5
14B
330
2
100
AcDbEntity
  8
0
100
AcDbLine
 10
-9.042631882603207
 20
3.623051573903098
 30
0.0
 11
-9.337258177115086
 21
0.25
 31
0.0
  0
LINE
  5
14C
330
2
100
AcDbEntity
  8
0
100
AcDbLine
 10
-9.212258177115086
 20
0.25
 30
0.0
 11
-8.918107545341744
 21
3.612157106059641
 31
0.0
  0
LINE
  5
14D
330
2
100
AcDbEntity
  8
0
100
AcDbLine
 10
-8.918107545341744
 20
3.612157106059641
 30
0.0
 11
-9.042631882603207
 21
3.623051573903098
 31
0.0
  0
ARC
  5
14E
330
2
100
AcDbEntity
  8
0
100
AcDbCircle
 10
-14.33625817711523
 20
-0.250000666667848
 30
0.0
 40
0.1875000000000025
100
AcDbArc
 50
269.6944210605799
 51
4.18522251962993
  0
LINE
  5
14F
330
2
100
AcDbEntity
  8
0
100
AcDbLine
 10
-14.64975817711508
 20
0.0
 30
0.0
 11
-14.14925817711524
 21
0.0
 31
0.0
  0
CIRCLE
  5
150
330
2
100
AcDbEntity
  8
0
100
AcDbCircle
 10
-12.05625817711508
 20
-2.375
 30
0.0
 40
0.2810000000000025
  0
CIRCLE
  5
151
330
2
100
AcDbEntity
  8
0
100
AcDbCircle
 10
-14.02475817711508
 20
-3.375
 30
0.0
 40
0.0855000000000025
  0
CIRCLE
  5
152
330
2
100
AcDbEntity
  8
0
100
AcDbCircle
 10
-14.02475817711508
 20
-1.25
 30
0.0
 40
0.0855000000000025
  0
LINE
  5
153
330
2
100
AcDbEntity
  8
0
100
AcDbLine
 10
-14.14925817711524
 20
0.125
 30
0.0
 11
-14.14925817711524
 21
-0.2363167344843369
 31
0.0
  0
ARC
  5
154
330
2
100
AcDbEntity
  8
0
100
AcDbCircle
 10
-14.64975817711508
 20
0.25
 30
0.0
 40
0.125
100
AcDbArc
 50
180.0
 51
270.0
  0
ARC
  5
155
330
2
100
AcDbEntity
  8
0
100
AcDbCircle
 10
-14.64975817711508
 20
0.25
 30
0.0
 40
0.25
100
AcDbArc
 50
180.0
 51
270.0
  0
LINE
  5
156
330
2
100
AcDbEntity
  8
0
100
AcDbLine
 10
-14.33725817711508
 20
-0.4374979999822202
 30
0.0
 11
-14.33725817711508
 21
-3.75
 31
0.0
  0
LINE
  5
157
330
2
100
AcDbEntity
  8
0
100
AcDbLine
 10
-14.33725817711508
 20
0.125
 30
0.0
 11
-14.33725817711508
 21
0.0
 31
0.0
  0
LINE
  5
158
330
2
100
AcDbEntity
  8
0
100
AcDbLine
 10
-15.1934331461499
 20
3.601262638216184
 30
0.0
 11
-14.89928251437655
 21
0.2391055321565432
 31
0.0
  0
LINE
  5
159
330
2
100
AcDbEntity
  8
0
100
AcDbLine
 10
-14.77475817711508
 20
0.25
 30
0.0
 11
-15.06890880888843
 21
3.612157106059641
 31
0.0
  0
LINE
  5
15A
330
2
100
AcDbEntity
  8
0
100
AcDbLine
 10
-15.06890880888843
 20
3.612157106059641
 30
0.0
 11
-15.1934331461499
 21
3.601262638216184
 31
0.0
  0
CIRCLE
  5
15B
330
2
100
AcDbEntity
  8
0
100
AcDbCircle
 10
3.999999999999988
 20
2.624999999999996
 30
0.0
 40
0.0855000000000025
  0
LINE
  5
15C
330
2
100
AcDbEntity
  8
0
  6
HIDDEN
100
AcDbLine
 10
-9.962758177114932
 20
0.0
 30
0.0
 11
-14.14925817711524
 21
0.0
 31
0.0
  0
LINE
  5
15D
330
2
100
AcDbEntity
  8
0
  6
HIDDEN
100
AcDbLine
 10
3.781250000000007
 20
21.75050000000042
 30
0.0
 11
3.781250000000004
 21
17.56200000000001
 31
0.0
  0
LINE
  5
15E
330
2
100
AcDbEntity
  8
0
  6
HIDDEN
100
AcDbLine
 10
9.281249999999984
 20
21.75050000000042
 30
0.0
 11
9.281250000000004
 21
17.56200000000001
 31
0.0
  0
ENDSEC
  0
SECTION
  2
OBJECTS
  0
DICTIONARY
  5
7
330
0
100
AcDbDictionary
281
     1
  3
ACAD_COLOR
350
B3
  3
ACAD_GROUP
350
1F
  3
ACAD_LAYOUT
350
B
  3
ACAD_MATERIAL
350
B2
  3
ACAD_MLINESTYLE
350
20
  3
ACAD_PLOTSETTINGS
350
21
  3
ACAD_PLOTSTYLENAME
350
6
  3
ACAD_TABLESTYLE
350
B4
  3
ACDBHEADERROUNDTRIPXREC
350
165
  3
AcDbVariableDictionary
350
AE
  0
DICTIONARY
  5
BB
330
2
100
AcDbDictionary
280
     1
281
     1
  3
ACAD_SORTENTS
360
BC
  0
DICTIONARY
  5
B3
102
{ACAD_REACTORS
330
7
102
}
330
7
100
AcDbDictionary
281
     1
  0
DICTIONARY
  5
1F
102
{ACAD_REACTORS
330
7
102
}
330
7
100
AcDbDictionary
281
     1
  0
DICTIONARY
  5
B
102
{ACAD_REACTORS
330
7
102
}
330
7
100
AcDbDictionary
281
     1
  3
Layout1
350
F
  3
Model
350
A
  0
DICTIONARY
  5
B2
102
{ACAD_REACTORS
330
7
102
}
330
7
100
AcDbDictionary
281
     1
  0
DICTIONARY
  5
20
102
{ACAD_REACTORS
330
7
102
}
330
7
100
AcDbDictionary
281
     1
  3
Standard
350
23
  0
DICTIONARY
  5
21
102
{ACAD_REACTORS
330
7
102
}
330
7
100
AcDbDictionary
281
     1
  0
ACDBDICTIONARYWDFLT
  5
6
102
{ACAD_REACTORS
330
7
102
}
330
7
100
AcDbDictionary
281
     1
  3
Normal
350
5
100
AcDbDictionaryWithDefault
340
5
  0
DICTIONARY
  5
B4
102
{ACAD_REACTORS
330
7
102
}
330
7
100
AcDbDictionary
281
     1
  3
Standard
350
B5
  0
DICTIONARY
  5
165
102
{ACAD_REACTORS
330
7
102
}
330
7
100
AcDbDictionary
281
     1
  3
COLORDICT
350
166
  3
MATERIALDICT
350
167
  0
DICTIONARY
  5
AE
102
{ACAD_REACTORS
330
7
102
}
330
7
100
AcDbDictionary
281
     1
  3
CTABLESTYLE
350
125
  3
DIMASSOC
350
B0
  3
HIDETEXT
350
AF
  0
SORTENTSTABLE
  5
BC
102
{ACAD_REACTORS
330
BB
102
}
330
BB
100
AcDbSortentsTable
330
2
331
0
  5
105
331
D5
  5
117
331
EF
  5
FB
331
C6
  5
108
331
F8
  5
104
331
107
  5
D1
331
DD
  5
E9
331
EA
  5
F6
331
F1
  5
FD
331
102
  5
CC
331
D3
  5
115
331
11A
  5
E4
331
10E
  5
D8
331
10F
  5
D9
331
FF
  5
C9
331
EE
  5
FA
331
104
  5
CE
331
112
  5
DC
331
F4
  5
100
331
106
  5
D0
331
D2
  5
114
331
117
  5
E1
331
D1
  5
113
331
108
  5
D2
331
FC
  5
C6
331
E8
  5
F4
331
D6
  5
118
331
10D
  5
D7
331
CE
  5
110
331
10C
  5
D6
331
115
  5
DF
331
DC
  5
11E
331
101
  5
CB
331
EC
  5
F8
331
E5
  5
F1
331
109
  5
D3
331
11C
  5
E6
331
10B
  5
D5
331
11B
  5
E5
331
114
  5
DE
331
DF
  5
EB
331
F6
  5
102
331
E2
  5
EE
331
E6
  5
F2
331
FA
  5
C1
331
103
  5
CD
331
E0
  5
EC
331
CC
  5
10E
331
F9
  5
C0
331
118
  5
E2
331
119
  5
E3
331
C1
  5
106
331
F7
  5
103
331
105
  5
CF
331
C8
  5
10A
331
EB
  5
F7
331
C7
  5
109
331
11E
  5
E8
331
E3
  5
EF
331
116
  5
E0
331
111
  5
DB
331
E9
  5
F5
331
E7
  5
F3
331
D7
  5
119
331
D0
  5
112
331
CF
  5
111
331
E4
  5
F0
331
D8
  5
11A
331
100
  5
CA
331
E1
  5
ED
331
F0
  5
FC
331
CB
  5
10D
331
DB
  5
11D
331
110
  5
DA
331
CA
  5
10C
331
F3
  5
FF
331
10A
  5
D4
331
11D
  5
E7
331
DA
  5
11C
331
113
  5
DD
331
C9
  5
10B
331
ED
  5
F9
331
FB
  5
C2
331
D4
  5
116
331
F2
  5
FE
331
CD
  5
10F
331
F5
  5
101
  0
LAYOUT
  5
F
102
{ACAD_REACTORS
330
B
102
}
102
{ACAD_XDICTIONARY
360
168
102
}
330
B
100
AcDbPlotSettings
  1

  2
X:\Program Files\AutoCAD2002\plotters\DWF ePlot (optimized for plotting).pc3
  4

  6

 40
0.0
 41
0.0
 42
0.0
 43
0.0
 44
0.0
 45
0.0
 46
0.0
 47
0.0
 48
0.0
 49
0.0
140
0.0
141
0.0
142
1.0
143
1.0
 70
   688
 72
     0
 73
     0
 74
     5
  7

 75
    16
147
1.0
148
0.0
149
0.0
100
AcDbLayout
  1
Layout1
 70
     0
 71
     1
 10
0.0
 20
0.0
 11
12.0
 21
9.0
 12
0.0
 22
0.0
 32
0.0
 14
1.000000000000000E+20
 24
1.000000000000000E+20
 34
1.000000000000000E+20
 15
-1.000000000000000E+20
 25
-1.000000000000000E+20
 35
-1.000000000000000E+20
146
0.0
 13
0.0
 23
0.0
 33
0.0
 16
1.0
 26
0.0
 36
0.0
 17
0.0
 27
1.0
 37
0.0
 76
     0
330
C
  0
LAYOUT
  5
A
102
{ACAD_REACTORS
330
B
102
}
102
{ACAD_XDICTIONARY
360
16A
102
}
330
B
100
AcDbPlotSettings
  1

  2
X:\Program Files\AutoCAD2002\plotters\DWF ePlot (optimized for plotting).pc3
  4

  6

 40
0.0
 41
0.0
 42
0.0
 43
0.0
 44
0.0
 45
0.0
 46
0.0
 47
0.0
 48
0.0
 49
0.0
140
0.0
141
0.0
142
1.0
143
1.0
 70
  1712
 72
     0
 73
     0
 74
     0
  7

 75
     0
147
1.0
148
0.0
149
0.0
100
AcDbLayout
  1
Model
 70
     1
 71
     0
 10
0.0
 20
0.0
 11
12.0
 21
9.0
 12
0.0
 22
0.0
 32
0.0
 14
0.0
 24
0.0
 34
0.0
 15
0.0
 25
0.0
 35
0.0
146
0.0
 13
0.0
 23
0.0
 33
0.0
 16
1.0
 26
0.0
 36
0.0
 17
0.0
 27
1.0
 37
0.0
 76
     0
330
2
  0
MLINESTYLE
  5
23
102
{ACAD_REACTORS
330
20
102
}
330
20
100
AcDbMlineStyle
  2
STANDARD
 70
     0
  3

 62
   256
 51
90.0
 52
90.0
 71
     2
 49
0.5
 62
   256
  6
BYLAYER
 49
-0.5
 62
   256
  6
BYLAYER
  0
ACDBPLACEHOLDER
  5
5
102
{ACAD_REACTORS
330
6
102
}
330
6
  0
ACAD_PROXY_OBJECT
  5
B5
102
{ACAD_REACTORS
330
B4
102
}
330
B4
100
AcDbProxyObject
 90
      499
 91
      504
 95
   983063
 70
     0
 93
     1841
310
4214DD185B99185C9928B81E85EB51B8AE3F2E07A17AD46E2B8FC02B5E8DC0F42B1CFD028000000C1008070000C3001FDFF8000000C1003FBFF000000182007F7FE00000030400FEFFC00000060801FDFF8000000C1003FBFF00000018200000000000000681FA0B0000001820100E000186003FBFF000000182007F7FE000
310
00030400FEFFC00000060801FDFF8000000C1003FBFF000000182007F7FE000000304000AD7A3703D0AC73F4160000003040201C00030C007F7FE00000030400FEFFC00000060801FDFF8000000C1003FBFF000000182007F7FE00000030400FEFFC000000608000
340
12
340
12
340
12
 94
        0
  0
XRECORD
  5
166
102
{ACAD_REACTORS
330
165
102
}
330
165
100
AcDbXrecord
340
B3
  0
XRECORD
  5
167
102
{ACAD_REACTORS
330
165
102
}
330
165
100
AcDbXrecord
340
B2
  0
DICTIONARYVAR
  5
125
102
{ACAD_REACTORS
330
AE
102
}
330
AE
100
DictionaryVariables
280
     0
  1
STANDARD
  0
DICTIONARYVAR
  5
B0
102
{ACAD_REACTORS
330
AE
102
}
330
AE
100
DictionaryVariables
280
     0
  1
2
  0
DICTIONARYVAR
  5
AF
102
{ACAD_REACTORS
330
AE
102
}
330
AE
100
DictionaryVariables
280
     0
  1
1
  0
DICTIONARY
  5
168
330
F
100
AcDbDictionary
280
     1
281
     1
  3
ACAD_XREC_ROUNDTRIP
360
169
  0
DICTIONARY
  5
16A
330
A
100
AcDbDictionary
280
     1
281
     1
  3
ACAD_XREC_ROUNDTRIP
360
16B
  0
XRECORD
  5
169
102
{ACAD_REACTORS
330
168
102
}
330
168
100
AcDbXrecord
102
SHADEPLOT
 70
     0
102
SHADEPLOTRESLEVEL
 70
     2
102
SHADEPLOTCUSTOMDPI
 70
   300
  0
XRECORD
  5
16B
102
{ACAD_REACTORS
330
16A
102
}
330
16A
100
AcDbXrecord
102
SHADEPLOT
 70
     0
102
SHADEPLOTRESLEVEL
 70
     2
102
SHADEPLOTCUSTOMDPI
 70
   300
  0
ENDSEC
  0
EOF
