  0
SECTION
  2
HEADER
  9
$ACADVER
  1
AC1015
  9
$ACADMAINTVER
 70
     6
  9
$DWGCODEPAGE
  3
ANSI_1252
  9
$INSBASE
 10
0.0
 20
0.0
 30
0.0
  9
$EXTMIN
 10
-4.59320249486559
 20
-0.340795423986862
 30
0.0
  9
$EXTMAX
 10
5.45136782237249
 20
5.304774463643845
 30
0.0
  9
$LIMMIN
 10
0.0
 20
0.0
  9
$LIMMAX
 10
10.5
 20
8.0
  9
$ORTHOMODE
 70
     1
  9
$REGENMODE
 70
     1
  9
$FILLMODE
 70
     1
  9
$QTEXTMODE
 70
     0
  9
$MIRRTEXT
 70
     0
  9
$LTSCALE
 40
0.5
  9
$ATTMODE
 70
     1
  9
$TEXTSIZE
 40
1.0
  9
$TRACEWID
 40
0.05
  9
$TEXTSTYLE
  7
SIMFRAC
  9
$CLAYER
  8
0
  9
$CELTYPE
  6
BYLAYER
  9
$CECOLOR
 62
   256
  9
$CELTSCALE
 40
1.0
  9
$DISPSILH
 70
     0
  9
$DIMSCALE
 40
1.0
  9
$DIMASZ
 40
0.125
  9
$DIMEXO
 40
0.062
  9
$DIMDLI
 40
0.375
  9
$DIMRND
 40
0.0
  9
$DIMDLE
 40
0.0
  9
$DIMEXE
 40
0.08
  9
$DIMTP
 40
0.0
  9
$DIMTM
 40
0.0
  9
$DIMTXT
 40
0.09
  9
$DIMCEN
 40
-0.06
  9
$DIMTSZ
 40
0.0
  9
$DIMTOL
 70
     0
  9
$DIMLIM
 70
     0
  9
$DIMTIH
 70
     1
  9
$DIMTOH
 70
     1
  9
$DIMSE1
 70
     0
  9
$DIMSE2
 70
     0
  9
$DIMTAD
 70
     0
  9
$DIMZIN
 70
     0
  9
$DIMBLK
  1

  9
$DIMASO
 70
     0
  9
$DIMSHO
 70
     0
  9
$DIMPOST
  1

  9
$DIMAPOST
  1

  9
$DIMALT
 70
     0
  9
$DIMALTD
 70
     2
  9
$DIMALTF
 40
25.4
  9
$DIMLFAC
 40
1.0
  9
$DIMTOFL
 70
     0
  9
$DIMTVP
 40
0.0
  9
$DIMTIX
 70
     0
  9
$DIMSOXD
 70
     0
  9
$DIMSAH
 70
     0
  9
$DIMBLK1
  1

  9
$DIMBLK2
  1

  9
$DIMSTYLE
  2
STANDARD
  9
$DIMCLRD
 70
     0
  9
$DIMCLRE
 70
     0
  9
$DIMCLRT
 70
     0
  9
$DIMTFAC
 40
1.0
  9
$DIMGAP
 40
0.09
  9
$DIMJUST
 70
     0
  9
$DIMSD1
 70
     0
  9
$DIMSD2
 70
     0
  9
$DIMTOLJ
 70
     1
  9
$DIMTZIN
 70
     0
  9
$DIMALTZ
 70
     0
  9
$DIMALTTZ
 70
     0
  9
$DIMUPT
 70
     0
  9
$DIMDEC
 70
     3
  9
$DIMTDEC
 70
     4
  9
$DIMALTU
 70
     2
  9
$DIMALTTD
 70
     2
  9
$DIMTXSTY
  7
STANDARD
  9
$DIMAUNIT
 70
     0
  9
$DIMADEC
 70
     0
  9
$DIMALTRND
 40
0.0
  9
$DIMAZIN
 70
     0
  9
$DIMDSEP
 70
    46
  9
$DIMATFIT
 70
     3
  9
$DIMFRAC
 70
     0
  9
$DIMLDRBLK
  1

  9
$DIMLUNIT
 70
     2
  9
$DIMLWD
 70
    -2
  9
$DIMLWE
 70
    -2
  9
$DIMTMOVE
 70
     2
  9
$LUNITS
 70
     2
  9
$LUPREC
 70
     4
  9
$SKETCHINC
 40
0.1
  9
$FILLETRAD
 40
0.01
  9
$AUNITS
 70
     0
  9
$AUPREC
 70
     0
  9
$MENU
  1
qa
  9
$ELEVATION
 40
0.0
  9
$PELEVATION
 40
0.0
  9
$THICKNESS
 40
0.0
  9
$LIMCHECK
 70
     0
  9
$CHAMFERA
 40
0.02
  9
$CHAMFERB
 40
0.02
  9
$CHAMFERC
 40
0.0
  9
$CHAMFERD
 40
0.0
  9
$SKPOLY
 70
     0
  9
$TDCREATE
 40
2450603.616837847
  9
$TDUCREATE
 40
2450603.950171181
  9
$TDUPDATE
 40
2454176.742720208
  9
$TDUUPDATE
 40
2454177.076053542
  9
$TDINDWG
 40
1.2710483102
  9
$TDUSRTIMER
 40
1.2710483102
  9
$USRTIMER
 70
     1
  9
$ANGBASE
 50
0.0
  9
$ANGDIR
 70
     0
  9
$PDMODE
 70
     0
  9
$PDSIZE
 40
0.0
  9
$PLINEWID
 40
0.0
  9
$SPLFRAME
 70
     0
  9
$SPLINETYPE
 70
     6
  9
$SPLINESEGS
 70
     8
  9
$HANDSEED
  5
22E
  9
$SURFTAB1
 70
     6
  9
$SURFTAB2
 70
     6
  9
$SURFTYPE
 70
     6
  9
$SURFU
 70
     6
  9
$SURFV
 70
     6
  9
$UCSBASE
  2

  9
$UCSNAME
  2

  9
$UCSORG
 10
0.0
 20
0.0
 30
0.0
  9
$UCSXDIR
 10
1.0
 20
0.0
 30
0.0
  9
$UCSYDIR
 10
0.0
 20
1.0
 30
0.0
  9
$UCSORTHOREF
  2

  9
$UCSORTHOVIEW
 70
     0
  9
$UCSORGTOP
 10
0.0
 20
0.0
 30
0.0
  9
$UCSORGBOTTOM
 10
0.0
 20
0.0
 30
0.0
  9
$UCSORGLEFT
 10
0.0
 20
0.0
 30
0.0
  9
$UCSORGRIGHT
 10
0.0
 20
0.0
 30
0.0
  9
$UCSORGFRONT
 10
0.0
 20
0.0
 30
0.0
  9
$UCSORGBACK
 10
0.0
 20
0.0
 30
0.0
  9
$PUCSBASE
  2

  9
$PUCSNAME
  2

  9
$PUCSORG
 10
0.0
 20
0.0
 30
0.0
  9
$PUCSXDIR
 10
1.0
 20
0.0
 30
0.0
  9
$PUCSYDIR
 10
0.0
 20
1.0
 30
0.0
  9
$PUCSORTHOREF
  2

  9
$PUCSORTHOVIEW
 70
     0
  9
$PUCSORGTOP
 10
0.0
 20
0.0
 30
0.0
  9
$PUCSORGBOTTOM
 10
0.0
 20
0.0
 30
0.0
  9
$PUCSORGLEFT
 10
0.0
 20
0.0
 30
0.0
  9
$PUCSORGRIGHT
 10
0.0
 20
0.0
 30
0.0
  9
$PUCSORGFRONT
 10
0.0
 20
0.0
 30
0.0
  9
$PUCSORGBACK
 10
0.0
 20
0.0
 30
0.0
  9
$USERI1
 70
     0
  9
$USERI2
 70
     0
  9
$USERI3
 70
     0
  9
$USERI4
 70
     0
  9
$USERI5
 70
     0
  9
$USERR1
 40
0.0
  9
$USERR2
 40
0.0
  9
$USERR3
 40
0.0
  9
$USERR4
 40
0.0
  9
$USERR5
 40
0.0
  9
$WORLDVIEW
 70
     1
  9
$SHADEDGE
 70
     3
  9
$SHADEDIF
 70
    70
  9
$TILEMODE
 70
     1
  9
$MAXACTVP
 70
    16
  9
$PINSBASE
 10
0.0
 20
0.0
 30
0.0
  9
$PLIMCHECK
 70
     0
  9
$PEXTMIN
 10
1.000000000000000E+20
 20
1.000000000000000E+20
 30
1.000000000000000E+20
  9
$PEXTMAX
 10
-1.000000000000000E+20
 20
-1.000000000000000E+20
 30
-1.000000000000000E+20
  9
$PLIMMIN
 10
0.0
 20
0.0
  9
$PLIMMAX
 10
12.0
 20
9.0
  9
$UNITMODE
 70
     0
  9
$VISRETAIN
 70
     0
  9
$PLINEGEN
 70
     0
  9
$PSLTSCALE
 70
     0
  9
$TREEDEPTH
 70
  3020
  9
$CMLSTYLE
  2
STANDARD
  9
$CMLJUST
 70
     0
  9
$CMLSCALE
 40
1.0
  9
$PROXYGRAPHICS
 70
     1
  9
$MEASUREMENT
 70
     0
  9
$CELWEIGHT
370
    -1
  9
$ENDCAPS
280
     0
  9
$JOINSTYLE
280
     0
  9
$LWDISPLAY
290
     0
  9
$INSUNITS
 70
     0
  9
$HYPERLINKBASE
  1

  9
$STYLESHEET
  1

  9
$XEDIT
290
     1
  9
$CEPSNTYPE
380
     0
  9
$PSTYLEMODE
290
     1
  9
$FINGERPRINTGUID
  2
{F2EF9253-1E2C-11D7-BE3F-00508B5FCD51}
  9
$VERSIONGUID
  2
{93D412CF-B766-4138-A622-DE70D0E589E2}
  9
$EXTNAMES
290
     1
  9
$PSVPSCALE
 40
0.0
  9
$OLESTARTUP
290
     0
  0
ENDSEC
  0
SECTION
  2
CLASSES
  0
CLASS
  1
DICTIONARYVAR
  2
AcDbDictionaryVar
  3
AutoCAD 2000
 90
        0
280
     0
281
     0
  0
CLASS
  1
LWPOLYLINE
  2
AcDbPolyline
  3
AutoCAD 2000
 90
        0
280
     0
281
     1
  0
CLASS
  1
ACDBDICTIONARYWDFLT
  2
AcDbDictionaryWithDefault
  3
AutoCAD 2000
 90
        0
280
     0
281
     0
  0
CLASS
  1
ACDBPLACEHOLDER
  2
AcDbPlaceHolder
  3
ObjectDBX Classes
 90
        0
280
     0
281
     0
  0
CLASS
  1
LAYOUT
  2
AcDbLayout
  3
ObjectDBX Classes
 90
        0
280
     0
281
     0
  0
CLASS
  1
LONG_TRANSACTION
  2
AcDbLongTransaction
  3
ObjectDBX Classes
 90
   -65536
280
     1
281
     0
  0
CLASS
  1
LWPOLYLINE
  2
AcDbPolyline
  3
AutoCAD 2000
 90
        0
280
     0
281
     1
  0
CLASS
  1
HATCH
  2
AcDbHatch
  3
AutoCAD 2000
 90
        0
280
     0
281
     1
  0
CLASS
  1
XRECORD
  2
AcDbXrecord
  3
AutoCAD 2000
 90
        0
280
     0
281
     0
  0
CLASS
  1
LONG_TRANSACTION
  2
AcDbLongTransaction
  3
ObjectDBX Classes
 90
   -65536
280
     1
281
     0
  0
CLASS
  1
LWPOLYLINE
  2
AcDbPolyline
  3
AutoCAD 2000
 90
        0
280
     0
281
     1
  0
CLASS
  1
HATCH
  2
AcDbHatch
  3
AutoCAD 2000
 90
        0
280
     0
281
     1
  0
CLASS
  1
XRECORD
  2
AcDbXrecord
  3
AutoCAD 2000
 90
        0
280
     0
281
     0
  0
CLASS
  1
LONG_TRANSACTION
  2
AcDbLongTransaction
  3
ObjectDBX Classes
 90
   -65536
280
     1
281
     0
  0
CLASS
  1
LWPOLYLINE
  2
AcDbPolyline
  3
AutoCAD 2000
 90
        0
280
     0
281
     1
  0
CLASS
  1
HATCH
  2
AcDbHatch
  3
AutoCAD 2000
 90
        0
280
     0
281
     1
  0
CLASS
  1
XRECORD
  2
AcDbXrecord
  3
AutoCAD 2000
 90
        0
280
     0
281
     0
  0
CLASS
  1
LONG_TRANSACTION
  2
AcDbLongTransaction
  3
ObjectDBX Classes
 90
   -65536
280
     1
281
     0
  0
CLASS
  1
LWPOLYLINE
  2
AcDbPolyline
  3
AutoCAD 2000
 90
        0
280
     0
281
     1
  0
CLASS
  1
HATCH
  2
AcDbHatch
  3
AutoCAD 2000
 90
        0
280
     0
281
     1
  0
CLASS
  1
XRECORD
  2
AcDbXrecord
  3
AutoCAD 2000
 90
        0
280
     0
281
     0
  0
CLASS
  1
LONG_TRANSACTION
  2
AcDbLongTransaction
  3
ObjectDBX Classes
 90
   -65536
280
     1
281
     0
  0
CLASS
  1
LWPOLYLINE
  2
AcDbPolyline
  3
AutoCAD 2000
 90
        0
280
     0
281
     1
  0
CLASS
  1
HATCH
  2
AcDbHatch
  3
AutoCAD 2000
 90
        0
280
     0
281
     1
  0
CLASS
  1
XRECORD
  2
AcDbXrecord
  3
AutoCAD 2000
 90
        0
280
     0
281
     0
  0
CLASS
  1
LONG_TRANSACTION
  2
AcDbLongTransaction
  3
ObjectDBX Classes
 90
   -65536
280
     1
281
     0
  0
CLASS
  1
LWPOLYLINE
  2
AcDbPolyline
  3
AutoCAD 2000
 90
        0
280
     0
281
     1
  0
CLASS
  1
HATCH
  2
AcDbHatch
  3
AutoCAD 2000
 90
        0
280
     0
281
     1
  0
CLASS
  1
XRECORD
  2
AcDbXrecord
  3
AutoCAD 2000
 90
        0
280
     0
281
     0
  0
CLASS
  1
LONG_TRANSACTION
  2
AcDbLongTransaction
  3
ObjectDBX Classes
 90
   -65536
280
     1
281
     0
  0
CLASS
  1
LWPOLYLINE
  2
AcDbPolyline
  3
AutoCAD 2000
 90
        0
280
     0
281
     1
  0
CLASS
  1
HATCH
  2
AcDbHatch
  3
AutoCAD 2000
 90
        0
280
     0
281
     1
  0
CLASS
  1
XRECORD
  2
AcDbXrecord
  3
AutoCAD 2000
 90
        0
280
     0
281
     0
  0
CLASS
  1
LONG_TRANSACTION
  2
AcDbLongTransaction
  3
ObjectDBX Classes
 90
   -65536
280
     1
281
     0
  0
CLASS
  1
LWPOLYLINE
  2
AcDbPolyline
  3
AutoCAD 2000
 90
        0
280
     0
281
     1
  0
CLASS
  1
HATCH
  2
AcDbHatch
  3
AutoCAD 2000
 90
        0
280
     0
281
     1
  0
CLASS
  1
XRECORD
  2
AcDbXrecord
  3
AutoCAD 2000
 90
        0
280
     0
281
     0
  0
CLASS
  1
LONG_TRANSACTION
  2
AcDbLongTransaction
  3
ObjectDBX Classes
 90
   -65536
280
     1
281
     0
  0
CLASS
  1
LWPOLYLINE
  2
AcDbPolyline
  3
AutoCAD 2000
 90
        0
280
     0
281
     1
  0
CLASS
  1
HATCH
  2
AcDbHatch
  3
AutoCAD 2000
 90
        0
280
     0
281
     1
  0
CLASS
  1
XRECORD
  2
AcDbXrecord
  3
AutoCAD 2000
 90
        0
280
     0
281
     0
  0
CLASS
  1
LONG_TRANSACTION
  2
AcDbLongTransaction
  3
ObjectDBX Classes
 90
   -65536
280
     1
281
     0
  0
CLASS
  1
LWPOLYLINE
  2
AcDbPolyline
  3
AutoCAD 2000
 90
        0
280
     0
281
     1
  0
CLASS
  1
HATCH
  2
AcDbHatch
  3
AutoCAD 2000
 90
        0
280
     0
281
     1
  0
CLASS
  1
XRECORD
  2
AcDbXrecord
  3
AutoCAD 2000
 90
        0
280
     0
281
     0
  0
CLASS
  1
LONG_TRANSACTION
  2
AcDbLongTransaction
  3
ObjectDBX Classes
 90
   -65536
280
     1
281
     0
  0
CLASS
  1
LWPOLYLINE
  2
AcDbPolyline
  3
AutoCAD 2000
 90
        0
280
     0
281
     1
  0
CLASS
  1
HATCH
  2
AcDbHatch
  3
AutoCAD 2000
 90
        0
280
     0
281
     1
  0
CLASS
  1
XRECORD
  2
AcDbXrecord
  3
AutoCAD 2000
 90
        0
280
     0
281
     0
  0
CLASS
  1
TABLESTYLE
  2
AcDbTableStyle
  3
ObjectDBX Classes
 90
     2047
280
     1
281
     0
  0
ENDSEC
  0
SECTION
  2
TABLES
  0
TABLE
  2
VPORT
  5
1D
330
0
100
AcDbSymbolTable
 70
     3
  0
VPORT
  5
21E
330
1D
100
AcDbSymbolTableRecord
100
AcDbViewportTableRecord
  2
*Active
 70
     0
 10
0.0
 20
0.0
 11
1.0
 21
1.0
 12
2.409812487368242
 22
2.609478573473673
 13
0.0
 23
0.0
 14
0.063
 24
0.063
 15
0.25
 25
0.25
 16
0.0
 26
0.0
 36
1.0
 17
0.0
 27
0.0
 37
0.0
 40
8.992758807331839
 41
1.814583333333334
 42
50.0
 43
0.0
 44
0.0
 50
0.0
 51
0.0
 71
     0
 72
   100
 73
     1
 74
     0
 75
     0
 76
     0
 77
     0
 78
     1
281
     0
 65
     1
110
0.0
120
0.0
130
0.0
111
1.0
121
0.0
131
0.0
112
0.0
122
1.0
132
0.0
 79
     0
146
0.0
  0
ENDTAB
  0
TABLE
  2
LTYPE
  5
18
330
0
100
AcDbSymbolTable
 70
     1
  0
LTYPE
  5
19
330
18
100
AcDbSymbolTableRecord
100
AcDbLinetypeTableRecord
  2
BYBLOCK
 70
     0
  3

 72
    65
 73
     0
 40
0.0
  0
LTYPE
  5
1A
330
18
100
AcDbSymbolTableRecord
100
AcDbLinetypeTableRecord
  2
BYLAYER
 70
     0
  3

 72
    65
 73
     0
 40
0.0
  0
LTYPE
  5
A
330
18
100
AcDbSymbolTableRecord
100
AcDbLinetypeTableRecord
  2
CONTINUOUS
 70
     0
  3
Solid line
 72
    65
 73
     0
 40
0.0
  0
ENDTAB
  0
TABLE
  2
LAYER
  5
14
330
0
100
AcDbSymbolTable
 70
     2
  0
LAYER
  5
6
330
14
100
AcDbSymbolTableRecord
100
AcDbLayerTableRecord
  2
0
 70
     0
 62
     7
  6
CONTINUOUS
370
    -3
390
7
  0
ENDTAB
  0
TABLE
  2
STYLE
  5
15
330
0
100
AcDbSymbolTable
 70
     2
  0
STYLE
  5
16
330
15
100
AcDbSymbolTableRecord
100
AcDbTextStyleTableRecord
  2
STANDARD
 70
     0
 40
0.0
 41
1.0
 50
0.0
 71
     0
 42
0.09
  3
G:\ACADWIN\FONTS\TXT.SHX
  4

  0
STYLE
  5
27
330
15
100
AcDbSymbolTableRecord
100
AcDbTextStyleTableRecord
  2
SIMFRAC
 70
     0
 40
1.0
 41
1.0
 50
0.0
 71
     0
 42
1.0
  3
simfrac.shx
  4

  0
ENDTAB
  0
TABLE
  2
VIEW
  5
1B
330
0
100
AcDbSymbolTable
 70
     0
  0
ENDTAB
  0
TABLE
  2
UCS
  5
1C
330
0
100
AcDbSymbolTable
 70
     0
  0
ENDTAB
  0
TABLE
  2
APPID
  5
1F
330
0
100
AcDbSymbolTable
 70
     1
  0
APPID
  5
20
330
1F
100
AcDbSymbolTableRecord
100
AcDbRegAppTableRecord
  2
ACAD
 70
     0
  0
ENDTAB
  0
TABLE
  2
DIMSTYLE
  5
21
330
0
100
AcDbSymbolTable
 70
     1
100
AcDbDimStyleTable
  0
DIMSTYLE
105
29
330
21
100
AcDbSymbolTableRecord
100
AcDbDimStyleTableRecord
  2
STANDARD
 70
     0
  3

  4

340
16
  0
ENDTAB
  0
TABLE
  2
BLOCK_RECORD
  5
1
330
0
100
AcDbSymbolTable
 70
     0
  0
BLOCK_RECORD
  5
2
330
1
100
AcDbSymbolTableRecord
100
AcDbBlockTableRecord
  2
*MODEL_SPACE
340
C
  0
BLOCK_RECORD
  5
E
330
1
100
AcDbSymbolTableRecord
100
AcDbBlockTableRecord
  2
*PAPER_SPACE
340
13
  0
ENDTAB
  0
ENDSEC
  0
SECTION
  2
BLOCKS
  0
BLOCK
  5
5
330
2
100
AcDbEntity
  8
0
100
AcDbBlockBegin
  2
*MODEL_SPACE
 70
     0
 10
0.0
 20
0.0
 30
0.0
  3
*MODEL_SPACE
  1

  4

  0
ENDBLK
  5
B
330
2
100
AcDbEntity
  8
0
100
AcDbBlockEnd
  0
BLOCK
  5
11
330
E
100
AcDbEntity
 67
     1
  8
0
100
AcDbBlockBegin
  2
*PAPER_SPACE
 70
     0
 10
0.0
 20
0.0
 30
0.0
  3
*PAPER_SPACE
  1

  4

  0
ENDBLK
  5
12
330
E
100
AcDbEntity
 67
     1
  8
0
100
AcDbBlockEnd
  0
ENDSEC
  0
SECTION
  2
ENTITIES
  0
LINE
  5
12B
330
2
100
AcDbEntity
  8
0
100
AcDbLine
 10
-1.309347367742303
 20
0.0
 30
0.0
 11
1.309347367742304
 21
0.0
 31
0.0
  0
LINE
  5
12C
330
2
100
AcDbEntity
  8
0
100
AcDbLine
 10
-1.309347367742303
 20
0.358409152026276
 30
0.0
 11
1.309347367742304
 21
0.3584091520262795
 31
0.0
  0
LINE
  5
12D
330
2
100
AcDbEntity
  8
0
100
AcDbLine
 10
-1.74159545715614
 20
0.5541992090873178
 30
0.0
 11
-1.741202182371739
 21
-0.1957900570610418
 31
0.0
  0
LINE
  5
12E
330
2
100
AcDbEntity
  8
0
100
AcDbLine
 10
-1.384304477542609
 20
-0.3407954239868616
 30
0.0
 11
-1.384458886551971
 21
0.6992045760131376
 31
0.0
  0
LINE
  5
12F
330
2
100
AcDbEntity
  8
0
100
AcDbLine
 10
-1.430209581555937
 20
-0.3407954239868616
 30
0.0
 11
-1.430209581555937
 21
0.6992045760131376
 31
0.0
  0
LINE
  5
130
330
2
100
AcDbEntity
  8
0
100
AcDbLine
 10
-1.696828380814779
 20
-0.0704486017664969
 30
0.0
 11
-1.430209581555937
 21
-0.0704486017664969
 31
0.0
  0
LINE
  5
131
330
2
100
AcDbEntity
  8
0
100
AcDbLine
 10
-1.69682838081479
 20
-0.3211315123555902
 30
0.0
 11
-1.430209581555937
 21
-0.3211315123555902
 31
0.0
  0
ARC
  5
132
330
2
100
AcDbEntity
  8
0
100
AcDbCircle
 10
-1.541991003031168
 20
-0.1957900570610507
 30
0.0
 40
0.1992111793405715
100
AcDbArc
 50
141.0096964071942
 51
218.9903035928007
  0
ARC
  5
133
330
2
100
AcDbEntity
  8
0
100
AcDbCircle
 10
0.030084884880937
 20
0.3871755951940648
 30
0.0
 40
1.786518774846668
100
AcDbArc
 50
188.3944971175601
 51
194.8419846771759
  0
LINE
  5
134
330
2
100
AcDbEntity
  8
0
100
AcDbLine
 10
-1.43020666205102
 20
-0.3407954239868616
 30
0.0
 11
-1.384304477542609
 21
-0.3407954239868616
 31
0.0
  0
ARC
  5
135
330
2
100
AcDbEntity
  8
0
100
AcDbCircle
 10
-1.309347367742302
 20
-0.0750000000000002
 30
0.0
 40
0.075
100
AcDbArc
 50
90.00000000000053
 51
180.008506715856
  0
LINE
  5
136
330
2
100
AcDbEntity
  8
0
100
AcDbLine
 10
-1.69682838081479
 20
0.6795406643818671
 30
0.0
 11
-1.430209581555937
 21
0.6795406643818671
 31
0.0
  0
LINE
  5
137
330
2
100
AcDbEntity
  8
0
100
AcDbLine
 10
-1.696828380814779
 20
0.4288577537927729
 30
0.0
 11
-1.430209581555937
 21
0.4288577537927729
 31
0.0
  0
ARC
  5
138
330
2
100
AcDbEntity
  8
0
100
AcDbCircle
 10
-1.543742782967281
 20
0.5541992090873258
 30
0.0
 40
0.1978526741888584
100
AcDbArc
 50
140.690510632038
 51
219.3094893679666
  0
ARC
  5
139
330
2
100
AcDbEntity
  8
0
100
AcDbCircle
 10
0.8114617954616641
 20
-0.1960281763819669
 30
0.0
 40
2.584956872780523
100
AcDbArc
 50
166.0107759245514
 51
170.242496603314
  0
ARC
  5
13A
330
2
100
AcDbEntity
  8
0
100
AcDbCircle
 10
-1.309347367742302
 20
0.4334091520262762
 30
0.0
 40
0.075
100
AcDbArc
 50
179.991493284144
 51
269.9999999999995
  0
LINE
  5
13B
330
2
100
AcDbEntity
  8
0
100
AcDbLine
 10
-1.430212501060856
 20
0.6992045760131376
 30
0.0
 11
-1.384458886551971
 21
0.6992045760131376
 31
0.0
  0
LINE
  5
13C
330
2
100
AcDbEntity
  8
0
100
AcDbLine
 10
2.437205332067396
 20
0.0720000000003616
 30
0.0
 11
2.391115133536303
 21
0.2864091520266285
 31
0.0
  0
LINE
  5
13D
330
2
100
AcDbEntity
  8
0
100
AcDbLine
 10
2.391115133536321
 20
0.2864091520266854
 30
0.0
 11
2.411267064680679
 21
0.3566877154250712
 31
0.0
  0
LINE
  5
13E
330
2
100
AcDbEntity
  8
0
100
AcDbLine
 10
2.374333322897382
 20
0.0720000000003971
 30
0.0
 11
2.417291877115126
 21
0.0017214366020113
 31
0.0
  0
LINE
  5
13F
330
2
100
AcDbEntity
  8
0
100
AcDbLine
 10
2.348156579318538
 20
0.3566877154251067
 30
0.0
 11
2.415935025344457
 21
0.0000000000003908
 31
0.0
  0
LINE
  5
140
330
2
100
AcDbEntity
  8
0
100
AcDbLine
 10
2.374094846705255
 20
0.0720000000003971
 30
0.0
 11
2.328004648174161
 21
0.2864091520266641
 31
0.0
  0
LINE
  5
141
330
2
100
AcDbEntity
  8
0
100
AcDbLine
 10
2.310984361343135
 20
0.0720000000003402
 30
0.0
 11
2.264894162812041
 21
0.2864091520266072
 31
0.0
  0
LINE
  5
142
330
2
100
AcDbEntity
  8
0
100
AcDbLine
 10
2.058542419894625
 20
0.0720000000002052
 30
0.0
 11
2.012452221363532
 21
0.2864091520264722
 31
0.0
  0
LINE
  5
143
330
2
100
AcDbEntity
  8
0
100
AcDbLine
 10
1.995431934532483
 20
0.0720000000002408
 30
0.0
 11
1.94934173600139
 21
0.2864091520265077
 31
0.0
  0
LINE
  5
144
330
2
100
AcDbEntity
  8
0
100
AcDbLine
 10
2.121652905256749
 20
0.0720000000002621
 30
0.0
 11
2.075562706725656
 21
0.2864091520265291
 31
0.0
  0
LINE
  5
145
330
2
100
AcDbEntity
  8
0
100
AcDbLine
 10
2.184763390618869
 20
0.0720000000003189
 30
0.0
 11
2.138673192087776
 21
0.2864091520265859
 31
0.0
  0
LINE
  5
146
330
2
100
AcDbEntity
  8
0
100
AcDbLine
 10
2.247873875981011
 20
0.0720000000002834
 30
0.0
 11
2.201783677449917
 21
0.2864091520265504
 31
0.0
  0
LINE
  5
147
330
2
100
AcDbEntity
  8
0
100
AcDbLine
 10
1.969493667145766
 20
0.3566877154249504
 30
0.0
 11
2.037272113171685
 21
0.0000000000002345
 31
0.0
  0
LINE
  5
148
330
2
100
AcDbEntity
  8
0
100
AcDbLine
 10
2.032604152507908
 20
0.3566877154249148
 30
0.0
 11
2.100382598533827
 21
0.000000000000199
 31
0.0
  0
LINE
  5
149
330
2
100
AcDbEntity
  8
0
100
AcDbLine
 10
2.095714637870032
 20
0.3566877154249717
 30
0.0
 11
2.163493083895951
 21
0.0000000000002558
 31
0.0
  0
LINE
  5
14A
330
2
100
AcDbEntity
  8
0
100
AcDbLine
 10
2.285046093956417
 20
0.3566877154250498
 30
0.0
 11
2.352824539982336
 21
0.000000000000334
 31
0.0
  0
LINE
  5
14B
330
2
100
AcDbEntity
  8
0
100
AcDbLine
 10
2.221935608594293
 20
0.356687715424993
 30
0.0
 11
2.289714054620212
 21
0.0000000000002771
 31
0.0
  0
LINE
  5
14C
330
2
100
AcDbEntity
  8
0
100
AcDbLine
 10
2.158825123232152
 20
0.3566877154250285
 30
0.0
 11
2.226603569258071
 21
0.0000000000003126
 31
0.0
  0
LINE
  5
14D
330
2
100
AcDbEntity
  8
0
100
AcDbLine
 10
1.806100478446099
 20
0.0720000000001626
 30
0.0
 11
1.760010279915005
 21
0.2864091520264296
 31
0.0
  0
LINE
  5
14E
330
2
100
AcDbEntity
  8
0
100
AcDbLine
 10
1.742989993083977
 20
0.0720000000001058
 30
0.0
 11
1.696899794552883
 21
0.2864091520263727
 31
0.0
  0
LINE
  5
14F
330
2
100
AcDbEntity
  8
0
100
AcDbLine
 10
1.86921096380824
 20
0.0720000000001271
 30
0.0
 11
1.823120765277147
 21
0.2864091520263941
 31
0.0
  0
LINE
  5
150
330
2
100
AcDbEntity
  8
0
100
AcDbLine
 10
1.427437566273327
 20
0.0720000000000063
 30
0.0
 11
1.381347367742234
 21
0.2864091520262733
 31
0.0
  0
LINE
  5
151
330
2
100
AcDbEntity
  8
0
100
AcDbLine
 10
1.490548051635469
 20
0.0719999999999708
 30
0.0
 11
1.444457853104376
 21
0.2864091520262377
 31
0.0
  0
LINE
  5
152
330
2
100
AcDbEntity
  8
0
100
AcDbLine
 10
1.553658536997591
 20
0.0720000000000276
 30
0.0
 11
1.507568338466498
 21
0.2864091520262946
 31
0.0
  0
LINE
  5
153
330
2
100
AcDbEntity
  8
0
100
AcDbLine
 10
1.616769022359713
 20
0.0720000000000844
 30
0.0
 11
1.57067882382862
 21
0.2864091520263514
 31
0.0
  0
LINE
  5
154
330
2
100
AcDbEntity
  8
0
100
AcDbLine
 10
1.679879507721855
 20
0.0720000000000489
 30
0.0
 11
1.633789309190761
 21
0.2864091520263159
 31
0.0
  0
LINE
  5
155
330
2
100
AcDbEntity
  8
0
100
AcDbLine
 10
1.309347367742306
 20
0.3584091520262795
 30
0.0
 11
1.309347367742304
 21
0.0
 31
0.0
  0
LINE
  5
156
330
2
100
AcDbEntity
  8
0
100
AcDbLine
 10
1.40149929888661
 20
0.3566877154247159
 30
0.0
 11
1.469277744912529
 21
0.0
 31
0.0
  0
LINE
  5
157
330
2
100
AcDbEntity
  8
0
100
AcDbLine
 10
1.464609784248752
 20
0.3566877154246804
 30
0.0
 11
1.532388230274671
 21
-0.0000000000000355
 31
0.0
  0
LINE
  5
158
330
2
100
AcDbEntity
  8
0
100
AcDbLine
 10
1.527720269610874
 20
0.3566877154247372
 30
0.0
 11
1.595498715636793
 21
0.0000000000000213
 31
0.0
  0
LINE
  5
159
330
2
100
AcDbEntity
  8
0
100
AcDbLine
 10
1.717051725697259
 20
0.3566877154248154
 30
0.0
 11
1.784830171723178
 21
0.0000000000000995
 31
0.0
  0
LINE
  5
15A
330
2
100
AcDbEntity
  8
0
100
AcDbLine
 10
1.653941240335137
 20
0.3566877154247585
 30
0.0
 11
1.721719686361056
 21
0.0000000000000426
 31
0.0
  0
LINE
  5
15B
330
2
100
AcDbEntity
  8
0
100
AcDbLine
 10
1.590830754972996
 20
0.3566877154247941
 30
0.0
 11
1.658609200998915
 21
0.0000000000000782
 31
0.0
  0
LINE
  5
15C
330
2
100
AcDbEntity
  8
0
100
AcDbLine
 10
1.843272696421523
 20
0.3566877154248367
 30
0.0
 11
1.911051142447442
 21
0.0000000000001208
 31
0.0
  0
LINE
  5
15D
330
2
100
AcDbEntity
  8
0
100
AcDbLine
 10
1.780162211059381
 20
0.3566877154248722
 30
0.0
 11
1.8479406570853
 21
0.0000000000001563
 31
0.0
  0
LINE
  5
15E
330
2
100
AcDbEntity
  8
0
100
AcDbLine
 10
1.906383181783645
 20
0.3566877154248935
 30
0.0
 11
1.974161627809565
 21
0.0000000000001776
 31
0.0
  0
LINE
  5
15F
330
2
100
AcDbEntity
  8
0
100
AcDbLine
 10
1.932321449170363
 20
0.0720000000001839
 30
0.0
 11
1.886231250639269
 21
0.2864091520264509
 31
0.0
  0
LINE
  5
160
330
2
100
AcDbEntity
  8
0
100
AcDbLine
 10
1.806338954638224
 20
0.0720000000001626
 30
0.0
 11
1.84929750885597
 21
0.0017214366017768
 31
0.0
  0
LINE
  5
161
330
2
100
AcDbEntity
  8
0
100
AcDbLine
 10
1.490786527827594
 20
0.0719999999999708
 30
0.0
 11
1.53374508204534
 21
0.001721436601585
 31
0.0
  0
LINE
  5
162
330
2
100
AcDbEntity
  8
0
100
AcDbLine
 10
1.381347367742303
 20
0.0720000000000063
 30
0.0
 11
1.427437566273327
 21
0.0720000000000063
 31
0.0
  0
LINE
  5
163
330
2
100
AcDbEntity
  8
0
100
AcDbLine
 10
1.309347367742304
 20
-0.0000000000000036
 30
0.0
 11
1.38134736774225
 21
0.0719999999999494
 31
0.0
  0
LINE
  5
164
330
2
100
AcDbEntity
  8
0
100
AcDbLine
 10
1.490786527827559
 20
0.0720000000000063
 30
0.0
 11
1.470634596683198
 21
0.0017214366016205
 31
0.0
  0
LINE
  5
165
330
2
100
AcDbEntity
  8
0
100
AcDbLine
 10
1.427676042465452
 20
0.0720000000000063
 30
0.0
 11
1.470634596683198
 21
0.0017214366016205
 31
0.0
  0
LINE
  5
166
330
2
100
AcDbEntity
  8
0
100
AcDbLine
 10
1.680117983913944
 20
0.0720000000000844
 30
0.0
 11
1.659966052769584
 21
0.0017214366016987
 31
0.0
  0
LINE
  5
167
330
2
100
AcDbEntity
  8
0
100
AcDbLine
 10
1.5538970131897
 20
0.0719999999999708
 30
0.0
 11
1.53374508204534
 21
0.001721436601585
 31
0.0
  0
LINE
  5
168
330
2
100
AcDbEntity
  8
0
100
AcDbLine
 10
1.617007498551822
 20
0.0720000000000276
 30
0.0
 11
1.596855567407462
 21
0.0017214366016418
 31
0.0
  0
LINE
  5
169
330
2
100
AcDbEntity
  8
0
100
AcDbLine
 10
1.553897013189716
 20
0.0720000000000276
 30
0.0
 11
1.596855567407462
 21
0.0017214366016418
 31
0.0
  0
LINE
  5
16A
330
2
100
AcDbEntity
  8
0
100
AcDbLine
 10
1.617007498551838
 20
0.0720000000000844
 30
0.0
 11
1.659966052769584
 21
0.0017214366016987
 31
0.0
  0
LINE
  5
16B
330
2
100
AcDbEntity
  8
0
100
AcDbLine
 10
1.743228469276102
 20
0.0720000000001058
 30
0.0
 11
1.786187023493848
 21
0.00172143660172
 31
0.0
  0
LINE
  5
16C
330
2
100
AcDbEntity
  8
0
100
AcDbLine
 10
1.806338954638208
 20
0.0720000000001058
 30
0.0
 11
1.786187023493848
 21
0.00172143660172
 31
0.0
  0
LINE
  5
16D
330
2
100
AcDbEntity
  8
0
100
AcDbLine
 10
1.68011798391398
 20
0.0720000000000489
 30
0.0
 11
1.723076538131726
 21
0.0017214366016631
 31
0.0
  0
LINE
  5
16E
330
2
100
AcDbEntity
  8
0
100
AcDbLine
 10
1.743228469276086
 20
0.0720000000000489
 30
0.0
 11
1.723076538131726
 21
0.0017214366016631
 31
0.0
  0
LINE
  5
16F
330
2
100
AcDbEntity
  8
0
100
AcDbLine
 10
2.121891381448858
 20
0.0720000000002052
 30
0.0
 11
2.101739450304496
 21
0.0017214366018194
 31
0.0
  0
LINE
  5
170
330
2
100
AcDbEntity
  8
0
100
AcDbLine
 10
1.932559925362487
 20
0.0720000000001839
 30
0.0
 11
1.975518479580234
 21
0.0017214366017981
 31
0.0
  0
LINE
  5
171
330
2
100
AcDbEntity
  8
0
100
AcDbLine
 10
1.869449440000365
 20
0.0720000000001271
 30
0.0
 11
1.912407994218111
 21
0.0017214366017413
 31
0.0
  0
LINE
  5
172
330
2
100
AcDbEntity
  8
0
100
AcDbLine
 10
1.86944944000033
 20
0.0720000000001626
 30
0.0
 11
1.84929750885597
 21
0.0017214366017768
 31
0.0
  0
LINE
  5
173
330
2
100
AcDbEntity
  8
0
100
AcDbLine
 10
1.932559925362472
 20
0.0720000000001271
 30
0.0
 11
1.912407994218111
 21
0.0017214366017413
 31
0.0
  0
LINE
  5
174
330
2
100
AcDbEntity
  8
0
100
AcDbLine
 10
2.058780896086716
 20
0.0720000000002408
 30
0.0
 11
2.038628964942355
 21
0.001721436601855
 31
0.0
  0
LINE
  5
175
330
2
100
AcDbEntity
  8
0
100
AcDbLine
 10
1.99567041072461
 20
0.0720000000002408
 30
0.0
 11
2.038628964942355
 21
0.001721436601855
 31
0.0
  0
LINE
  5
176
330
2
100
AcDbEntity
  8
0
100
AcDbLine
 10
2.058780896086752
 20
0.0720000000002052
 30
0.0
 11
2.101739450304496
 21
0.0017214366018194
 31
0.0
  0
LINE
  5
177
330
2
100
AcDbEntity
  8
0
100
AcDbLine
 10
1.995670410724593
 20
0.0720000000001839
 30
0.0
 11
1.975518479580234
 21
0.0017214366017981
 31
0.0
  0
LINE
  5
178
330
2
100
AcDbEntity
  8
0
100
AcDbLine
 10
2.248112352173138
 20
0.0720000000002834
 30
0.0
 11
2.291070906390882
 21
0.0017214366018976
 31
0.0
  0
LINE
  5
179
330
2
100
AcDbEntity
  8
0
100
AcDbLine
 10
2.185001866810978
 20
0.0720000000002621
 30
0.0
 11
2.16484993566662
 21
0.0017214366018763
 31
0.0
  0
LINE
  5
17A
330
2
100
AcDbEntity
  8
0
100
AcDbLine
 10
2.121891381448872
 20
0.0720000000002621
 30
0.0
 11
2.16484993566662
 21
0.0017214366018763
 31
0.0
  0
LINE
  5
17B
330
2
100
AcDbEntity
  8
0
100
AcDbLine
 10
2.185001866810996
 20
0.0720000000003189
 30
0.0
 11
2.22796042102874
 21
0.0017214366019331
 31
0.0
  0
LINE
  5
17C
330
2
100
AcDbEntity
  8
0
100
AcDbLine
 10
2.248112352173102
 20
0.0720000000003189
 30
0.0
 11
2.22796042102874
 21
0.0017214366019331
 31
0.0
  0
LINE
  5
17D
330
2
100
AcDbEntity
  8
0
100
AcDbLine
 10
2.311222837535258
 20
0.0720000000003402
 30
0.0
 11
2.354181391753006
 21
0.0017214366019545
 31
0.0
  0
LINE
  5
17E
330
2
100
AcDbEntity
  8
0
100
AcDbLine
 10
2.374333322897364
 20
0.0720000000003402
 30
0.0
 11
2.354181391753006
 21
0.0017214366019545
 31
0.0
  0
LINE
  5
17F
330
2
100
AcDbEntity
  8
0
100
AcDbLine
 10
2.311222837535244
 20
0.0720000000002834
 30
0.0
 11
2.291070906390882
 21
0.0017214366018976
 31
0.0
  0
LINE
  5
180
330
2
100
AcDbEntity
  8
0
100
AcDbLine
 10
1.823120765277127
 20
0.2864091520264864
 30
0.0
 11
1.780162211059381
 21
0.3566877154248722
 31
0.0
  0
LINE
  5
181
330
2
100
AcDbEntity
  8
0
100
AcDbLine
 10
1.57067882382862
 20
0.2864091520263514
 30
0.0
 11
1.527720269610874
 21
0.3566877154247372
 31
0.0
  0
LINE
  5
182
330
2
100
AcDbEntity
  8
0
100
AcDbLine
 10
1.444457853104356
 20
0.2864091520263301
 30
0.0
 11
1.40149929888661
 21
0.3566877154247159
 31
0.0
  0
LINE
  5
183
330
2
100
AcDbEntity
  8
0
100
AcDbLine
 10
1.38134736774225
 20
0.2864091520263301
 30
0.0
 11
1.40149929888661
 21
0.3566877154247159
 31
0.0
  0
LINE
  5
184
330
2
100
AcDbEntity
  8
0
100
AcDbLine
 10
1.444457853104392
 20
0.2864091520262946
 30
0.0
 11
1.464609784248752
 21
0.3566877154246804
 31
0.0
  0
LINE
  5
185
330
2
100
AcDbEntity
  8
0
100
AcDbLine
 10
1.507568338466498
 20
0.2864091520262946
 30
0.0
 11
1.464609784248752
 21
0.3566877154246804
 31
0.0
  0
LINE
  5
186
330
2
100
AcDbEntity
  8
0
100
AcDbLine
 10
1.507568338466514
 20
0.2864091520263514
 30
0.0
 11
1.527720269610874
 21
0.3566877154247372
 31
0.0
  0
LINE
  5
187
330
2
100
AcDbEntity
  8
0
100
AcDbLine
 10
1.309347367742304
 20
0.3584091520262831
 30
0.0
 11
1.38134736774225
 21
0.2864091520263301
 31
0.0
  0
LINE
  5
188
330
2
100
AcDbEntity
  8
0
100
AcDbLine
 10
1.696899794552899
 20
0.2864091520264296
 30
0.0
 11
1.717051725697259
 21
0.3566877154248154
 31
0.0
  0
LINE
  5
189
330
2
100
AcDbEntity
  8
0
100
AcDbLine
 10
1.760010279915005
 20
0.2864091520264296
 30
0.0
 11
1.717051725697259
 21
0.3566877154248154
 31
0.0
  0
LINE
  5
18A
330
2
100
AcDbEntity
  8
0
100
AcDbLine
 10
1.696899794552883
 20
0.2864091520263727
 30
0.0
 11
1.653941240335137
 21
0.3566877154247585
 31
0.0
  0
LINE
  5
18B
330
2
100
AcDbEntity
  8
0
100
AcDbLine
 10
1.633789309190777
 20
0.2864091520263727
 30
0.0
 11
1.653941240335137
 21
0.3566877154247585
 31
0.0
  0
LINE
  5
18C
330
2
100
AcDbEntity
  8
0
100
AcDbLine
 10
1.570678823828636
 20
0.2864091520264083
 30
0.0
 11
1.590830754972996
 21
0.3566877154247941
 31
0.0
  0
LINE
  5
18D
330
2
100
AcDbEntity
  8
0
100
AcDbLine
 10
1.633789309190742
 20
0.2864091520264083
 30
0.0
 11
1.590830754972996
 21
0.3566877154247941
 31
0.0
  0
LINE
  5
18E
330
2
100
AcDbEntity
  8
0
100
AcDbLine
 10
1.760010279915021
 20
0.2864091520264864
 30
0.0
 11
1.780162211059381
 21
0.3566877154248722
 31
0.0
  0
LINE
  5
18F
330
2
100
AcDbEntity
  8
0
100
AcDbLine
 10
2.138673192087776
 20
0.2864091520265859
 30
0.0
 11
2.095714637870032
 21
0.3566877154249717
 31
0.0
  0
LINE
  5
190
330
2
100
AcDbEntity
  8
0
100
AcDbLine
 10
2.012452221363514
 20
0.2864091520265646
 30
0.0
 11
1.969493667145766
 21
0.3566877154249504
 31
0.0
  0
LINE
  5
191
330
2
100
AcDbEntity
  8
0
100
AcDbLine
 10
1.949341736001408
 20
0.2864091520265646
 30
0.0
 11
1.969493667145766
 21
0.3566877154249504
 31
0.0
  0
LINE
  5
192
330
2
100
AcDbEntity
  8
0
100
AcDbLine
 10
2.012452221363549
 20
0.2864091520265291
 30
0.0
 11
2.032604152507908
 21
0.3566877154249148
 31
0.0
  0
LINE
  5
193
330
2
100
AcDbEntity
  8
0
100
AcDbLine
 10
2.075562706725656
 20
0.2864091520265291
 30
0.0
 11
2.032604152507908
 21
0.3566877154249148
 31
0.0
  0
LINE
  5
194
330
2
100
AcDbEntity
  8
0
100
AcDbLine
 10
2.07556270672567
 20
0.2864091520265859
 30
0.0
 11
2.095714637870032
 21
0.3566877154249717
 31
0.0
  0
LINE
  5
195
330
2
100
AcDbEntity
  8
0
100
AcDbLine
 10
1.886231250639285
 20
0.2864091520265077
 30
0.0
 11
1.906383181783645
 21
0.3566877154248935
 31
0.0
  0
LINE
  5
196
330
2
100
AcDbEntity
  8
0
100
AcDbLine
 10
1.886231250639269
 20
0.2864091520264509
 30
0.0
 11
1.843272696421523
 21
0.3566877154248367
 31
0.0
  0
LINE
  5
197
330
2
100
AcDbEntity
  8
0
100
AcDbLine
 10
1.823120765277163
 20
0.2864091520264509
 30
0.0
 11
1.843272696421523
 21
0.3566877154248367
 31
0.0
  0
LINE
  5
198
330
2
100
AcDbEntity
  8
0
100
AcDbLine
 10
1.94934173600139
 20
0.2864091520265077
 30
0.0
 11
1.906383181783645
 21
0.3566877154248935
 31
0.0
  0
LINE
  5
199
330
2
100
AcDbEntity
  8
0
100
AcDbLine
 10
2.391115133536285
 20
0.2864091520267209
 30
0.0
 11
2.348156579318538
 21
0.3566877154251067
 31
0.0
  0
LINE
  5
19A
330
2
100
AcDbEntity
  8
0
100
AcDbLine
 10
2.328004648174179
 20
0.2864091520267209
 30
0.0
 11
2.348156579318538
 21
0.3566877154251067
 31
0.0
  0
LINE
  5
19B
330
2
100
AcDbEntity
  8
0
100
AcDbLine
 10
2.264894162812055
 20
0.2864091520266641
 30
0.0
 11
2.285046093956417
 21
0.3566877154250498
 31
0.0
  0
LINE
  5
19C
330
2
100
AcDbEntity
  8
0
100
AcDbLine
 10
2.328004648174161
 20
0.2864091520266641
 30
0.0
 11
2.285046093956417
 21
0.3566877154250498
 31
0.0
  0
LINE
  5
19D
330
2
100
AcDbEntity
  8
0
100
AcDbLine
 10
2.264894162812041
 20
0.2864091520266072
 30
0.0
 11
2.221935608594293
 21
0.356687715424993
 31
0.0
  0
LINE
  5
19E
330
2
100
AcDbEntity
  8
0
100
AcDbLine
 10
2.201783677449935
 20
0.2864091520266072
 30
0.0
 11
2.221935608594293
 21
0.356687715424993
 31
0.0
  0
LINE
  5
19F
330
2
100
AcDbEntity
  8
0
100
AcDbLine
 10
2.138673192087794
 20
0.2864091520266427
 30
0.0
 11
2.158825123232152
 21
0.3566877154250285
 31
0.0
  0
LINE
  5
1A0
330
2
100
AcDbEntity
  8
0
100
AcDbLine
 10
2.2017836774499
 20
0.2864091520266427
 30
0.0
 11
2.158825123232152
 21
0.3566877154250285
 31
0.0
  0
LINE
  5
1A1
330
2
100
AcDbEntity
  8
0
100
AcDbLine
 10
3.068458757112749
 20
0.222748202701073
 30
0.0
 11
3.068310185688677
 21
0.0720000000006529
 31
0.0
  0
LINE
  5
1A2
330
2
100
AcDbEntity
  8
0
100
AcDbLine
 10
2.942089214964412
 20
0.0720000000006316
 30
0.0
 11
2.895999016433319
 21
0.2864091520268985
 31
0.0
  0
LINE
  5
1A3
330
2
100
AcDbEntity
  8
0
100
AcDbLine
 10
2.878978729602292
 20
0.0720000000005747
 30
0.0
 11
2.832888531071198
 21
0.2864091520268417
 31
0.0
  0
LINE
  5
1A4
330
2
100
AcDbEntity
  8
0
100
AcDbLine
 10
3.005199700326553
 20
0.072000000000596
 30
0.0
 11
2.95910950179546
 21
0.286409152026863
 31
0.0
  0
LINE
  5
1A5
330
2
100
AcDbEntity
  8
0
100
AcDbLine
 10
2.689647273515906
 20
0.0720000000004966
 30
0.0
 11
2.643557074984813
 21
0.2864091520267635
 31
0.0
  0
LINE
  5
1A6
330
2
100
AcDbEntity
  8
0
100
AcDbLine
 10
2.626536788153782
 20
0.0720000000004397
 30
0.0
 11
2.580446589622689
 21
0.2864091520267067
 31
0.0
  0
LINE
  5
1A7
330
2
100
AcDbEntity
  8
0
100
AcDbLine
 10
2.56342630279164
 20
0.0720000000004752
 30
0.0
 11
2.517336104260547
 21
0.2864091520267422
 31
0.0
  0
LINE
  5
1A8
330
2
100
AcDbEntity
  8
0
100
AcDbLine
 10
2.752757758878026
 20
0.0720000000005534
 30
0.0
 11
2.706667560346933
 21
0.2864091520268204
 31
0.0
  0
LINE
  5
1A9
330
2
100
AcDbEntity
  8
0
100
AcDbLine
 10
2.815868244240168
 20
0.0720000000005179
 30
0.0
 11
2.769778045709074
 21
0.2864091520267849
 31
0.0
  0
LINE
  5
1AA
330
2
100
AcDbEntity
  8
0
100
AcDbLine
 10
2.50031581742952
 20
0.0720000000004184
 30
0.0
 11
2.454225618898427
 21
0.2864091520266854
 31
0.0
  0
LINE
  5
1AB
330
2
100
AcDbEntity
  8
0
100
AcDbLine
 10
2.663709006129189
 20
0.3566877154252062
 30
0.0
 11
2.731487452155108
 21
0.0000000000004903
 31
0.0
  0
LINE
  5
1AC
330
2
100
AcDbEntity
  8
0
100
AcDbLine
 10
2.537488035404923
 20
0.3566877154251849
 30
0.0
 11
2.605266481430842
 21
0.000000000000469
 31
0.0
  0
LINE
  5
1AD
330
2
100
AcDbEntity
  8
0
100
AcDbLine
 10
2.600598520767065
 20
0.3566877154251493
 30
0.0
 11
2.668376966792984
 21
0.0000000000004334
 31
0.0
  0
LINE
  5
1AE
330
2
100
AcDbEntity
  8
0
100
AcDbLine
 10
2.411267064680679
 20
0.3566877154250712
 30
0.0
 11
2.479045510706598
 21
0.0000000000003553
 31
0.0
  0
LINE
  5
1AF
330
2
100
AcDbEntity
  8
0
100
AcDbLine
 10
2.474377550042803
 20
0.356687715425128
 30
0.0
 11
2.542155996068722
 21
0.0000000000004121
 31
0.0
  0
LINE
  5
1B0
330
2
100
AcDbEntity
  8
0
100
AcDbLine
 10
2.853040462215574
 20
0.3566877154252843
 30
0.0
 11
2.920818908241493
 21
0.0000000000005684
 31
0.0
  0
LINE
  5
1B1
330
2
100
AcDbEntity
  8
0
100
AcDbLine
 10
2.789929976853451
 20
0.3566877154252275
 30
0.0
 11
2.857708422879369
 21
0.0000000000005116
 31
0.0
  0
LINE
  5
1B2
330
2
100
AcDbEntity
  8
0
100
AcDbLine
 10
2.726819491491309
 20
0.356687715425263
 30
0.0
 11
2.794597937517228
 21
0.0000000000005471
 31
0.0
  0
LINE
  5
1B3
330
2
100
AcDbEntity
  8
0
100
AcDbLine
 10
2.983157770980963
 20
0.3361830270486861
 30
0.0
 11
3.040169314786871
 21
0.0361567132971325
 31
0.0
  0
LINE
  5
1B4
330
2
100
AcDbEntity
  8
0
100
AcDbLine
 10
2.916150947577695
 20
0.3566877154253412
 30
0.0
 11
2.980374795839895
 21
0.0187062617982212
 31
0.0
  0
LINE
  5
1B5
330
2
100
AcDbEntity
  8
0
100
AcDbLine
 10
3.068310185688677
 20
0.0720000000006529
 30
0.0
 11
3.022219987157584
 21
0.2864091520269199
 31
0.0
  0
LINE
  5
1B6
330
2
100
AcDbEntity
  8
0
100
AcDbLine
 10
2.942327691156539
 20
0.0720000000006316
 30
0.0
 11
2.975732265818209
 21
0.0173513843545621
 31
0.0
  0
LINE
  5
1B7
330
2
100
AcDbEntity
  8
0
100
AcDbLine
 10
2.689885749708015
 20
0.0720000000004397
 30
0.0
 11
2.669733818563653
 21
0.0017214366020539
 31
0.0
  0
LINE
  5
1B8
330
2
100
AcDbEntity
  8
0
100
AcDbLine
 10
2.500554293621644
 20
0.0720000000004184
 30
0.0
 11
2.543512847839391
 21
0.0017214366020326
 31
0.0
  0
LINE
  5
1B9
330
2
100
AcDbEntity
  8
0
100
AcDbLine
 10
2.437443808259488
 20
0.0720000000003971
 30
0.0
 11
2.417291877115126
 21
0.0017214366020113
 31
0.0
  0
LINE
  5
1BA
330
2
100
AcDbEntity
  8
0
100
AcDbLine
 10
2.500554293621629
 20
0.0720000000003616
 30
0.0
 11
2.480402362477268
 21
0.0017214366019758
 31
0.0
  0
LINE
  5
1BB
330
2
100
AcDbEntity
  8
0
100
AcDbLine
 10
2.437443808259523
 20
0.0720000000003616
 30
0.0
 11
2.480402362477268
 21
0.0017214366019758
 31
0.0
  0
LINE
  5
1BC
330
2
100
AcDbEntity
  8
0
100
AcDbLine
 10
2.626775264345874
 20
0.0720000000004752
 30
0.0
 11
2.606623333201512
 21
0.0017214366020895
 31
0.0
  0
LINE
  5
1BD
330
2
100
AcDbEntity
  8
0
100
AcDbLine
 10
2.563664778983767
 20
0.0720000000004752
 30
0.0
 11
2.606623333201512
 21
0.0017214366020895
 31
0.0
  0
LINE
  5
1BE
330
2
100
AcDbEntity
  8
0
100
AcDbLine
 10
2.626775264345909
 20
0.0720000000004397
 30
0.0
 11
2.669733818563653
 21
0.0017214366020539
 31
0.0
  0
LINE
  5
1BF
330
2
100
AcDbEntity
  8
0
100
AcDbLine
 10
2.56366477898375
 20
0.0720000000004184
 30
0.0
 11
2.543512847839391
 21
0.0017214366020326
 31
0.0
  0
LINE
  5
1C0
330
2
100
AcDbEntity
  8
0
100
AcDbLine
 10
2.816106720432295
 20
0.0720000000005179
 30
0.0
 11
2.859065274650039
 21
0.0017214366021321
 31
0.0
  0
LINE
  5
1C1
330
2
100
AcDbEntity
  8
0
100
AcDbLine
 10
2.752996235070135
 20
0.0720000000004966
 30
0.0
 11
2.732844303925777
 21
0.0017214366021108
 31
0.0
  0
LINE
  5
1C2
330
2
100
AcDbEntity
  8
0
100
AcDbLine
 10
2.689885749708029
 20
0.0720000000004966
 30
0.0
 11
2.732844303925777
 21
0.0017214366021108
 31
0.0
  0
LINE
  5
1C3
330
2
100
AcDbEntity
  8
0
100
AcDbLine
 10
2.752996235070153
 20
0.0720000000005534
 30
0.0
 11
2.795954789287897
 21
0.0017214366021676
 31
0.0
  0
LINE
  5
1C4
330
2
100
AcDbEntity
  8
0
100
AcDbLine
 10
2.816106720432259
 20
0.0720000000005534
 30
0.0
 11
2.795954789287897
 21
0.0017214366021676
 31
0.0
  0
LINE
  5
1C5
330
2
100
AcDbEntity
  8
0
100
AcDbLine
 10
2.879217205794415
 20
0.0720000000005747
 30
0.0
 11
2.922175760012163
 21
0.0017214366021889
 31
0.0
  0
LINE
  5
1C6
330
2
100
AcDbEntity
  8
0
100
AcDbLine
 10
2.942327691156521
 20
0.0720000000005747
 30
0.0
 11
2.922175760012163
 21
0.0017214366021889
 31
0.0
  0
LINE
  5
1C7
330
2
100
AcDbEntity
  8
0
100
AcDbLine
 10
2.879217205794401
 20
0.0720000000005179
 30
0.0
 11
2.859065274650039
 21
0.0017214366021321
 31
0.0
  0
LINE
  5
1C8
330
2
100
AcDbEntity
  8
0
100
AcDbLine
 10
3.029288771624225
 20
0.0329813321069272
 30
0.0
 11
3.059923962567352
 21
0.0419219160120674
 31
0.0
  0
LINE
  5
1C9
330
2
100
AcDbEntity
  8
0
100
AcDbLine
 10
2.975732265818209
 20
0.0173513843545621
 30
0.0
 11
2.991049861289733
 21
0.0218216763071206
 31
0.0
  0
LINE
  5
1CA
330
2
100
AcDbEntity
  8
0
100
AcDbLine
 10
3.00543817651868
 20
0.072000000000596
 30
0.0
 11
3.029288771624225
 21
0.0329813321069272
 31
0.0
  0
LINE
  5
1CB
330
2
100
AcDbEntity
  8
0
100
AcDbLine
 10
3.005438176518645
 20
0.0720000000006316
 30
0.0
 11
2.991049861289733
 21
0.0218216763071206
 31
0.0
  0
LINE
  5
1CC
330
2
100
AcDbEntity
  8
0
100
AcDbLine
 10
3.068548661880787
 20
0.072000000000596
 30
0.0
 11
3.059923962567352
 21
0.0419219160120674
 31
0.0
  0
LINE
  5
1CD
330
2
100
AcDbEntity
  8
0
100
AcDbLine
 10
2.959109501795478
 20
0.2864091520269199
 30
0.0
 11
2.974060423609481
 21
0.3385495299908419
 31
0.0
  0
LINE
  5
1CE
330
2
100
AcDbEntity
  8
0
100
AcDbLine
 10
2.706667560346933
 20
0.2864091520268204
 30
0.0
 11
2.663709006129189
 21
0.3566877154252062
 31
0.0
  0
LINE
  5
1CF
330
2
100
AcDbEntity
  8
0
100
AcDbLine
 10
2.580446589622671
 20
0.2864091520267991
 30
0.0
 11
2.537488035404923
 21
0.3566877154251849
 31
0.0
  0
LINE
  5
1D0
330
2
100
AcDbEntity
  8
0
100
AcDbLine
 10
2.580446589622707
 20
0.2864091520267635
 30
0.0
 11
2.600598520767065
 21
0.3566877154251493
 31
0.0
  0
LINE
  5
1D1
330
2
100
AcDbEntity
  8
0
100
AcDbLine
 10
2.643557074984813
 20
0.2864091520267635
 30
0.0
 11
2.600598520767065
 21
0.3566877154251493
 31
0.0
  0
LINE
  5
1D2
330
2
100
AcDbEntity
  8
0
100
AcDbLine
 10
2.643557074984827
 20
0.2864091520268204
 30
0.0
 11
2.663709006129189
 21
0.3566877154252062
 31
0.0
  0
LINE
  5
1D3
330
2
100
AcDbEntity
  8
0
100
AcDbLine
 10
2.517336104260565
 20
0.2864091520267991
 30
0.0
 11
2.537488035404923
 21
0.3566877154251849
 31
0.0
  0
LINE
  5
1D4
330
2
100
AcDbEntity
  8
0
100
AcDbLine
 10
2.454225618898427
 20
0.2864091520266854
 30
0.0
 11
2.411267064680679
 21
0.3566877154250712
 31
0.0
  0
LINE
  5
1D5
330
2
100
AcDbEntity
  8
0
100
AcDbLine
 10
2.454225618898441
 20
0.2864091520267422
 30
0.0
 11
2.474377550042803
 21
0.356687715425128
 31
0.0
  0
LINE
  5
1D6
330
2
100
AcDbEntity
  8
0
100
AcDbLine
 10
2.517336104260547
 20
0.2864091520267422
 30
0.0
 11
2.474377550042803
 21
0.356687715425128
 31
0.0
  0
LINE
  5
1D7
330
2
100
AcDbEntity
  8
0
100
AcDbLine
 10
2.832888531071212
 20
0.2864091520268985
 30
0.0
 11
2.853040462215574
 21
0.3566877154252843
 31
0.0
  0
LINE
  5
1D8
330
2
100
AcDbEntity
  8
0
100
AcDbLine
 10
2.895999016433319
 20
0.2864091520268985
 30
0.0
 11
2.853040462215574
 21
0.3566877154252843
 31
0.0
  0
LINE
  5
1D9
330
2
100
AcDbEntity
  8
0
100
AcDbLine
 10
2.832888531071198
 20
0.2864091520268417
 30
0.0
 11
2.789929976853451
 21
0.3566877154252275
 31
0.0
  0
LINE
  5
1DA
330
2
100
AcDbEntity
  8
0
100
AcDbLine
 10
2.769778045709092
 20
0.2864091520268417
 30
0.0
 11
2.789929976853451
 21
0.3566877154252275
 31
0.0
  0
LINE
  5
1DB
330
2
100
AcDbEntity
  8
0
100
AcDbLine
 10
2.706667560346951
 20
0.2864091520268772
 30
0.0
 11
2.726819491491309
 21
0.356687715425263
 31
0.0
  0
LINE
  5
1DC
330
2
100
AcDbEntity
  8
0
100
AcDbLine
 10
2.769778045709057
 20
0.2864091520268772
 30
0.0
 11
2.726819491491309
 21
0.356687715425263
 31
0.0
  0
LINE
  5
1DD
330
2
100
AcDbEntity
  8
0
100
AcDbLine
 10
2.895999016433336
 20
0.2864091520269554
 30
0.0
 11
2.916150947577695
 21
0.3566877154253412
 31
0.0
  0
LINE
  5
1DE
330
2
100
AcDbEntity
  8
0
100
AcDbLine
 10
2.959109501795442
 20
0.2864091520269554
 30
0.0
 11
2.916150947577695
 21
0.3566877154253412
 31
0.0
  0
LINE
  5
1DF
330
2
100
AcDbEntity
  8
0
100
AcDbLine
 10
3.022219987157598
 20
0.2864091520269767
 30
0.0
 11
3.032790199895539
 21
0.3232720889195306
 31
0.0
  0
LINE
  5
1E0
330
2
100
AcDbEntity
  8
0
100
AcDbLine
 10
3.022219987157584
 20
0.2864091520269199
 30
0.0
 11
2.993428238805441
 21
0.3335113589973906
 31
0.0
  0
LINE
  5
1E1
330
2
100
AcDbEntity
  8
0
100
AcDbLine
 10
3.049738836832589
 20
0.3188632214179146
 30
0.0
 11
3.068548661880787
 21
0.2222865982533318
 31
0.0
  0
LINE
  5
1E2
330
2
100
AcDbEntity
  8
0
100
AcDbLine
 10
3.032790199895539
 20
0.3232720889195306
 30
0.0
 11
3.049738836832589
 21
0.3188632214179146
 31
0.0
  0
LINE
  5
1E3
330
2
100
AcDbEntity
  8
0
100
AcDbLine
 10
2.974060423609481
 20
0.3385495299908419
 30
0.0
 11
2.993428238805441
 21
0.3335113589973906
 31
0.0
  0
LINE
  5
1E4
330
2
100
AcDbEntity
  8
0
100
AcDbLine
 10
3.068548661880787
 20
0.3138635569622279
 30
0.0
 11
3.06847114941281
 21
0.3139903644163855
 31
0.0
  0
CIRCLE
  5
1E5
330
2
100
AcDbEntity
  8
0
100
AcDbCircle
 10
-4.073202494865591
 20
0.179204576013138
 30
0.0
 40
0.52
  0
LWPOLYLINE
  5
1E6
330
2
100
AcDbEntity
  8
0
100
AcDbPolyline
 90
        6
 70
     1
 43
0.0
 10
-4.073202494865591
 20
0.6785109315724061
 10
-4.505614483050943
 20
0.4288577537927729
 10
-4.505614483050943
 20
-0.0704486017664969
 10
-4.073202494865591
 20
-0.3201017795461301
 10
-3.640790506680239
 20
-0.0704486017664969
 10
-3.640790506680237
 20
0.4288577537927729
  0
CIRCLE
  5
1E7
330
2
100
AcDbEntity
  8
0
100
AcDbCircle
 10
-4.073202494865591
 20
0.179204576013138
 30
0.0
 40
0.4324119881853523
  0
LINE
  5
1E8
330
2
100
AcDbEntity
  8
0
100
AcDbLine
 10
-4.401494939328762
 20
0.0920241783926947
 30
0.0
 11
-4.401494939328762
 21
0.2672193908696308
 31
0.0
  0
LINE
  5
1E9
330
2
100
AcDbEntity
  8
0
100
AcDbLine
 10
-4.267784302818694
 20
0.2234205877503968
 30
0.0
 11
-4.267784302818694
 21
0.1358229815119305
 31
0.0
  0
LINE
  5
1EA
330
2
100
AcDbEntity
  8
0
100
AcDbLine
 10
-3.873595074745586
 20
0.1358229815119305
 30
0.0
 11
-3.873595074745586
 21
0.2234205877503968
 31
0.0
  0
LINE
  5
1EB
330
2
100
AcDbEntity
  8
0
100
AcDbLine
 10
-3.74451289254025
 20
0.2672193908696308
 30
0.0
 11
-3.74451289254025
 21
0.0920241783926947
 31
0.0
  0
CIRCLE
  5
1EC
330
2
100
AcDbEntity
  8
0
100
AcDbCircle
 10
-4.073202494865591
 20
0.179204576013138
 30
0.0
 40
0.3978861909715531
  0
LINE
  5
1ED
330
2
100
AcDbEntity
  8
0
100
AcDbLine
 10
-3.873595074745586
 20
0.1358229815119305
 30
0.0
 11
-3.980092623854112
 21
0.0784518960769667
 31
0.0
  0
LINE
  5
1EE
330
2
100
AcDbEntity
  8
0
100
AcDbLine
 10
-3.74451289254025
 20
0.0920241783926947
 30
0.0
 11
-3.949122193160648
 21
0.0474814653835036
 31
0.0
  0
LINE
  5
1EF
330
2
100
AcDbEntity
  8
0
100
AcDbLine
 10
-4.196885638708368
 20
0.0474814653835036
 30
0.0
 11
-4.165915208014902
 21
0.0784518960769667
 31
0.0
  0
LINE
  5
1F0
330
2
100
AcDbEntity
  8
0
100
AcDbLine
 10
-4.165915208014902
 20
0.0784518960769667
 30
0.0
 11
-4.267784302818694
 21
0.1358229815119305
 31
0.0
  0
LINE
  5
1F1
330
2
100
AcDbEntity
  8
0
100
AcDbLine
 10
-4.158287295020609
 20
-0.1571278352368939
 30
0.0
 11
-4.196885638708368
 21
0.0474814653835036
 31
0.0
  0
LINE
  5
1F2
330
2
100
AcDbEntity
  8
0
100
AcDbLine
 10
-4.267784302818694
 20
0.1358229815119305
 30
0.0
 11
-4.401494939328762
 21
0.0920241783926947
 31
0.0
  0
LINE
  5
1F3
330
2
100
AcDbEntity
  8
0
100
AcDbLine
 10
-4.196885638708368
 20
0.0474814653835036
 30
0.0
 11
-4.401494939328762
 21
0.0920241783926947
 31
0.0
  0
LINE
  5
1F4
330
2
100
AcDbEntity
  8
0
100
AcDbLine
 10
-3.949122193160648
 20
0.0474814653835036
 30
0.0
 11
-3.983092082543671
 21
-0.1571278352368939
 31
0.0
  0
LINE
  5
1F5
330
2
100
AcDbEntity
  8
0
100
AcDbLine
 10
-4.116100891143907
 20
-0.02804565303156
 30
0.0
 11
-4.165915208014902
 21
0.0784518960769667
 31
0.0
  0
LINE
  5
1F6
330
2
100
AcDbEntity
  8
0
100
AcDbLine
 10
-3.980092623854112
 20
0.0784518960769667
 30
0.0
 11
-4.029906940725105
 21
-0.02804565303156
 31
0.0
  0
LINE
  5
1F7
330
2
100
AcDbEntity
  8
0
100
AcDbLine
 10
-4.116100891143907
 20
-0.02804565303156
 30
0.0
 11
-4.029906940725105
 21
-0.02804565303156
 31
0.0
  0
LINE
  5
1F8
330
2
100
AcDbEntity
  8
0
100
AcDbLine
 10
-3.983092082543671
 20
-0.1571278352368939
 30
0.0
 11
-4.158287295020609
 21
-0.1571278352368939
 31
0.0
  0
LINE
  5
1F9
330
2
100
AcDbEntity
  8
0
100
AcDbLine
 10
-4.158287295020609
 20
-0.1571278352368939
 30
0.0
 11
-4.116100891143907
 21
-0.02804565303156
 31
0.0
  0
LINE
  5
1FA
330
2
100
AcDbEntity
  8
0
100
AcDbLine
 10
-4.029906940725105
 20
-0.02804565303156
 30
0.0
 11
-3.983092082543671
 21
-0.1571278352368939
 31
0.0
  0
LINE
  5
1FB
330
2
100
AcDbEntity
  8
0
100
AcDbLine
 10
-3.980092623854112
 20
0.0784518960769667
 30
0.0
 11
-3.949122193160648
 21
0.0474814653835036
 31
0.0
  0
LINE
  5
1FC
330
2
100
AcDbEntity
  8
0
100
AcDbLine
 10
-3.74451289254025
 20
0.0920241783926947
 30
0.0
 11
-3.873595074745586
 21
0.1358229815119305
 31
0.0
  0
LINE
  5
1FD
330
2
100
AcDbEntity
  8
0
100
AcDbLine
 10
-3.980092623854112
 20
0.2642744802377575
 30
0.0
 11
-3.873595074745586
 21
0.2234205877503968
 31
0.0
  0
LINE
  5
1FE
330
2
100
AcDbEntity
  8
0
100
AcDbLine
 10
-3.949122193160648
 20
0.2952449109312223
 30
0.0
 11
-3.74451289254025
 21
0.2672193908696308
 31
0.0
  0
LINE
  5
1FF
330
2
100
AcDbEntity
  8
0
100
AcDbLine
 10
-3.983092082543671
 20
0.4998542115516163
 30
0.0
 11
-3.949122193160648
 21
0.2952449109312223
 31
0.0
  0
LINE
  5
200
330
2
100
AcDbEntity
  8
0
100
AcDbLine
 10
-4.114488491901373
 20
0.3661435750415478
 30
0.0
 11
-4.158287295020609
 21
0.4998542115516163
 31
0.0
  0
LINE
  5
201
330
2
100
AcDbEntity
  8
0
100
AcDbLine
 10
-4.196885638708368
 20
0.2952449109312223
 30
0.0
 11
-4.158287295020609
 21
0.4998542115516163
 31
0.0
  0
LINE
  5
202
330
2
100
AcDbEntity
  8
0
100
AcDbLine
 10
-3.983092082543671
 20
0.4998542115516163
 30
0.0
 11
-4.026890885662905
 21
0.3661435750415478
 31
0.0
  0
LINE
  5
203
330
2
100
AcDbEntity
  8
0
100
AcDbLine
 10
-4.196885638708368
 20
0.2952449109312223
 30
0.0
 11
-4.172109294153596
 21
0.270468566376449
 31
0.0
  0
LINE
  5
204
330
2
100
AcDbEntity
  8
0
100
AcDbLine
 10
-4.267784302818694
 20
0.2234205877503968
 30
0.0
 11
-4.165915208014902
 21
0.2642744802377575
 31
0.0
  0
LINE
  5
205
330
2
100
AcDbEntity
  8
0
100
AcDbLine
 10
-4.401494939328762
 20
0.2672193908696308
 30
0.0
 11
-4.267784302818694
 21
0.2234205877503968
 31
0.0
  0
LINE
  5
206
330
2
100
AcDbEntity
  8
0
100
AcDbLine
 10
-4.401494939328762
 20
0.2672193908696308
 30
0.0
 11
-4.196885638708368
 21
0.2952449109312223
 31
0.0
  0
LINE
  5
207
330
2
100
AcDbEntity
  8
0
100
AcDbLine
 10
-4.165915208014902
 20
0.2642744802377575
 30
0.0
 11
-4.114488491901373
 21
0.3661435750415478
 31
0.0
  0
LINE
  5
208
330
2
100
AcDbEntity
  8
0
100
AcDbLine
 10
-4.026890885662905
 20
0.3661435750415478
 30
0.0
 11
-3.980092623854112
 21
0.2642744802377575
 31
0.0
  0
LINE
  5
209
330
2
100
AcDbEntity
  8
0
100
AcDbLine
 10
-3.980092623854112
 20
0.2642744802377575
 30
0.0
 11
-3.949122193160648
 21
0.2952449109312223
 31
0.0
  0
LINE
  5
20A
330
2
100
AcDbEntity
  8
0
100
AcDbLine
 10
-4.026890885662905
 20
0.3661435750415478
 30
0.0
 11
-4.114488491901373
 21
0.3661435750415478
 31
0.0
  0
LINE
  5
20B
330
2
100
AcDbEntity
  8
0
100
AcDbLine
 10
-4.158287295020609
 20
0.4998542115516163
 30
0.0
 11
-3.983092082543671
 21
0.4998542115516163
 31
0.0
  0
LINE
  5
20C
330
2
100
AcDbEntity
  8
0
100
AcDbLine
 10
-3.873595074745586
 20
0.2234205877503968
 30
0.0
 11
-3.74451289254025
 21
0.2672193908696308
 31
0.0
  0
ENDSEC
  0
SECTION
  2
OBJECTS
  0
DICTIONARY
  5
9
330
0
100
AcDbDictionary
281
     1
  3
ACAD_COLOR
350
210
  3
ACAD_GROUP
350
23
  3
ACAD_LAYOUT
350
D
  3
ACAD_MATERIAL
350
20F
  3
ACAD_MLINESTYLE
350
24
  3
ACAD_PLOTSETTINGS
350
25
  3
ACAD_PLOTSTYLENAME
350
8
  3
ACAD_TABLESTYLE
350
211
  3
ACDBHEADERROUNDTRIPXREC
350
227
  3
AcDbVariableDictionary
350
121
  0
DICTIONARY
  5
210
102
{ACAD_REACTORS
330
9
102
}
330
9
100
AcDbDictionary
281
     1
  0
DICTIONARY
  5
23
102
{ACAD_REACTORS
330
9
102
}
330
9
100
AcDbDictionary
281
     1
  0
DICTIONARY
  5
D
102
{ACAD_REACTORS
330
9
102
}
330
9
100
AcDbDictionary
281
     1
  3
Layout1
350
13
  3
Model
350
C
  0
DICTIONARY
  5
20F
102
{ACAD_REACTORS
330
9
102
}
330
9
100
AcDbDictionary
281
     1
  0
DICTIONARY
  5
24
102
{ACAD_REACTORS
330
9
102
}
330
9
100
AcDbDictionary
281
     1
  3
STANDARD
350
28
  0
DICTIONARY
  5
25
102
{ACAD_REACTORS
330
9
102
}
330
9
100
AcDbDictionary
281
     1
  0
ACDBDICTIONARYWDFLT
  5
8
102
{ACAD_REACTORS
330
9
102
}
330
9
100
AcDbDictionary
281
     1
  3
Normal
350
7
100
AcDbDictionaryWithDefault
340
7
  0
DICTIONARY
  5
211
102
{ACAD_REACTORS
330
9
102
}
330
9
100
AcDbDictionary
281
     1
  3
Standard
350
212
  0
DICTIONARY
  5
227
102
{ACAD_REACTORS
330
9
102
}
330
9
100
AcDbDictionary
281
     1
  3
COLORDICT
350
228
  3
MATERIALDICT
350
229
  0
DICTIONARY
  5
121
102
{ACAD_REACTORS
330
9
102
}
330
9
100
AcDbDictionary
281
     1
  3
CTABLESTYLE
350
224
  3
HIDETEXT
350
226
  0
LAYOUT
  5
13
102
{ACAD_REACTORS
330
D
102
}
102
{ACAD_XDICTIONARY
360
22A
102
}
330
D
100
AcDbPlotSettings
  1

  2
HP LaserJet 2100 Series PS
  4

  6

 40
0.0
 41
0.0
 42
0.0
 43
0.0
 44
0.0
 45
0.0
 46
0.0
 47
0.0
 48
0.0
 49
0.0
140
0.0
141
0.0
142
1.0
143
1.0
 70
   688
 72
     0
 73
     0
 74
     5
  7

 75
    16
147
1.0
148
0.0
149
0.0
100
AcDbLayout
  1
Layout1
 70
     0
 71
     1
 10
0.0
 20
0.0
 11
12.0
 21
9.0
 12
0.0
 22
0.0
 32
0.0
 14
1.000000000000000E+20
 24
1.000000000000000E+20
 34
1.000000000000000E+20
 15
-1.000000000000000E+20
 25
-1.000000000000000E+20
 35
-1.000000000000000E+20
146
0.0
 13
0.0
 23
0.0
 33
0.0
 16
1.0
 26
0.0
 36
0.0
 17
0.0
 27
1.0
 37
0.0
 76
     0
330
E
  0
LAYOUT
  5
C
102
{ACAD_REACTORS
330
D
102
}
102
{ACAD_XDICTIONARY
360
22C
102
}
330
D
100
AcDbPlotSettings
  1

  2
Client\cpatterson#\HP LaserJet 2200 Series PCL 6 [UPD:PCL4]
  4
Letter
  6

 40
5.873749732971191
 41
6.29707670211792
 42
8.413742065429688
 43
7.14373779296875
 44
215.8999938964844
 45
279.3999938964844
 46
0.0
 47
0.0
 48
0.0
 49
0.0
140
0.0
141
0.0
142
1.0
143
1.007874005259576
 70
 28336
 72
     0
 73
     1
 74
     2
  7

 75
     0
147
0.992187510325214
148
0.0
149
0.0
100
AcDbLayout
  1
Model
 70
     1
 71
     0
 10
0.0
 20
0.0
 11
12.0
 21
9.0
 12
0.0
 22
0.0
 32
0.0
 14
0.0
 24
0.0
 34
0.0
 15
0.0
 25
0.0
 35
0.0
146
0.0
 13
0.0
 23
0.0
 33
0.0
 16
1.0
 26
0.0
 36
0.0
 17
0.0
 27
1.0
 37
0.0
 76
     0
330
2
  0
MLINESTYLE
  5
28
102
{ACAD_REACTORS
330
24
102
}
330
24
100
AcDbMlineStyle
  2
STANDARD
 70
     0
  3

 62
   256
 51
90.0
 52
90.0
 71
     2
 49
0.5
 62
   256
  6
BYLAYER
 49
-0.5
 62
   256
  6
BYLAYER
  0
ACDBPLACEHOLDER
  5
7
102
{ACAD_REACTORS
330
8
102
}
330
8
  0
ACAD_PROXY_OBJECT
  5
212
102
{ACAD_REACTORS
330
211
102
}
330
211
100
AcDbProxyObject
 90
      499
 91
      549
 95
   983063
 70
     0
 93
     1841
310
4214DD185B99185C9928B81E85EB51B8AE3F2E07A17AD46E2B8FC02B5E8DC0F42B1CFD028000000C1008070000C3001FDFF8000000C1003FBFF000000182007F7FE00000030400FEFFC00000060801FDFF8000000C1003FBFF00000018200000000000000681FA0B0000001820100E000186003FBFF000000182007F7FE000
310
00030400FEFFC00000060801FDFF8000000C1003FBFF000000182007F7FE000000304000AD7A3703D0AC73F4160000003040201C00030C007F7FE00000030400FEFFC00000060801FDFF8000000C1003FBFF000000182007F7FE00000030400FEFFC000000608000
340
16
340
16
340
16
 94
        0
  0
XRECORD
  5
228
102
{ACAD_REACTORS
330
227
102
}
330
227
100
AcDbXrecord
340
210
  0
XRECORD
  5
229
102
{ACAD_REACTORS
330
227
102
}
330
227
100
AcDbXrecord
340
20F
  0
DICTIONARYVAR
  5
224
102
{ACAD_REACTORS
330
121
102
}
330
121
100
DictionaryVariables
280
     0
  1
STANDARD
  0
DICTIONARYVAR
  5
226
102
{ACAD_REACTORS
330
121
102
}
330
121
100
DictionaryVariables
280
     0
  1
0
  0
DICTIONARY
  5
22A
330
13
100
AcDbDictionary
280
     1
281
     1
  3
ACAD_XREC_ROUNDTRIP
360
22B
  0
DICTIONARY
  5
22C
330
C
100
AcDbDictionary
280
     1
281
     1
  3
ACAD_XREC_ROUNDTRIP
360
22D
  0
XRECORD
  5
22B
102
{ACAD_REACTORS
330
22A
102
}
330
22A
100
AcDbXrecord
102
SHADEPLOT
 70
     0
102
SHADEPLOTRESLEVEL
 70
     2
102
SHADEPLOTCUSTOMDPI
 70
   300
  0
XRECORD
  5
22D
102
{ACAD_REACTORS
330
22C
102
}
330
22C
100
AcDbXrecord
102
SHADEPLOT
 70
     0
102
SHADEPLOTRESLEVEL
 70
     2
102
SHADEPLOTCUSTOMDPI
 70
   300
  0
ENDSEC
  0
EOF
