  0
SECTION
  2
HEADER
  9
$ACADVER
  1
AC1015
  9
$ACADMAINTVER
 70
     6
  9
$DWGCODEPAGE
  3
ANSI_1252
  9
$INSBASE
 10
0.0
 20
0.0
 30
0.0
  9
$EXTMIN
 10
-0.4103113708956272
 20
-0.0572935953776343
 30
0.0
  9
$EXTMAX
 10
11.24848193889459
 20
7.253522151183397
 30
0.0
  9
$LIMMIN
 10
0.0
 20
0.0
  9
$LIMMAX
 10
26.25
 20
20.0
  9
$ORTHOMODE
 70
     1
  9
$REGENMODE
 70
     1
  9
$FILLMODE
 70
     1
  9
$QTEXTMODE
 70
     0
  9
$MIRRTEXT
 70
     0
  9
$LTSCALE
 40
0.5
  9
$ATTMODE
 70
     1
  9
$TEXTSIZE
 40
0.225
  9
$TRACEWID
 40
0.05
  9
$TEXTSTYLE
  7
STANDARD
  9
$CLAYER
  8
0
  9
$CELTYPE
  6
ByLayer
  9
$CECOLOR
 62
   256
  9
$CELTSCALE
 40
1.0
  9
$DISPSILH
 70
     0
  9
$DIMSCALE
 40
2.5
  9
$DIMASZ
 40
0.125
  9
$DIMEXO
 40
0.062
  9
$DIMDLI
 40
0.375
  9
$DIMRND
 40
0.0
  9
$DIMDLE
 40
0.0
  9
$DIMEXE
 40
0.08
  9
$DIMTP
 40
0.0
  9
$DIMTM
 40
0.0
  9
$DIMTXT
 40
0.09
  9
$DIMCEN
 40
-0.06
  9
$DIMTSZ
 40
0.0
  9
$DIMTOL
 70
     0
  9
$DIMLIM
 70
     0
  9
$DIMTIH
 70
     1
  9
$DIMTOH
 70
     1
  9
$DIMSE1
 70
     0
  9
$DIMSE2
 70
     0
  9
$DIMTAD
 70
     0
  9
$DIMZIN
 70
     0
  9
$DIMBLK
  1

  9
$DIMASO
 70
     0
  9
$DIMSHO
 70
     0
  9
$DIMPOST
  1

  9
$DIMAPOST
  1

  9
$DIMALT
 70
     0
  9
$DIMALTD
 70
     2
  9
$DIMALTF
 40
25.4
  9
$DIMLFAC
 40
1.0
  9
$DIMTOFL
 70
     0
  9
$DIMTVP
 40
0.0
  9
$DIMTIX
 70
     0
  9
$DIMSOXD
 70
     0
  9
$DIMSAH
 70
     0
  9
$DIMBLK1
  1

  9
$DIMBLK2
  1

  9
$DIMSTYLE
  2
Standard
  9
$DIMCLRD
 70
     0
  9
$DIMCLRE
 70
     0
  9
$DIMCLRT
 70
     0
  9
$DIMTFAC
 40
1.0
  9
$DIMGAP
 40
0.09
  9
$DIMJUST
 70
     0
  9
$DIMSD1
 70
     0
  9
$DIMSD2
 70
     0
  9
$DIMTOLJ
 70
     1
  9
$DIMTZIN
 70
     0
  9
$DIMALTZ
 70
     0
  9
$DIMALTTZ
 70
     0
  9
$DIMUPT
 70
     0
  9
$DIMDEC
 70
     5
  9
$DIMTDEC
 70
     5
  9
$DIMALTU
 70
     5
  9
$DIMALTTD
 70
     2
  9
$DIMTXSTY
  7
STANDARD
  9
$DIMAUNIT
 70
     0
  9
$DIMADEC
 70
     0
  9
$DIMALTRND
 40
0.0
  9
$DIMAZIN
 70
     0
  9
$DIMDSEP
 70
    46
  9
$DIMATFIT
 70
     3
  9
$DIMFRAC
 70
     0
  9
$DIMLDRBLK
  1

  9
$DIMLUNIT
 70
     5
  9
$DIMLWD
 70
    -2
  9
$DIMLWE
 70
    -2
  9
$DIMTMOVE
 70
     2
  9
$LUNITS
 70
     5
  9
$LUPREC
 70
     5
  9
$SKETCHINC
 40
0.1
  9
$FILLETRAD
 40
0.0
  9
$AUNITS
 70
     0
  9
$AUPREC
 70
     0
  9
$MENU
  1
qa
  9
$ELEVATION
 40
0.0
  9
$PELEVATION
 40
0.0
  9
$THICKNESS
 40
0.0
  9
$LIMCHECK
 70
     0
  9
$CHAMFERA
 40
0.0
  9
$CHAMFERB
 40
0.0
  9
$CHAMFERC
 40
0.0
  9
$CHAMFERD
 40
0.0
  9
$SKPOLY
 70
     0
  9
$TDCREATE
 40
2450597.832822338
  9
$TDUCREATE
 40
2450598.166155671
  9
$TDUPDATE
 40
2454176.741322049
  9
$TDUUPDATE
 40
2454177.074655382
  9
$TDINDWG
 40
0.0232419097
  9
$TDUSRTIMER
 40
0.0232419097
  9
$USRTIMER
 70
     1
  9
$ANGBASE
 50
0.0
  9
$ANGDIR
 70
     0
  9
$PDMODE
 70
     0
  9
$PDSIZE
 40
0.0
  9
$PLINEWID
 40
0.0
  9
$SPLFRAME
 70
     0
  9
$SPLINETYPE
 70
     6
  9
$SPLINESEGS
 70
     8
  9
$HANDSEED
  5
16F
  9
$SURFTAB1
 70
     6
  9
$SURFTAB2
 70
     6
  9
$SURFTYPE
 70
     6
  9
$SURFU
 70
     6
  9
$SURFV
 70
     6
  9
$UCSBASE
  2

  9
$UCSNAME
  2

  9
$UCSORG
 10
0.0
 20
0.0
 30
0.0
  9
$UCSXDIR
 10
1.0
 20
0.0
 30
0.0
  9
$UCSYDIR
 10
0.0
 20
1.0
 30
0.0
  9
$UCSORTHOREF
  2

  9
$UCSORTHOVIEW
 70
     0
  9
$UCSORGTOP
 10
0.0
 20
0.0
 30
0.0
  9
$UCSORGBOTTOM
 10
0.0
 20
0.0
 30
0.0
  9
$UCSORGLEFT
 10
0.0
 20
0.0
 30
0.0
  9
$UCSORGRIGHT
 10
0.0
 20
0.0
 30
0.0
  9
$UCSORGFRONT
 10
0.0
 20
0.0
 30
0.0
  9
$UCSORGBACK
 10
0.0
 20
0.0
 30
0.0
  9
$PUCSBASE
  2

  9
$PUCSNAME
  2

  9
$PUCSORG
 10
0.0
 20
0.0
 30
0.0
  9
$PUCSXDIR
 10
1.0
 20
0.0
 30
0.0
  9
$PUCSYDIR
 10
0.0
 20
1.0
 30
0.0
  9
$PUCSORTHOREF
  2

  9
$PUCSORTHOVIEW
 70
     0
  9
$PUCSORGTOP
 10
0.0
 20
0.0
 30
0.0
  9
$PUCSORGBOTTOM
 10
0.0
 20
0.0
 30
0.0
  9
$PUCSORGLEFT
 10
0.0
 20
0.0
 30
0.0
  9
$PUCSORGRIGHT
 10
0.0
 20
0.0
 30
0.0
  9
$PUCSORGFRONT
 10
0.0
 20
0.0
 30
0.0
  9
$PUCSORGBACK
 10
0.0
 20
0.0
 30
0.0
  9
$USERI1
 70
     0
  9
$USERI2
 70
     0
  9
$USERI3
 70
     0
  9
$USERI4
 70
     0
  9
$USERI5
 70
     0
  9
$USERR1
 40
0.0
  9
$USERR2
 40
0.0
  9
$USERR3
 40
0.0
  9
$USERR4
 40
0.0
  9
$USERR5
 40
0.0
  9
$WORLDVIEW
 70
     1
  9
$SHADEDGE
 70
     3
  9
$SHADEDIF
 70
    70
  9
$TILEMODE
 70
     1
  9
$MAXACTVP
 70
    16
  9
$PINSBASE
 10
0.0
 20
0.0
 30
0.0
  9
$PLIMCHECK
 70
     0
  9
$PEXTMIN
 10
1.000000000000000E+20
 20
1.000000000000000E+20
 30
1.000000000000000E+20
  9
$PEXTMAX
 10
-1.000000000000000E+20
 20
-1.000000000000000E+20
 30
-1.000000000000000E+20
  9
$PLIMMIN
 10
0.0
 20
0.0
  9
$PLIMMAX
 10
12.0
 20
9.0
  9
$UNITMODE
 70
     0
  9
$VISRETAIN
 70
     0
  9
$PLINEGEN
 70
     0
  9
$PSLTSCALE
 70
     0
  9
$TREEDEPTH
 70
  3020
  9
$CMLSTYLE
  2
Standard
  9
$CMLJUST
 70
     0
  9
$CMLSCALE
 40
1.0
  9
$PROXYGRAPHICS
 70
     1
  9
$MEASUREMENT
 70
     0
  9
$CELWEIGHT
370
    -1
  9
$ENDCAPS
280
     0
  9
$JOINSTYLE
280
     0
  9
$LWDISPLAY
290
     0
  9
$INSUNITS
 70
     0
  9
$HYPERLINKBASE
  1

  9
$STYLESHEET
  1

  9
$XEDIT
290
     1
  9
$CEPSNTYPE
380
     0
  9
$PSTYLEMODE
290
     1
  9
$FINGERPRINTGUID
  2
{5A559B11-D384-4381-803D-BC3FEC21C200}
  9
$VERSIONGUID
  2
{C88E6CE0-E519-42AC-9E02-9FE9BD819C45}
  9
$EXTNAMES
290
     1
  9
$PSVPSCALE
 40
0.0
  9
$OLESTARTUP
290
     0
  0
ENDSEC
  0
SECTION
  2
CLASSES
  0
CLASS
  1
ACDBDICTIONARYWDFLT
  2
AcDbDictionaryWithDefault
  3
AutoCAD 2000
 90
        0
280
     0
281
     0
  0
CLASS
  1
ACDBPLACEHOLDER
  2
AcDbPlaceHolder
  3
ObjectDBX Classes
 90
        0
280
     0
281
     0
  0
CLASS
  1
LAYOUT
  2
AcDbLayout
  3
ObjectDBX Classes
 90
        0
280
     0
281
     0
  0
CLASS
  1
DICTIONARYVAR
  2
AcDbDictionaryVar
  3
AutoCAD 2000
 90
        0
280
     0
281
     0
  0
CLASS
  1
TABLESTYLE
  2
AcDbTableStyle
  3
ObjectDBX Classes
 90
     2047
280
     1
281
     0
  0
ENDSEC
  0
SECTION
  2
TABLES
  0
TABLE
  2
VPORT
  5
19
330
0
100
AcDbSymbolTable
 70
     2
  0
VPORT
  5
160
330
19
100
AcDbSymbolTableRecord
100
AcDbViewportTableRecord
  2
*Active
 70
     0
 10
0.0
 20
0.0
 11
1.0
 21
1.0
 12
13.89988107343006
 22
7.553986511912797
 13
0.0
 23
0.0
 14
0.063
 24
0.063
 15
0.25
 25
0.25
 16
0.0
 26
0.0
 36
1.0
 17
0.0
 27
0.0
 37
0.0
 40
20.38118635406543
 41
1.814583333333333
 42
50.0
 43
0.0
 44
0.0
 50
0.0
 51
0.0
 71
     0
 72
   100
 73
     1
 74
     0
 75
     0
 76
     0
 77
     0
 78
     0
281
     0
 65
     1
110
0.0
120
0.0
130
0.0
111
1.0
121
0.0
131
0.0
112
0.0
122
1.0
132
0.0
 79
     0
146
0.0
  0
ENDTAB
  0
TABLE
  2
LTYPE
  5
14
330
0
100
AcDbSymbolTable
 70
     1
  0
LTYPE
  5
15
330
14
100
AcDbSymbolTableRecord
100
AcDbLinetypeTableRecord
  2
ByBlock
 70
     0
  3

 72
    65
 73
     0
 40
0.0
  0
LTYPE
  5
16
330
14
100
AcDbSymbolTableRecord
100
AcDbLinetypeTableRecord
  2
ByLayer
 70
     0
  3

 72
    65
 73
     0
 40
0.0
  0
LTYPE
  5
8
330
14
100
AcDbSymbolTableRecord
100
AcDbLinetypeTableRecord
  2
CONTINUOUS
 70
     0
  3
Solid line
 72
    65
 73
     0
 40
0.0
  0
ENDTAB
  0
TABLE
  2
LAYER
  5
10
330
0
100
AcDbSymbolTable
 70
     2
  0
LAYER
  5
4
330
10
100
AcDbSymbolTableRecord
100
AcDbLayerTableRecord
  2
0
 70
     0
 62
     7
  6
CONTINUOUS
370
    -3
390
5
  0
ENDTAB
  0
TABLE
  2
STYLE
  5
11
330
0
100
AcDbSymbolTable
 70
     1
  0
STYLE
  5
12
330
11
100
AcDbSymbolTableRecord
100
AcDbTextStyleTableRecord
  2
STANDARD
 70
     0
 40
0.0
 41
1.0
 50
0.0
 71
     0
 42
0.225
  3
TXT
  4

  0
ENDTAB
  0
TABLE
  2
VIEW
  5
17
330
0
100
AcDbSymbolTable
 70
     0
  0
ENDTAB
  0
TABLE
  2
UCS
  5
18
330
0
100
AcDbSymbolTable
 70
     0
  0
ENDTAB
  0
TABLE
  2
APPID
  5
1B
330
0
100
AcDbSymbolTable
 70
     1
  0
APPID
  5
1C
330
1B
100
AcDbSymbolTableRecord
100
AcDbRegAppTableRecord
  2
ACAD
 70
     0
  0
ENDTAB
  0
TABLE
  2
DIMSTYLE
  5
1D
330
0
100
AcDbSymbolTable
 70
     1
100
AcDbDimStyleTable
  0
DIMSTYLE
105
24
330
1D
100
AcDbSymbolTableRecord
100
AcDbDimStyleTableRecord
  2
Standard
 70
     0
  3

  4

340
12
  0
ENDTAB
  0
TABLE
  2
BLOCK_RECORD
  5
1
330
0
100
AcDbSymbolTable
 70
     0
  0
BLOCK_RECORD
  5
2
330
1
100
AcDbSymbolTableRecord
100
AcDbBlockTableRecord
  2
*Model_Space
340
A
  0
BLOCK_RECORD
  5
C
330
1
100
AcDbSymbolTableRecord
100
AcDbBlockTableRecord
  2
*Paper_Space
340
F
  0
ENDTAB
  0
ENDSEC
  0
SECTION
  2
BLOCKS
  0
BLOCK
  5
3
330
2
100
AcDbEntity
  8
0
100
AcDbBlockBegin
  2
*Model_Space
 70
     0
 10
0.0
 20
0.0
 30
0.0
  3
*Model_Space
  1

  4

  0
ENDBLK
  5
9
330
2
100
AcDbEntity
  8
0
100
AcDbBlockEnd
  0
BLOCK
  5
D
330
C
100
AcDbEntity
 67
     1
  8
0
100
AcDbBlockBegin
  2
*Paper_Space
 70
     0
 10
0.0
 20
0.0
 30
0.0
  3
*Paper_Space
  1

  4

  0
ENDBLK
  5
E
330
C
100
AcDbEntity
 67
     1
  8
0
100
AcDbBlockEnd
  0
ENDSEC
  0
SECTION
  2
ENTITIES
  0
ARC
  5
C0
330
2
100
AcDbEntity
  8
0
100
AcDbCircle
 10
2.647579436885785
 20
1.614745300395954
 30
0.0
 40
0.95
100
AcDbArc
 50
328.5025902487086
 51
211.4647265685161
  0
ARC
  5
C1
330
2
100
AcDbEntity
  8
0
100
AcDbCircle
 10
2.647579436885785
 20
1.614745300395954
 30
0.0
 40
1.049
100
AcDbArc
 50
0.0
 51
180.0
  0
LINE
  5
C2
330
2
100
AcDbEntity
  8
0
100
AcDbLine
 10
1.803879436885786
 20
0.2634597043582874
 30
0.0
 11
1.803879436885786
 21
1.019581987992653
 31
0.0
  0
LINE
  5
C3
330
2
100
AcDbEntity
  8
0
100
AcDbLine
 10
1.704879436885783
 20
0.2637485171784375
 30
0.0
 11
1.704879436885783
 21
1.046027665360861
 31
0.0
  0
LINE
  5
C4
330
2
100
AcDbEntity
  8
0
100
AcDbLine
 10
1.866379436885786
 20
0.2474260443190817
 30
0.0
 11
1.866379436885786
 21
1.015519666765347
 31
0.0
  0
LINE
  5
C5
330
2
100
AcDbEntity
  8
0
100
AcDbLine
 10
1.61441385951364
 20
0.3463382355354954
 30
0.0
 11
1.61441385951364
 21
0.6081523652564149
 31
0.0
  0
LINE
  5
C6
330
2
100
AcDbEntity
  8
0
100
AcDbLine
 10
-0.4103113708956272
 20
0.120217911634998
 30
0.0
 11
1.595966411061575
 21
-0.0010292841668003
 31
0.0
  0
LINE
  5
C7
330
2
100
AcDbEntity
  8
0
100
AcDbLine
 10
-0.4051597109027227
 20
0.214076637384486
 30
0.0
 11
1.635143486643742
 21
0.0922890406353796
 31
0.0
  0
LINE
  5
C8
330
2
100
AcDbEntity
  8
0
100
AcDbLine
 10
-0.4051597109027227
 20
0.214076637384486
 30
0.0
 11
-0.4103113708956272
 21
0.120217911634998
 31
0.0
  0
ARC
  5
C9
330
2
100
AcDbEntity
  8
0
100
AcDbCircle
 10
1.642721411946425
 20
0.2170591293910862
 30
0.0
 40
0.125
100
AcDbArc
 50
266.5244037637106
 51
345.3451303348138
  0
ARC
  5
CA
330
2
100
AcDbEntity
  8
0
100
AcDbCircle
 10
1.616721411946426
 20
0.2495389698460722
 30
0.0
 40
0.25
100
AcDbArc
 50
266.519841248687
 51
359.9999999999998
  0
LINE
  5
CB
330
2
100
AcDbEntity
  8
0
100
AcDbLine
 10
1.592374647909807
 20
0.0948419524238924
 30
0.0
 11
1.595966411061575
 21
-0.0010292841668003
 31
0.0
  0
ARC
  5
CC
330
2
100
AcDbEntity
  8
0
100
AcDbCircle
 10
1.615130264149993
 20
0.2525409713728495
 30
0.0
 40
0.0938
100
AcDbArc
 50
16.89987697064984
 51
90.43760512963202
  0
LINE
  5
CD
330
2
100
AcDbEntity
  8
0
100
AcDbLine
 10
1.705221411946425
 20
0.2637468061477657
 30
0.0
 11
1.797895684196462
 21
0.2637468061477657
 31
0.0
  0
ARC
  5
CE
330
2
100
AcDbEntity
  8
0
100
AcDbCircle
 10
1.704743648412403
 20
0.2024338904502221
 30
0.0
 40
0.0613147770878148
100
AcDbArc
 50
343.9041122789494
 51
89.87311194526843
  0
ARC
  5
CF
330
2
100
AcDbEntity
  8
0
100
AcDbCircle
 10
1.797895684196462
 20
0.2012468061477657
 30
0.0
 40
0.0625
100
AcDbArc
 50
345.0747760608144
 51
90.0
  0
ARC
  5
D0
330
2
100
AcDbEntity
  8
0
100
AcDbCircle
 10
2.331070115176498
 20
1.478068216076371
 30
0.0
 40
0.7451330211183046
100
AcDbArc
 50
169.4305967899362
 51
210.7848498549968
  0
ARC
  5
D1
330
2
100
AcDbEntity
  8
0
100
AcDbCircle
 10
2.430070115176505
 20
1.478068216076374
 30
0.0
 40
0.7451330211183046
100
AcDbArc
 50
169.4305967899362
 51
209.0866010983062
  0
ARC
  5
D2
330
2
100
AcDbEntity
  8
0
100
AcDbCircle
 10
2.647579436885785
 20
1.614745300395954
 30
0.0
 40
1.148
100
AcDbArc
 50
174.5052456414485
 51
202.6488072407957
  0
ARC
  5
D3
330
2
100
AcDbEntity
  8
0
100
AcDbCircle
 10
1.61189033106222
 20
0.7019184135049938
 30
0.0
 40
0.0938
100
AcDbArc
 50
271.5416308869048
 51
352.4606888148232
  0
ARC
  5
D4
330
2
100
AcDbEntity
  8
0
100
AcDbCircle
 10
1.605879436885786
 20
1.046027665360861
 30
0.0
 40
0.099
100
AcDbArc
 50
0.0
 51
30.78484985499646
  0
ARC
  5
D5
330
2
100
AcDbEntity
  8
0
100
AcDbCircle
 10
1.759755188330601
 20
1.271373342240655
 30
0.0
 40
0.198
100
AcDbArc
 50
209.9003891244298
 51
251.7286787248101
  0
ARC
  5
D6
330
2
100
AcDbEntity
  8
0
100
AcDbCircle
 10
1.759755188330601
 20
1.271373342240655
 30
0.0
 40
0.198
100
AcDbArc
 50
209.9003891244298
 51
251.7286787248101
  0
ARC
  5
D7
330
2
100
AcDbEntity
  8
0
100
AcDbCircle
 10
1.605879436885786
 20
1.019581987992653
 30
0.0
 40
0.198
100
AcDbArc
 50
359.9999999999997
 51
29.08660109830635
  0
ARC
  5
D8
330
2
100
AcDbEntity
  8
0
100
AcDbCircle
 10
1.668379436885786
 20
1.015519666765347
 30
0.0
 40
0.198
100
AcDbArc
 50
0.0
 51
31.46472656851622
  0
ARC
  5
D9
330
2
100
AcDbEntity
  8
0
100
AcDbCircle
 10
1.628197354467538
 20
1.697709677952568
 30
0.0
 40
0.1262552860711121
100
AcDbArc
 50
93.90658617817353
 51
167.6694761309837
  0
LINE
  5
DA
330
2
100
AcDbEntity
  8
0
100
AcDbLine
 10
3.490937461825141
 20
0.2634258634615678
 30
0.0
 11
3.490937461825141
 21
1.018967780757635
 31
0.0
  0
LINE
  5
DB
330
2
100
AcDbEntity
  8
0
100
AcDbLine
 10
3.589937461825144
 20
0.2637468061477657
 30
0.0
 11
3.589937461825144
 21
1.045454167797758
 31
0.0
  0
LINE
  5
DC
330
2
100
AcDbEntity
  8
0
100
AcDbLine
 10
3.428437461825144
 20
0.2495389698460704
 30
0.0
 11
3.428437461825141
 21
1.014961200063323
 31
0.0
  0
LINE
  5
DD
330
2
100
AcDbEntity
  8
0
100
AcDbLine
 10
5.670392573736329
 20
0.120217911634998
 30
0.0
 11
3.693613183493692
 21
-0.0000000000000009
 31
0.0
  0
LINE
  5
DE
330
2
100
AcDbEntity
  8
0
100
AcDbLine
 10
5.665240913743425
 20
0.214076637384486
 30
0.0
 11
3.660015387127828
 21
0.0922890406353796
 31
0.0
  0
ARC
  5
DF
330
2
100
AcDbEntity
  8
0
100
AcDbCircle
 10
3.497263189575108
 20
0.2012468061477657
 30
0.0
 40
0.0625
100
AcDbArc
 50
90.0
 51
194.9252239391856
  0
ARC
  5
E0
330
2
100
AcDbEntity
  8
0
100
AcDbCircle
 10
3.678437461825144
 20
0.2495389698460722
 30
0.0
 40
0.25
100
AcDbArc
 50
180.0000000000001
 51
273.480158751313
  0
ARC
  5
E1
330
2
100
AcDbEntity
  8
0
100
AcDbCircle
 10
3.652437461825144
 20
0.2170591293910862
 30
0.0
 40
0.125
100
AcDbArc
 50
194.6548696651862
 51
273.4755962362894
  0
LINE
  5
E2
330
2
100
AcDbEntity
  8
0
100
AcDbLine
 10
3.679086390804827
 20
-0.0004601879348689
 30
0.0
 11
3.681299724981287
 21
0.0893662981057952
 31
0.0
  0
ARC
  5
E3
330
2
100
AcDbEntity
  8
0
100
AcDbCircle
 10
3.590415225359166
 20
0.2024338904502221
 30
0.0
 40
0.0613147770878148
100
AcDbArc
 50
90.44645210196987
 51
196.0958877210506
  0
LINE
  5
E4
330
2
100
AcDbEntity
  8
0
100
AcDbLine
 10
3.589937461825144
 20
0.2637468061477657
 30
0.0
 11
3.497263189575108
 21
0.2637468061477657
 31
0.0
  0
LINE
  5
E5
330
2
100
AcDbEntity
  8
0
100
AcDbLine
 10
5.665240913743425
 20
0.214076637384486
 30
0.0
 11
5.670392573736329
 21
0.120217911634998
 31
0.0
  0
ARC
  5
E6
330
2
100
AcDbEntity
  8
0
100
AcDbCircle
 10
2.865088758595064
 20
1.478068216076374
 30
0.0
 40
0.7451330211183046
100
AcDbArc
 50
330.87069181462
 51
10.56940321006378
  0
ARC
  5
E7
330
2
100
AcDbEntity
  8
0
100
AcDbCircle
 10
2.964088758595075
 20
1.478068216076371
 30
0.0
 40
0.7451330211183046
100
AcDbArc
 50
329.1698286335574
 51
10.56940321006378
  0
ARC
  5
E8
330
2
100
AcDbEntity
  8
0
100
AcDbCircle
 10
2.647579436885785
 20
1.614745300395954
 30
0.0
 40
1.148
100
AcDbArc
 50
337.3511927592039
 51
5.494754358551475
  0
ARC
  5
E9
330
2
100
AcDbEntity
  8
0
100
AcDbCircle
 10
3.626437461825141
 20
1.014961200063323
 30
0.0
 40
0.198
100
AcDbArc
 50
148.5025902487086
 51
180.0000000000002
  0
ARC
  5
EA
330
2
100
AcDbEntity
  8
0
100
AcDbCircle
 10
3.688937461825141
 20
1.045454167797758
 30
0.0
 40
0.099
100
AcDbArc
 50
149.1698286335575
 51
180.0
  0
ARC
  5
EB
330
2
100
AcDbEntity
  8
0
100
AcDbCircle
 10
3.688937461825141
 20
1.018967780757637
 30
0.0
 40
0.198
100
AcDbArc
 50
150.8706918146201
 51
180.0000000000002
  0
ARC
  5
EC
330
2
100
AcDbEntity
  8
0
100
AcDbCircle
 10
3.535403685440969
 20
1.271373342240655
 30
0.0
 40
0.198
100
AcDbArc
 50
288.2713212751899
 51
330.0996108755702
  0
ARC
  5
ED
330
2
100
AcDbEntity
  8
0
100
AcDbCircle
 10
3.666961519304032
 20
1.697709677952568
 30
0.0
 40
0.1262552860711121
100
AcDbArc
 50
12.33052386901631
 51
86.09341382182645
  0
LINE
  5
10D
330
2
100
AcDbEntity
  8
0
100
AcDbLine
 10
3.210079436885785
 20
7.252952903551934
 30
0.0
 11
5.526970457580681
 21
7.252952903551933
 31
0.0
  0
LINE
  5
10E
330
2
100
AcDbEntity
  8
0
100
AcDbLine
 10
5.526970457580681
 20
5.877952903551929
 30
0.0
 11
3.210079436885785
 21
5.877952903551929
 31
0.0
  0
LINE
  5
10F
330
2
100
AcDbEntity
  8
0
100
AcDbLine
 10
1.611079436885795
 20
5.971252032804822
 30
0.0
 11
1.611079436885792
 21
7.160792269561966
 31
0.0
  0
LWPOLYLINE
  5
110
330
2
100
AcDbEntity
  8
0
100
AcDbPolyline
 90
        9
 70
     0
 43
0.0
 10
1.611079436885792
 20
6.418592242309863
 10
1.588648251718002
 20
6.427890188989704
 42
-0.0984539828489084
 10
1.565481464209931
 20
6.462594150455612
 42
-0.0557054268030542
 10
1.552822940129296
 20
6.506442771446189
 10
1.547753963485519
 20
6.566022151183393
 10
1.552822940129296
 20
6.625601530920601
 42
-0.055705426803043
 10
1.565481464209931
 20
6.669450151911178
 42
-0.0984539828489088
 10
1.588648251718002
 20
6.704154113377086
 10
1.611079436885792
 20
6.713452060056923
  0
LINE
  5
111
330
2
100
AcDbEntity
  8
0
100
AcDbLine
 10
3.684079436885774
 20
5.971252032804822
 30
0.0
 11
3.684079436885774
 21
7.160792269561966
 31
0.0
  0
LWPOLYLINE
  5
112
330
2
100
AcDbEntity
  8
0
100
AcDbPolyline
 90
        9
 70
     0
 43
0.0
 10
3.684079436885774
 20
6.418592242309863
 10
3.706510622053564
 20
6.427890188989704
 42
0.0984539828489084
 10
3.729677409561635
 20
6.462594150455612
 42
0.0557054268030542
 10
3.742335933642266
 20
6.506442771446189
 10
3.747404910286051
 20
6.566022151183393
 10
3.742335933642266
 20
6.625601530920601
 42
0.055705426803043
 10
3.729677409561635
 20
6.669450151911178
 42
0.0984539828489088
 10
3.706510622053564
 20
6.704154113377086
 10
3.684079436885774
 20
6.713452060056923
  0
LINE
  5
113
330
2
100
AcDbEntity
  8
0
100
AcDbLine
 10
-0.3290472796793438
 20
6.002952903551931
 30
0.0
 11
-0.3290472796793438
 21
7.127952903551934
 31
0.0
  0
ARC
  5
114
330
2
100
AcDbEntity
  8
0
100
AcDbCircle
 10
2.171016936885785
 20
5.877952903551931
 30
0.0
 40
0.0859375
100
AcDbArc
 50
90.0
 51
180.0000000000012
  0
LINE
  5
115
330
2
100
AcDbEntity
  8
0
100
AcDbLine
 10
2.085079436885785
 20
5.877952903551929
 30
0.0
 11
-0.2040472796793438
 21
5.877952903551931
 31
0.0
  0
CIRCLE
  5
116
330
2
100
AcDbEntity
  8
0
100
AcDbCircle
 10
-0.0165472796793438
 20
6.190452903551931
 30
0.0
 40
0.14065
  0
LINE
  5
117
330
2
100
AcDbEntity
  8
0
100
AcDbLine
 10
-0.3290472796793438
 20
6.002952903551931
 30
0.0
 11
-0.2040472796793438
 21
5.877952903551931
 31
0.0
  0
LINE
  5
118
330
2
100
AcDbEntity
  8
0
100
AcDbLine
 10
1.611079436885792
 20
5.97125203280482
 30
0.0
 11
1.536428210691735
 21
5.878522151183393
 31
0.0
  0
LINE
  5
119
330
2
100
AcDbEntity
  8
0
100
AcDbLine
 10
2.960079436885785
 20
5.877952903551929
 30
0.0
 11
2.335079436885785
 21
5.877952903551929
 31
0.0
  0
ARC
  5
11A
330
2
100
AcDbEntity
  8
0
100
AcDbCircle
 10
2.249141936885785
 20
5.877952903551931
 30
0.0
 40
0.0859375
100
AcDbArc
 50
359.9999999999988
 51
90.0
  0
LINE
  5
11B
330
2
100
AcDbEntity
  8
0
100
AcDbLine
 10
2.171016936885785
 20
5.963890403551931
 30
0.0
 11
2.249141936885785
 21
5.963890403551931
 31
0.0
  0
ARC
  5
11C
330
2
100
AcDbEntity
  8
0
100
AcDbCircle
 10
3.124141936885785
 20
5.877952903551931
 30
0.0
 40
0.0859375
100
AcDbArc
 50
359.9999999999988
 51
90.0
  0
ARC
  5
11D
330
2
100
AcDbEntity
  8
0
100
AcDbCircle
 10
3.046016936885785
 20
5.877952903551931
 30
0.0
 40
0.0859375
100
AcDbArc
 50
90.0
 51
180.0000000000012
  0
LINE
  5
11E
330
2
100
AcDbEntity
  8
0
100
AcDbLine
 10
3.046016936885785
 20
5.963890403551931
 30
0.0
 11
3.124141936885785
 21
5.963890403551931
 31
0.0
  0
LINE
  5
11F
330
2
100
AcDbEntity
  8
0
100
AcDbLine
 10
3.684079436885774
 20
5.97125203280482
 30
0.0
 11
3.758730663079831
 21
5.878522151183393
 31
0.0
  0
ARC
  5
120
330
2
100
AcDbEntity
  8
0
100
AcDbCircle
 10
2.171016936885785
 20
7.252952903551933
 30
0.0
 40
0.0859375
100
AcDbArc
 50
179.9999999999988
 51
270.0
  0
CIRCLE
  5
121
330
2
100
AcDbEntity
  8
0
100
AcDbCircle
 10
0.7959527203206562
 20
6.940452903551931
 30
0.0
 40
0.14065
  0
LINE
  5
122
330
2
100
AcDbEntity
  8
0
100
AcDbLine
 10
-0.2040472796793438
 20
7.252952903551933
 30
0.0
 11
2.085079436885785
 21
7.252952903551934
 31
0.0
  0
LINE
  5
123
330
2
100
AcDbEntity
  8
0
100
AcDbLine
 10
-0.3290472796793438
 20
7.127952903551934
 30
0.0
 11
-0.2040472796793438
 21
7.252952903551934
 31
0.0
  0
LINE
  5
124
330
2
100
AcDbEntity
  8
0
100
AcDbLine
 10
1.611079436885792
 20
7.160792269561966
 30
0.0
 11
1.536428210691735
 21
7.253522151183397
 31
0.0
  0
LINE
  5
125
330
2
100
AcDbEntity
  8
0
100
AcDbLine
 10
2.335079436885785
 20
7.252952903551934
 30
0.0
 11
2.960079436885785
 21
7.252952903551934
 31
0.0
  0
ARC
  5
126
330
2
100
AcDbEntity
  8
0
100
AcDbCircle
 10
2.249141936885785
 20
7.252952903551933
 30
0.0
 40
0.0859375
100
AcDbArc
 50
270.0
 51
0.0000000000011704
  0
LINE
  5
127
330
2
100
AcDbEntity
  8
0
100
AcDbLine
 10
2.171016936885785
 20
7.167015403551933
 30
0.0
 11
2.249141936885785
 21
7.167015403551933
 31
0.0
  0
ARC
  5
128
330
2
100
AcDbEntity
  8
0
100
AcDbCircle
 10
3.124141936885785
 20
7.252952903551933
 30
0.0
 40
0.0859375
100
AcDbArc
 50
270.0
 51
0.0000000000011704
  0
ARC
  5
129
330
2
100
AcDbEntity
  8
0
100
AcDbCircle
 10
3.046016936885785
 20
7.252952903551933
 30
0.0
 40
0.0859375
100
AcDbArc
 50
179.9999999999988
 51
270.0
  0
LINE
  5
12A
330
2
100
AcDbEntity
  8
0
100
AcDbLine
 10
3.046016936885785
 20
7.167015403551933
 30
0.0
 11
3.124141936885785
 21
7.167015403551933
 31
0.0
  0
LINE
  5
12B
330
2
100
AcDbEntity
  8
0
100
AcDbLine
 10
3.684079436885774
 20
7.160792269561966
 30
0.0
 11
3.758730663079831
 21
7.253522151183397
 31
0.0
  0
CIRCLE
  5
12C
330
2
100
AcDbEntity
  8
0
100
AcDbCircle
 10
4.513570457580684
 20
6.940452903551931
 30
0.0
 40
0.14065
  0
LINE
  5
12D
330
2
100
AcDbEntity
  8
0
100
AcDbLine
 10
5.651970457580681
 20
7.127952903551933
 30
0.0
 11
5.651970457580681
 21
6.002952903551931
 31
0.0
  0
CIRCLE
  5
12E
330
2
100
AcDbEntity
  8
0
100
AcDbCircle
 10
5.326070457580684
 20
6.190452903551931
 30
0.0
 40
0.14065
  0
LINE
  5
12F
330
2
100
AcDbEntity
  8
0
100
AcDbLine
 10
5.526970457580681
 20
5.877952903551931
 30
0.0
 11
5.651970457580681
 21
6.002952903551931
 31
0.0
  0
LINE
  5
130
330
2
100
AcDbEntity
  8
0
100
AcDbLine
 10
5.526970457580681
 20
7.252952903551931
 30
0.0
 11
5.651970457580681
 21
7.127952903551931
 31
0.0
  0
LINE
  5
138
330
2
100
AcDbEntity
  8
0
100
AcDbLine
 10
9.873481938894589
 20
2.663745300395953
 30
0.0
 11
9.873481938894585
 21
0.2189999999860186
 31
0.0
  0
LINE
  5
139
330
2
100
AcDbEntity
  8
0
100
AcDbLine
 10
11.24848193889459
 20
2.663745300395953
 30
0.0
 11
11.24848193889459
 21
0.2189999999860186
 31
0.0
  0
CIRCLE
  5
13A
330
2
100
AcDbEntity
  8
0
100
AcDbCircle
 10
10.56098193889459
 20
0.4689999999860204
 30
0.0
 40
0.140625
  0
LINE
  5
13B
330
2
100
AcDbEntity
  8
0
100
AcDbLine
 10
9.998481938894585
 20
0.9653689235575405
 30
0.0
 11
9.998481938894585
 21
0.4846040982127393
 31
0.0
  0
LINE
  5
13C
330
2
100
AcDbEntity
  8
0
100
AcDbLine
 10
11.12348193889459
 20
0.690646179522262
 30
0.0
 11
11.12348193889459
 21
0.2140766373844878
 31
0.0
  0
LINE
  5
13D
330
2
100
AcDbEntity
  8
0
100
AcDbLine
 10
11.24848193889459
 20
-0.0000000000000009
 30
0.0
 11
9.873481938894585
 21
0.0000000000000009
 31
0.0
  0
LINE
  5
13E
330
2
100
AcDbEntity
  8
0
100
AcDbLine
 10
11.24848193889459
 20
0.214076637384486
 30
0.0
 11
9.873481938894589
 21
0.2140766373844878
 31
0.0
  0
LINE
  5
13F
330
2
100
AcDbEntity
  8
0
100
AcDbLine
 10
11.24848193889459
 20
0.0939999999860204
 30
0.0
 11
9.873481938894592
 21
0.0939999999860204
 31
0.0
  0
LINE
  5
140
330
2
100
AcDbEntity
  8
0
100
AcDbLine
 10
11.24848193889459
 20
0.120217911634998
 30
0.0
 11
9.873481938894592
 21
0.120217911634998
 31
0.0
  0
LINE
  5
141
330
2
100
AcDbEntity
  8
0
100
AcDbLine
 10
11.24848193889459
 20
0.214076637384486
 30
0.0
 11
11.24848193889459
 21
-0.0000000000000009
 31
0.0
  0
ARC
  5
142
330
2
100
AcDbEntity
  8
0
100
AcDbCircle
 10
11.24848193889459
 20
0.0939999999860186
 30
0.0
 40
0.125
100
AcDbArc
 50
90.0
 51
106.1342729848106
  0
ARC
  5
143
330
2
100
AcDbEntity
  8
0
100
AcDbCircle
 10
10.56098193889459
 20
0.0939999999860186
 30
0.0
 40
0.125
100
AcDbArc
 50
73.86572701519097
 51
106.134272984809
  0
LINE
  5
144
330
2
100
AcDbEntity
  8
0
100
AcDbLine
 10
9.873481938894599
 20
0.2140766373844878
 30
0.0
 11
9.873481938894585
 21
-0.0000000000000009
 31
0.0
  0
ARC
  5
145
330
2
100
AcDbEntity
  8
0
100
AcDbCircle
 10
9.873481938894592
 20
0.0939999999860186
 30
0.0
 40
0.125
100
AcDbArc
 50
73.86572701519113
 51
90.0
  0
LINE
  5
146
330
2
100
AcDbEntity
  8
0
100
AcDbLine
 10
9.998481938894585
 20
0.440898247332421
 30
0.0
 11
9.998481938894585
 21
0.2140766373844878
 31
0.0
  0
ARC
  5
147
330
2
100
AcDbEntity
  8
0
100
AcDbCircle
 10
10.56098193889459
 20
1.782046604040173
 30
0.0
 40
0.239625
100
AcDbArc
 50
0.000000000000007
 51
180.0
  0
ARC
  5
148
330
2
100
AcDbEntity
  8
0
100
AcDbCircle
 10
10.56098193889459
 20
1.313296604040171
 30
0.0
 40
0.239625
100
AcDbArc
 50
180.0
 51
0.000000000000007
  0
LINE
  5
149
330
2
100
AcDbEntity
  8
0
100
AcDbLine
 10
11.24848193889459
 20
2.663745300395953
 30
0.0
 11
9.873481938894589
 21
2.663745300395953
 31
0.0
  0
LINE
  5
14A
330
2
100
AcDbEntity
  8
0
100
AcDbLine
 10
10.42035693889459
 20
1.313296604040171
 30
0.0
 11
10.42035693889459
 21
1.782046604040173
 31
0.0
  0
LINE
  5
14B
330
2
100
AcDbEntity
  8
0
100
AcDbLine
 10
10.70160693889459
 20
1.313296604040171
 30
0.0
 11
10.70160693889459
 21
1.782046604040173
 31
0.0
  0
LINE
  5
14C
330
2
100
AcDbEntity
  8
0
100
AcDbLine
 10
10.80060693889459
 20
1.313296604040171
 30
0.0
 11
10.80060693889459
 21
1.782046604040173
 31
0.0
  0
LINE
  5
14D
330
2
100
AcDbEntity
  8
0
100
AcDbLine
 10
11.12348193889459
 20
1.546032856585696
 30
0.0
 11
11.12348193889459
 21
0.7343520769687109
 31
0.0
  0
LINE
  5
14E
330
2
100
AcDbEntity
  8
0
100
AcDbLine
 10
10.93484552211578
 20
0.9799216040401726
 30
0.0
 11
10.64375245066166
 21
0.9799216040401726
 31
0.0
  0
LINE
  5
14F
330
2
100
AcDbEntity
  8
0
100
AcDbLine
 10
11.195782239462
 20
0.9799216040401726
 30
0.0
 11
10.97257978642428
 21
0.9799216040401726
 31
0.0
  0
LINE
  5
150
330
2
100
AcDbEntity
  8
0
100
AcDbLine
 10
10.61679942318594
 20
0.9799216040401726
 30
0.0
 11
10.36344068064661
 21
0.9799216040401726
 31
0.0
  0
ARC
  5
151
330
2
100
AcDbEntity
  8
0
100
AcDbCircle
 10
10.56098193889459
 20
1.313296604040171
 30
0.0
 40
0.140625
100
AcDbArc
 50
180.0
 51
0.000000000000007
  0
LINE
  5
152
330
2
100
AcDbEntity
  8
0
100
AcDbLine
 10
11.12348193889459
 20
1.791038239852099
 30
0.0
 11
11.12348193889459
 21
1.589738754032145
 31
0.0
  0
ARC
  5
153
330
2
100
AcDbEntity
  8
0
100
AcDbCircle
 10
10.56098193889459
 20
1.782046604040173
 30
0.0
 40
0.140625
100
AcDbArc
 50
0.000000000000007
 51
180.0
  0
LINE
  5
154
330
2
100
AcDbEntity
  8
0
100
AcDbLine
 10
10.32135693889459
 20
1.313296604040171
 30
0.0
 11
10.32135693889459
 21
1.782046604040173
 31
0.0
  0
LINE
  5
155
330
2
100
AcDbEntity
  8
0
100
AcDbLine
 10
9.998481938894585
 20
1.80310634938217
 30
0.0
 11
9.998481938894585
 21
1.002831141325694
 31
0.0
  0
LINE
  5
156
330
2
100
AcDbEntity
  8
0
100
AcDbLine
 10
10.31492517950531
 20
0.9799216040401726
 30
0.0
 11
9.93000443240075
 21
0.9799216040401726
 31
0.0
  0
ENDSEC
  0
SECTION
  2
OBJECTS
  0
DICTIONARY
  5
7
330
0
100
AcDbDictionary
281
     1
  3
ACAD_COLOR
350
15B
  3
ACAD_GROUP
350
1F
  3
ACAD_LAYOUT
350
B
  3
ACAD_MATERIAL
350
15A
  3
ACAD_MLINESTYLE
350
20
  3
ACAD_PLOTSETTINGS
350
21
  3
ACAD_PLOTSTYLENAME
350
6
  3
ACAD_TABLESTYLE
350
15C
  3
ACDBHEADERROUNDTRIPXREC
350
168
  3
AcDbVariableDictionary
350
B4
  0
DICTIONARY
  5
15B
102
{ACAD_REACTORS
330
7
102
}
330
7
100
AcDbDictionary
281
     1
  0
DICTIONARY
  5
1F
102
{ACAD_REACTORS
330
7
102
}
330
7
100
AcDbDictionary
281
     1
  0
DICTIONARY
  5
B
102
{ACAD_REACTORS
330
7
102
}
330
7
100
AcDbDictionary
281
     1
  3
Layout1
350
F
  3
Model
350
A
  0
DICTIONARY
  5
15A
102
{ACAD_REACTORS
330
7
102
}
330
7
100
AcDbDictionary
281
     1
  0
DICTIONARY
  5
20
102
{ACAD_REACTORS
330
7
102
}
330
7
100
AcDbDictionary
281
     1
  3
Standard
350
23
  0
DICTIONARY
  5
21
102
{ACAD_REACTORS
330
7
102
}
330
7
100
AcDbDictionary
281
     1
  0
ACDBDICTIONARYWDFLT
  5
6
102
{ACAD_REACTORS
330
7
102
}
330
7
100
AcDbDictionary
281
     1
  3
Normal
350
5
100
AcDbDictionaryWithDefault
340
5
  0
DICTIONARY
  5
15C
102
{ACAD_REACTORS
330
7
102
}
330
7
100
AcDbDictionary
281
     1
  3
Standard
350
15D
  0
DICTIONARY
  5
168
102
{ACAD_REACTORS
330
7
102
}
330
7
100
AcDbDictionary
281
     1
  3
COLORDICT
350
169
  3
MATERIALDICT
350
16A
  0
DICTIONARY
  5
B4
102
{ACAD_REACTORS
330
7
102
}
330
7
100
AcDbDictionary
281
     1
  3
CTABLESTYLE
350
166
  3
DIMASSOC
350
B6
  3
HIDETEXT
350
B5
  0
LAYOUT
  5
F
102
{ACAD_REACTORS
330
B
102
}
102
{ACAD_XDICTIONARY
360
16B
102
}
330
B
100
AcDbPlotSettings
  1

  2
X:\Program Files\AutoCAD2002\plotters\DWF ePlot (optimized for plotting).pc3
  4

  6

 40
0.0
 41
0.0
 42
0.0
 43
0.0
 44
0.0
 45
0.0
 46
0.0
 47
0.0
 48
0.0
 49
0.0
140
0.0
141
0.0
142
1.0
143
1.0
 70
   688
 72
     0
 73
     0
 74
     5
  7

 75
    16
147
1.0
148
0.0
149
0.0
100
AcDbLayout
  1
Layout1
 70
     0
 71
     1
 10
0.0
 20
0.0
 11
12.0
 21
9.0
 12
0.0
 22
0.0
 32
0.0
 14
1.000000000000000E+20
 24
1.000000000000000E+20
 34
1.000000000000000E+20
 15
-1.000000000000000E+20
 25
-1.000000000000000E+20
 35
-1.000000000000000E+20
146
0.0
 13
0.0
 23
0.0
 33
0.0
 16
1.0
 26
0.0
 36
0.0
 17
0.0
 27
1.0
 37
0.0
 76
     0
330
C
  0
LAYOUT
  5
A
102
{ACAD_REACTORS
330
B
102
}
102
{ACAD_XDICTIONARY
360
16D
102
}
330
B
100
AcDbPlotSettings
  1

  2
X:\Program Files\AutoCAD2002\plotters\DWF ePlot (optimized for plotting).pc3
  4

  6

 40
0.0
 41
0.0
 42
0.0
 43
0.0
 44
0.0
 45
0.0
 46
0.0
 47
0.0
 48
0.0
 49
0.0
140
0.0
141
0.0
142
1.0
143
1.0
 70
  1712
 72
     0
 73
     0
 74
     0
  7

 75
     0
147
1.0
148
0.0
149
0.0
100
AcDbLayout
  1
Model
 70
     1
 71
     0
 10
0.0
 20
0.0
 11
12.0
 21
9.0
 12
0.0
 22
0.0
 32
0.0
 14
0.0
 24
0.0
 34
0.0
 15
0.0
 25
0.0
 35
0.0
146
0.0
 13
0.0
 23
0.0
 33
0.0
 16
1.0
 26
0.0
 36
0.0
 17
0.0
 27
1.0
 37
0.0
 76
     0
330
2
  0
MLINESTYLE
  5
23
102
{ACAD_REACTORS
330
20
102
}
330
20
100
AcDbMlineStyle
  2
STANDARD
 70
     0
  3

 62
   256
 51
90.0
 52
90.0
 71
     2
 49
0.5
 62
   256
  6
BYLAYER
 49
-0.5
 62
   256
  6
BYLAYER
  0
ACDBPLACEHOLDER
  5
5
102
{ACAD_REACTORS
330
6
102
}
330
6
  0
ACAD_PROXY_OBJECT
  5
15D
102
{ACAD_REACTORS
330
15C
102
}
330
15C
100
AcDbProxyObject
 90
      499
 91
      504
 95
   983063
 70
     0
 93
     1841
310
4214DD185B99185C9928B81E85EB51B8AE3F2E07A17AD46E2B8FC02B5E8DC0F42B1CFD028000000C1008070000C3001FDFF8000000C1003FBFF000000182007F7FE00000030400FEFFC00000060801FDFF8000000C1003FBFF00000018200000000000000681FA0B0000001820100E000186003FBFF000000182007F7FE000
310
00030400FEFFC00000060801FDFF8000000C1003FBFF000000182007F7FE000000304000AD7A3703D0AC73F4160000003040201C00030C007F7FE00000030400FEFFC00000060801FDFF8000000C1003FBFF000000182007F7FE00000030400FEFFC000000608000
340
12
340
12
340
12
 94
        0
  0
XRECORD
  5
169
102
{ACAD_REACTORS
330
168
102
}
330
168
100
AcDbXrecord
340
15B
  0
XRECORD
  5
16A
102
{ACAD_REACTORS
330
168
102
}
330
168
100
AcDbXrecord
340
15A
  0
DICTIONARYVAR
  5
166
102
{ACAD_REACTORS
330
B4
102
}
330
B4
100
DictionaryVariables
280
     0
  1
STANDARD
  0
DICTIONARYVAR
  5
B6
102
{ACAD_REACTORS
330
B4
102
}
330
B4
100
DictionaryVariables
280
     0
  1
2
  0
DICTIONARYVAR
  5
B5
102
{ACAD_REACTORS
330
B4
102
}
330
B4
100
DictionaryVariables
280
     0
  1
1
  0
DICTIONARY
  5
16B
330
F
100
AcDbDictionary
280
     1
281
     1
  3
ACAD_XREC_ROUNDTRIP
360
16C
  0
DICTIONARY
  5
16D
330
A
100
AcDbDictionary
280
     1
281
     1
  3
ACAD_XREC_ROUNDTRIP
360
16E
  0
XRECORD
  5
16C
102
{ACAD_REACTORS
330
16B
102
}
330
16B
100
AcDbXrecord
102
SHADEPLOT
 70
     0
102
SHADEPLOTRESLEVEL
 70
     2
102
SHADEPLOTCUSTOMDPI
 70
   300
  0
XRECORD
  5
16E
102
{ACAD_REACTORS
330
16D
102
}
330
16D
100
AcDbXrecord
102
SHADEPLOT
 70
     0
102
SHADEPLOTRESLEVEL
 70
     2
102
SHADEPLOTCUSTOMDPI
 70
   300
  0
ENDSEC
  0
EOF
