  0
SECTION
  2
HEADER
  9
$ACADVER
  1
AC1015
  9
$ACADMAINTVER
 70
     6
  9
$DWGCODEPAGE
  3
ANSI_1252
  9
$INSBASE
 10
0.0
 20
0.0
 30
0.0
  9
$EXTMIN
 10
-4.972218402693585
 20
-0.0864751979109855
 30
0.0
  9
$EXTMAX
 10
10.58220806611779
 20
13.54983743096389
 30
0.0
  9
$LIMMIN
 10
0.0
 20
0.0
  9
$LIMMAX
 10
24.0
 20
31.5
  9
$ORTHOMODE
 70
     0
  9
$REGENMODE
 70
     1
  9
$FILLMODE
 70
     1
  9
$QTEXTMODE
 70
     0
  9
$MIRRTEXT
 70
     0
  9
$LTSCALE
 40
0.75
  9
$ATTMODE
 70
     1
  9
$TEXTSIZE
 40
0.28125
  9
$TRACEWID
 40
0.05
  9
$TEXTSTYLE
  7
STANDARD
  9
$CLAYER
  8
0
  9
$CELTYPE
  6
ByLayer
  9
$CECOLOR
 62
   256
  9
$CELTSCALE
 40
1.0
  9
$DISPSILH
 70
     0
  9
$DIMSCALE
 40
3.0
  9
$DIMASZ
 40
0.125
  9
$DIMEXO
 40
0.062
  9
$DIMDLI
 40
0.375
  9
$DIMRND
 40
0.0
  9
$DIMDLE
 40
0.0
  9
$DIMEXE
 40
0.08
  9
$DIMTP
 40
0.0
  9
$DIMTM
 40
0.0
  9
$DIMTXT
 40
0.09
  9
$DIMCEN
 40
-0.03125
  9
$DIMTSZ
 40
0.0
  9
$DIMTOL
 70
     0
  9
$DIMLIM
 70
     0
  9
$DIMTIH
 70
     1
  9
$DIMTOH
 70
     1
  9
$DIMSE1
 70
     0
  9
$DIMSE2
 70
     0
  9
$DIMTAD
 70
     0
  9
$DIMZIN
 70
     0
  9
$DIMBLK
  1

  9
$DIMASO
 70
     0
  9
$DIMSHO
 70
     0
  9
$DIMPOST
  1

  9
$DIMAPOST
  1

  9
$DIMALT
 70
     0
  9
$DIMALTD
 70
     2
  9
$DIMALTF
 40
25.4
  9
$DIMLFAC
 40
1.0
  9
$DIMTOFL
 70
     0
  9
$DIMTVP
 40
0.0
  9
$DIMTIX
 70
     0
  9
$DIMSOXD
 70
     0
  9
$DIMSAH
 70
     0
  9
$DIMBLK1
  1

  9
$DIMBLK2
  1

  9
$DIMSTYLE
  2
Standard
  9
$DIMCLRD
 70
     0
  9
$DIMCLRE
 70
     0
  9
$DIMCLRT
 70
     0
  9
$DIMTFAC
 40
1.0
  9
$DIMGAP
 40
0.09
  9
$DIMJUST
 70
     0
  9
$DIMSD1
 70
     0
  9
$DIMSD2
 70
     0
  9
$DIMTOLJ
 70
     1
  9
$DIMTZIN
 70
     0
  9
$DIMALTZ
 70
     0
  9
$DIMALTTZ
 70
     0
  9
$DIMUPT
 70
     0
  9
$DIMDEC
 70
     5
  9
$DIMTDEC
 70
     5
  9
$DIMALTU
 70
     5
  9
$DIMALTTD
 70
     2
  9
$DIMTXSTY
  7
STANDARD
  9
$DIMAUNIT
 70
     0
  9
$DIMADEC
 70
     0
  9
$DIMALTRND
 40
0.0
  9
$DIMAZIN
 70
     0
  9
$DIMDSEP
 70
    46
  9
$DIMATFIT
 70
     3
  9
$DIMFRAC
 70
     2
  9
$DIMLDRBLK
  1

  9
$DIMLUNIT
 70
     5
  9
$DIMLWD
 70
    -2
  9
$DIMLWE
 70
    -2
  9
$DIMTMOVE
 70
     2
  9
$LUNITS
 70
     5
  9
$LUPREC
 70
     5
  9
$SKETCHINC
 40
0.1
  9
$FILLETRAD
 40
0.0
  9
$AUNITS
 70
     0
  9
$AUPREC
 70
     0
  9
$MENU
  1
acad
  9
$ELEVATION
 40
0.0
  9
$PELEVATION
 40
0.0
  9
$THICKNESS
 40
0.0
  9
$LIMCHECK
 70
     0
  9
$CHAMFERA
 40
0.0
  9
$CHAMFERB
 40
0.0
  9
$CHAMFERC
 40
0.0
  9
$CHAMFERD
 40
0.0
  9
$SKPOLY
 70
     0
  9
$TDCREATE
 40
2449233.707493056
  9
$TDUCREATE
 40
2449234.040826389
  9
$TDUPDATE
 40
2454179.855306377
  9
$TDUUPDATE
 40
2454180.188639711
  9
$TDINDWG
 40
0.2414550926
  9
$TDUSRTIMER
 40
0.2414550926
  9
$USRTIMER
 70
     1
  9
$ANGBASE
 50
0.0
  9
$ANGDIR
 70
     0
  9
$PDMODE
 70
     0
  9
$PDSIZE
 40
0.0
  9
$PLINEWID
 40
0.05
  9
$SPLFRAME
 70
     0
  9
$SPLINETYPE
 70
     6
  9
$SPLINESEGS
 70
     8
  9
$HANDSEED
  5
15F
  9
$SURFTAB1
 70
     6
  9
$SURFTAB2
 70
     6
  9
$SURFTYPE
 70
     6
  9
$SURFU
 70
     6
  9
$SURFV
 70
     6
  9
$UCSBASE
  2

  9
$UCSNAME
  2

  9
$UCSORG
 10
0.0
 20
0.0
 30
0.0
  9
$UCSXDIR
 10
1.0
 20
0.0
 30
0.0
  9
$UCSYDIR
 10
0.0
 20
1.0
 30
0.0
  9
$UCSORTHOREF
  2

  9
$UCSORTHOVIEW
 70
     0
  9
$UCSORGTOP
 10
0.0
 20
0.0
 30
0.0
  9
$UCSORGBOTTOM
 10
0.0
 20
0.0
 30
0.0
  9
$UCSORGLEFT
 10
0.0
 20
0.0
 30
0.0
  9
$UCSORGRIGHT
 10
0.0
 20
0.0
 30
0.0
  9
$UCSORGFRONT
 10
0.0
 20
0.0
 30
0.0
  9
$UCSORGBACK
 10
0.0
 20
0.0
 30
0.0
  9
$PUCSBASE
  2

  9
$PUCSNAME
  2

  9
$PUCSORG
 10
0.0
 20
0.0
 30
0.0
  9
$PUCSXDIR
 10
1.0
 20
0.0
 30
0.0
  9
$PUCSYDIR
 10
0.0
 20
1.0
 30
0.0
  9
$PUCSORTHOREF
  2

  9
$PUCSORTHOVIEW
 70
     0
  9
$PUCSORGTOP
 10
0.0
 20
0.0
 30
0.0
  9
$PUCSORGBOTTOM
 10
0.0
 20
0.0
 30
0.0
  9
$PUCSORGLEFT
 10
0.0
 20
0.0
 30
0.0
  9
$PUCSORGRIGHT
 10
0.0
 20
0.0
 30
0.0
  9
$PUCSORGFRONT
 10
0.0
 20
0.0
 30
0.0
  9
$PUCSORGBACK
 10
0.0
 20
0.0
 30
0.0
  9
$USERI1
 70
     0
  9
$USERI2
 70
     0
  9
$USERI3
 70
     0
  9
$USERI4
 70
     0
  9
$USERI5
 70
     0
  9
$USERR1
 40
0.0
  9
$USERR2
 40
0.0
  9
$USERR3
 40
0.0
  9
$USERR4
 40
0.0
  9
$USERR5
 40
0.0
  9
$WORLDVIEW
 70
     1
  9
$SHADEDGE
 70
     3
  9
$SHADEDIF
 70
    70
  9
$TILEMODE
 70
     1
  9
$MAXACTVP
 70
    16
  9
$PINSBASE
 10
0.0
 20
0.0
 30
0.0
  9
$PLIMCHECK
 70
     0
  9
$PEXTMIN
 10
1.000000000000000E+20
 20
1.000000000000000E+20
 30
1.000000000000000E+20
  9
$PEXTMAX
 10
-1.000000000000000E+20
 20
-1.000000000000000E+20
 30
-1.000000000000000E+20
  9
$PLIMMIN
 10
0.0
 20
0.0
  9
$PLIMMAX
 10
12.0
 20
9.0
  9
$UNITMODE
 70
     0
  9
$VISRETAIN
 70
     0
  9
$PLINEGEN
 70
     0
  9
$PSLTSCALE
 70
     0
  9
$TREEDEPTH
 70
  3020
  9
$CMLSTYLE
  2
Standard
  9
$CMLJUST
 70
     0
  9
$CMLSCALE
 40
1.0
  9
$PROXYGRAPHICS
 70
     1
  9
$MEASUREMENT
 70
     0
  9
$CELWEIGHT
370
    -1
  9
$ENDCAPS
280
     0
  9
$JOINSTYLE
280
     0
  9
$LWDISPLAY
290
     0
  9
$INSUNITS
 70
     0
  9
$HYPERLINKBASE
  1

  9
$STYLESHEET
  1

  9
$XEDIT
290
     1
  9
$CEPSNTYPE
380
     0
  9
$PSTYLEMODE
290
     1
  9
$FINGERPRINTGUID
  2
{A1419CA9-1993-41D8-9A12-00001F8E69C8}
  9
$VERSIONGUID
  2
{E975027C-BA4D-46B6-B733-87706BDACD18}
  9
$EXTNAMES
290
     1
  9
$PSVPSCALE
 40
0.0
  9
$OLESTARTUP
290
     0
  0
ENDSEC
  0
SECTION
  2
CLASSES
  0
CLASS
  1
ACDBDICTIONARYWDFLT
  2
AcDbDictionaryWithDefault
  3
AutoCAD 2000
 90
        0
280
     0
281
     0
  0
CLASS
  1
ACDBPLACEHOLDER
  2
AcDbPlaceHolder
  3
ObjectDBX Classes
 90
        0
280
     0
281
     0
  0
CLASS
  1
LAYOUT
  2
AcDbLayout
  3
ObjectDBX Classes
 90
        0
280
     0
281
     0
  0
CLASS
  1
DICTIONARYVAR
  2
AcDbDictionaryVar
  3
AutoCAD 2000
 90
        0
280
     0
281
     0
  0
CLASS
  1
LONG_TRANSACTION
  2
AcDbLongTransaction
  3
ObjectDBX Classes
 90
   -65536
280
     1
281
     0
  0
CLASS
  1
LWPOLYLINE
  2
AcDbPolyline
  3
AutoCAD 2000
 90
        0
280
     0
281
     1
  0
CLASS
  1
HATCH
  2
AcDbHatch
  3
AutoCAD 2000
 90
        0
280
     0
281
     1
  0
CLASS
  1
XRECORD
  2
AcDbXrecord
  3
AutoCAD 2000
 90
        0
280
     0
281
     0
  0
CLASS
  1
LONG_TRANSACTION
  2
AcDbLongTransaction
  3
ObjectDBX Classes
 90
   -65536
280
     1
281
     0
  0
CLASS
  1
LWPOLYLINE
  2
AcDbPolyline
  3
AutoCAD 2000
 90
        0
280
     0
281
     1
  0
CLASS
  1
HATCH
  2
AcDbHatch
  3
AutoCAD 2000
 90
        0
280
     0
281
     1
  0
CLASS
  1
XRECORD
  2
AcDbXrecord
  3
AutoCAD 2000
 90
        0
280
     0
281
     0
  0
CLASS
  1
LONG_TRANSACTION
  2
AcDbLongTransaction
  3
ObjectDBX Classes
 90
   -65536
280
     1
281
     0
  0
CLASS
  1
LWPOLYLINE
  2
AcDbPolyline
  3
AutoCAD 2000
 90
        0
280
     0
281
     1
  0
CLASS
  1
HATCH
  2
AcDbHatch
  3
AutoCAD 2000
 90
        0
280
     0
281
     1
  0
CLASS
  1
XRECORD
  2
AcDbXrecord
  3
AutoCAD 2000
 90
        0
280
     0
281
     0
  0
CLASS
  1
LONG_TRANSACTION
  2
AcDbLongTransaction
  3
ObjectDBX Classes
 90
   -65536
280
     1
281
     0
  0
CLASS
  1
LWPOLYLINE
  2
AcDbPolyline
  3
AutoCAD 2000
 90
        0
280
     0
281
     1
  0
CLASS
  1
HATCH
  2
AcDbHatch
  3
AutoCAD 2000
 90
        0
280
     0
281
     1
  0
CLASS
  1
XRECORD
  2
AcDbXrecord
  3
AutoCAD 2000
 90
        0
280
     0
281
     0
  0
CLASS
  1
LONG_TRANSACTION
  2
AcDbLongTransaction
  3
ObjectDBX Classes
 90
   -65536
280
     1
281
     0
  0
CLASS
  1
LWPOLYLINE
  2
AcDbPolyline
  3
AutoCAD 2000
 90
        0
280
     0
281
     1
  0
CLASS
  1
HATCH
  2
AcDbHatch
  3
AutoCAD 2000
 90
        0
280
     0
281
     1
  0
CLASS
  1
XRECORD
  2
AcDbXrecord
  3
AutoCAD 2000
 90
        0
280
     0
281
     0
  0
CLASS
  1
LONG_TRANSACTION
  2
AcDbLongTransaction
  3
ObjectDBX Classes
 90
   -65536
280
     1
281
     0
  0
CLASS
  1
LWPOLYLINE
  2
AcDbPolyline
  3
AutoCAD 2000
 90
        0
280
     0
281
     1
  0
CLASS
  1
HATCH
  2
AcDbHatch
  3
AutoCAD 2000
 90
        0
280
     0
281
     1
  0
CLASS
  1
XRECORD
  2
AcDbXrecord
  3
AutoCAD 2000
 90
        0
280
     0
281
     0
  0
CLASS
  1
LONG_TRANSACTION
  2
AcDbLongTransaction
  3
ObjectDBX Classes
 90
   -65536
280
     1
281
     0
  0
CLASS
  1
LWPOLYLINE
  2
AcDbPolyline
  3
AutoCAD 2000
 90
        0
280
     0
281
     1
  0
CLASS
  1
HATCH
  2
AcDbHatch
  3
AutoCAD 2000
 90
        0
280
     0
281
     1
  0
CLASS
  1
XRECORD
  2
AcDbXrecord
  3
AutoCAD 2000
 90
        0
280
     0
281
     0
  0
CLASS
  1
TABLESTYLE
  2
AcDbTableStyle
  3
ObjectDBX Classes
 90
     2047
280
     1
281
     0
  0
ENDSEC
  0
SECTION
  2
TABLES
  0
TABLE
  2
VPORT
  5
1D
330
0
100
AcDbSymbolTable
 70
     2
  0
VPORT
  5
150
330
1D
100
AcDbSymbolTableRecord
100
AcDbViewportTableRecord
  2
*Active
 70
     0
 10
0.0
 20
0.0
 11
1.0
 21
1.0
 12
9.725914126381806
 22
13.63981574980621
 13
0.0
 23
0.0
 14
0.063
 24
0.063
 15
0.25
 25
0.25
 16
0.0
 26
0.0
 36
1.0
 17
0.0
 27
0.0
 37
0.0
 40
34.05643162664053
 41
1.814583333333333
 42
50.0
 43
0.0
 44
0.0
 50
0.0
 51
0.0
 71
     0
 72
   100
 73
     1
 74
     1
 75
     0
 76
     0
 77
     0
 78
     0
281
     0
 65
     1
110
0.0
120
0.0
130
0.0
111
1.0
121
0.0
131
0.0
112
0.0
122
1.0
132
0.0
 79
     0
146
0.0
  0
ENDTAB
  0
TABLE
  2
LTYPE
  5
18
330
0
100
AcDbSymbolTable
 70
     1
  0
LTYPE
  5
19
330
18
100
AcDbSymbolTableRecord
100
AcDbLinetypeTableRecord
  2
ByBlock
 70
     0
  3

 72
    65
 73
     0
 40
0.0
  0
LTYPE
  5
1A
330
18
100
AcDbSymbolTableRecord
100
AcDbLinetypeTableRecord
  2
ByLayer
 70
     0
  3

 72
    65
 73
     0
 40
0.0
  0
LTYPE
  5
A
330
18
100
AcDbSymbolTableRecord
100
AcDbLinetypeTableRecord
  2
CONTINUOUS
 70
     0
  3
Solid line
 72
    65
 73
     0
 40
0.0
  0
ENDTAB
  0
TABLE
  2
LAYER
  5
14
330
0
100
AcDbSymbolTable
 70
     2
  0
LAYER
  5
6
330
14
100
AcDbSymbolTableRecord
100
AcDbLayerTableRecord
  2
0
 70
     0
 62
     7
  6
CONTINUOUS
370
    -3
390
7
  0
ENDTAB
  0
TABLE
  2
STYLE
  5
15
330
0
100
AcDbSymbolTable
 70
     1
  0
STYLE
  5
16
330
15
100
AcDbSymbolTableRecord
100
AcDbTextStyleTableRecord
  2
STANDARD
 70
     0
 40
0.0
 41
1.0
 50
0.0
 71
     0
 42
0.28125
  3
TXT
  4

  0
ENDTAB
  0
TABLE
  2
VIEW
  5
1B
330
0
100
AcDbSymbolTable
 70
     0
  0
ENDTAB
  0
TABLE
  2
UCS
  5
1C
330
0
100
AcDbSymbolTable
 70
     0
  0
ENDTAB
  0
TABLE
  2
APPID
  5
1F
330
0
100
AcDbSymbolTable
 70
     1
  0
APPID
  5
20
330
1F
100
AcDbSymbolTableRecord
100
AcDbRegAppTableRecord
  2
ACAD
 70
     0
  0
ENDTAB
  0
TABLE
  2
DIMSTYLE
  5
21
330
0
100
AcDbSymbolTable
 70
     1
100
AcDbDimStyleTable
  0
DIMSTYLE
105
28
330
21
100
AcDbSymbolTableRecord
100
AcDbDimStyleTableRecord
  2
Standard
 70
     0
  3

  4

340
16
  0
ENDTAB
  0
TABLE
  2
BLOCK_RECORD
  5
1
330
0
100
AcDbSymbolTable
 70
     0
  0
BLOCK_RECORD
  5
2
330
1
100
AcDbSymbolTableRecord
100
AcDbBlockTableRecord
  2
*Model_Space
340
C
  0
BLOCK_RECORD
  5
E
330
1
100
AcDbSymbolTableRecord
100
AcDbBlockTableRecord
  2
*Paper_Space
340
13
  0
ENDTAB
  0
ENDSEC
  0
SECTION
  2
BLOCKS
  0
BLOCK
  5
5
330
2
100
AcDbEntity
  8
0
100
AcDbBlockBegin
  2
*Model_Space
 70
     0
 10
0.0
 20
0.0
 30
0.0
  3
*Model_Space
  1

  4

  0
ENDBLK
  5
B
330
2
100
AcDbEntity
  8
0
100
AcDbBlockEnd
  0
BLOCK
  5
11
330
E
100
AcDbEntity
 67
     1
  8
0
100
AcDbBlockBegin
  2
*Paper_Space
 70
     0
 10
0.0
 20
0.0
 30
0.0
  3
*Paper_Space
  1

  4

  0
ENDBLK
  5
12
330
E
100
AcDbEntity
 67
     1
  8
0
100
AcDbBlockEnd
  0
ENDSEC
  0
SECTION
  2
ENTITIES
  0
LINE
  5
CA
330
2
100
AcDbEntity
  8
0
100
AcDbLine
 10
-4.910205493040451
 20
12.2031336203181
 30
0.0
 11
-1.956042379854551
 21
12.2031336203181
 31
0.0
  0
LINE
  5
CB
330
2
100
AcDbEntity
  8
0
100
AcDbLine
 10
-4.839635881221111
 20
13.54683362031811
 30
0.0
 11
-0.0289999999999999
 21
13.5468336203181
 31
0.0
  0
LINE
  5
CC
330
2
100
AcDbEntity
  8
0
100
AcDbLine
 10
-4.972218402693585
 20
12.1406336203181
 30
0.0
 11
-1.73055053334312
 21
12.1406336203181
 31
0.0
  0
LINE
  5
CD
330
2
100
AcDbEntity
  8
0
100
AcDbLine
 10
-4.972218402693585
 20
12.26742830939003
 30
0.0
 11
-4.972218402693585
 21
13.41425109884563
 31
0.0
  0
LINE
  5
CE
330
2
100
AcDbEntity
  8
0
100
AcDbLine
 10
-4.910205493040451
 20
12.1406336203181
 30
0.0
 11
-4.910205493040451
 21
12.2031336203181
 31
0.0
  0
ARC
  5
CF
330
2
100
AcDbEntity
  8
0
100
AcDbCircle
 10
-4.972218402693585
 20
12.20537491025523
 30
0.0
 40
0.0620533991351806
100
AcDbArc
 50
357.9300990199789
 51
90.00000000000003
  0
LINE
  5
D0
330
2
100
AcDbEntity
  8
0
100
AcDbLine
 10
-4.972218402693585
 20
12.1406336203181
 30
0.0
 11
-4.972218402693585
 21
12.2031336203181
 31
0.0
  0
LINE
  5
D1
330
2
100
AcDbEntity
  8
0
100
AcDbLine
 10
-4.972218402693585
 20
12.2031336203181
 30
0.0
 11
-4.910205493040451
 21
12.2031336203181
 31
0.0
  0
LINE
  5
D2
330
2
100
AcDbEntity
  8
0
100
AcDbLine
 10
-4.972218402693585
 20
12.1406336203181
 30
0.0
 11
-4.972218402693585
 21
12.2031336203181
 31
0.0
  0
LINE
  5
D3
330
2
100
AcDbEntity
  8
0
100
AcDbLine
 10
-4.972218402693585
 20
13.41425109884563
 30
0.0
 11
-4.83963588122111
 21
13.54683362031811
 31
0.0
  0
CIRCLE
  5
D4
330
2
100
AcDbEntity
  8
0
100
AcDbCircle
 10
-4.347218402693585
 20
12.8593336203181
 30
0.0
 40
0.08595
  0
ARC
  5
D5
330
2
100
AcDbEntity
  8
0
100
AcDbCircle
 10
-0.4039999999999981
 20
10.42183362031811
 30
0.0
 40
1.125
100
AcDbArc
 50
180.0
 51
270.0
  0
LINE
  5
D6
330
2
100
AcDbEntity
  8
0
100
AcDbLine
 10
-0.0914999999999981
 20
9.296833620318107
 30
0.0
 11
-0.0914999999999981
 21
12.16393871968331
 31
0.0
  0
LINE
  5
D7
330
2
100
AcDbEntity
  8
0
100
AcDbLine
 10
-0.0289999999999981
 20
9.296833620318107
 30
0.0
 11
-0.0289999999999981
 21
12.30580169397589
 31
0.0
  0
LINE
  5
D8
330
2
100
AcDbEntity
  8
0
100
AcDbLine
 10
-0.0289999999999981
 20
9.296833620318107
 30
0.0
 11
-0.4039999999999981
 21
9.296833620318107
 31
0.0
  0
LINE
  5
D9
330
2
100
AcDbEntity
  8
0
100
AcDbLine
 10
-0.1249999999999982
 20
12.15790399076043
 30
0.0
 11
-1.4955
 21
12.16090780140621
 31
0.0
  0
LINE
  5
DA
330
2
100
AcDbEntity
  8
0
100
AcDbLine
 10
-0.1394999999999982
 20
12.22040399076043
 30
0.0
 11
-1.480999999999998
 21
12.22340780140621
 31
0.0
  0
ARC
  5
DB
330
2
100
AcDbEntity
  8
0
100
AcDbCircle
 10
-2.338763506770976
 20
11.61373350965803
 30
0.0
 40
0.8097754601889573
100
AcDbArc
 50
359.688683663153
 51
71.01478410837696
  0
LINE
  5
DC
330
2
100
AcDbEntity
  8
0
100
AcDbLine
 10
-1.528999999999998
 20
10.42183362031811
 30
0.0
 11
-1.528999999999998
 21
11.60933362031811
 31
0.0
  0
CIRCLE
  5
DD
330
2
100
AcDbEntity
  8
0
100
AcDbCircle
 10
-0.5260032430961683
 20
9.619842984815104
 30
0.0
 40
0.078
  0
CIRCLE
  5
DE
330
2
100
AcDbEntity
  8
0
100
AcDbCircle
 10
-0.5260032430961683
 20
10.9948429848151
 30
0.0
 40
0.078
  0
LINE
  5
DF
330
2
100
AcDbEntity
  8
0
100
AcDbLine
 10
-2.023383072392464
 20
12.4843336203181
 30
0.0
 11
-1.824703796219543
 21
12.4843336203181
 31
0.0
  0
LINE
  5
E0
330
2
100
AcDbEntity
  8
0
100
AcDbLine
 10
-1.824703796219547
 20
12.48433362031811
 30
0.0
 11
-2.10918051609764
 21
13.02778465388623
 31
0.0
  0
ARC
  5
E1
330
2
100
AcDbEntity
  8
0
100
AcDbCircle
 10
-1.904988656253428
 20
13.15615679046994
 30
0.0
 40
0.0807683045051704
100
AcDbArc
 50
285.0443139008598
 51
74.95568609913978
  0
LINE
  5
E2
330
2
100
AcDbEntity
  8
0
100
AcDbLine
 10
-2.109180516097638
 20
13.5468336203181
 30
0.0
 11
-2.10918051609764
 21
13.02778465388623
 31
0.0
  0
ARC
  5
E3
330
2
100
AcDbEntity
  8
0
100
AcDbCircle
 10
-1.818404068672963
 20
13.15615679046994
 30
0.0
 40
0.1019311949247514
100
AcDbArc
 50
130.0732475893396
 51
229.9267524106601
  0
ARC
  5
E4
330
2
100
AcDbEntity
  8
0
100
AcDbCircle
 10
-1.863059238769546
 20
13.15615679046994
 30
0.0
 40
0.0807683045051704
100
AcDbArc
 50
105.0443139008603
 51
254.9556860991402
  0
ARC
  5
E5
330
2
100
AcDbEntity
  8
0
100
AcDbCircle
 10
-2.012823977160979
 20
12.42273203342383
 30
0.0
 40
0.0625
100
AcDbArc
 50
80.27348475513979
 51
180.0
  0
LINE
  5
E6
330
2
100
AcDbEntity
  8
0
100
AcDbLine
 10
-2.075323977160979
 20
12.2031336203181
 30
0.0
 11
-1.849832130649547
 21
12.2031336203181
 31
0.0
  0
LINE
  5
E7
330
2
100
AcDbEntity
  8
0
100
AcDbLine
 10
-1.849832130649547
 20
12.1406336203181
 30
0.0
 11
-1.849832130649547
 21
12.2031336203181
 31
0.0
  0
LINE
  5
E8
330
2
100
AcDbEntity
  8
0
100
AcDbLine
 10
-2.075323977160979
 20
12.42273203342383
 30
0.0
 11
-2.075323977160979
 21
12.1406336203181
 31
0.0
  0
LINE
  5
E9
330
2
100
AcDbEntity
  8
0
100
AcDbLine
 10
-1.997700000000011
 20
12.48433362031811
 30
0.0
 11
-1.992400000000016
 21
12.48433362031811
 31
0.0
  0
LINE
  5
EA
330
2
100
AcDbEntity
  8
0
100
AcDbLine
 10
-1.997700000000011
 20
12.81481748482605
 30
0.0
 11
-1.997700000000011
 21
12.48433362031811
 31
0.0
  0
LINE
  5
EB
330
2
100
AcDbEntity
  8
0
100
AcDbLine
 10
-1.591857235975738
 20
13.54983743096389
 30
0.0
 11
-1.591857235975738
 21
12.48733743096389
 31
0.0
  0
LINE
  5
EC
330
2
100
AcDbEntity
  8
0
100
AcDbLine
 10
-1.5915
 20
12.25690780140621
 30
0.0
 11
-1.5915
 21
13.5468336203181
 31
0.0
  0
LINE
  5
ED
330
2
100
AcDbEntity
  8
0
100
AcDbLine
 10
-1.529
 20
12.27140780140621
 30
0.0
 11
-1.529
 21
13.5468336203181
 31
0.0
  0
ARC
  5
EE
330
2
100
AcDbEntity
  8
0
100
AcDbCircle
 10
-1.480999999999998
 20
12.27140780140621
 30
0.0
 40
0.048
100
AcDbArc
 50
180.0
 51
270.0
  0
ARC
  5
EF
330
2
100
AcDbEntity
  8
0
100
AcDbCircle
 10
-1.4955
 20
12.25690780140621
 30
0.0
 40
0.096
100
AcDbArc
 50
180.0
 51
270.0
  0
LINE
  5
F0
330
2
100
AcDbEntity
  8
0
100
AcDbLine
 10
-1.5915
 20
12.48433362031811
 30
0.0
 11
-1.824703796219547
 21
12.48433362031811
 31
0.0
  0
LINE
  5
F1
330
2
100
AcDbEntity
  8
0
100
AcDbLine
 10
-0.0289999999999981
 20
12.25390399076043
 30
0.0
 11
-0.0289999999999999
 21
13.5468336203181
 31
0.0
  0
LINE
  5
F2
330
2
100
AcDbEntity
  8
0
100
AcDbLine
 10
-0.0914999999999981
 20
12.26840399076043
 30
0.0
 11
-0.0914999999999981
 21
13.5468336203181
 31
0.0
  0
ARC
  5
F3
330
2
100
AcDbEntity
  8
0
100
AcDbCircle
 10
-0.1249999999999982
 20
12.25390399076043
 30
0.0
 40
0.096
100
AcDbArc
 50
270.0
 51
0.0
  0
ARC
  5
F4
330
2
100
AcDbEntity
  8
0
100
AcDbCircle
 10
-0.1394999999999982
 20
12.26840399076043
 30
0.0
 40
0.048
100
AcDbArc
 50
270.0
 51
0.0
  0
LINE
  5
F5
330
2
100
AcDbEntity
  8
0
100
AcDbLine
 10
0.0
 20
0.0
 30
0.0
 11
-4.965986323280248
 21
0.0
 31
0.0
  0
LINE
  5
F6
330
2
100
AcDbEntity
  8
0
100
AcDbLine
 10
-4.965986323280248
 20
1.5625
 30
0.0
 11
-1.87163289224851
 21
1.5625
 31
0.0
  0
LINE
  5
F7
330
2
100
AcDbEntity
  8
0
100
AcDbLine
 10
-4.965986323280247
 20
0.3428551911471587
 30
0.0
 11
-4.965986323280248
 21
1.218751607123014
 31
0.0
  0
LINE
  5
F8
330
2
100
AcDbEntity
  8
0
100
AcDbLine
 10
-4.903486323280248
 20
0.0620533991348289
 30
0.0
 11
-4.903039722415429
 21
0.2808033991351806
 31
0.0
  0
LINE
  5
F9
330
2
100
AcDbEntity
  8
0
100
AcDbLine
 10
-4.965539722415429
 20
-0.0004466008648194
 30
0.0
 11
-4.965539722415429
 21
0.0625355887062469
 31
0.0
  0
ARC
  5
FA
330
2
100
AcDbEntity
  8
0
100
AcDbCircle
 10
-4.965539722415429
 20
0.0620533991351806
 30
0.0
 40
0.0620533991351806
100
AcDbArc
 50
270.0
 51
0.0
  0
ARC
  5
FB
330
2
100
AcDbEntity
  8
0
100
AcDbCircle
 10
-4.934095451239301
 20
0.1160321507859763
 30
0.0
 40
0.0620533991351806
100
AcDbArc
 50
239.5537900583658
 51
299.5557874457501
  0
LINE
  5
FC
330
2
100
AcDbEntity
  8
0
100
AcDbLine
 10
-4.965986323280248
 20
0.0
 30
0.0
 11
-4.965986323280248
 21
0.0631659486831246
 31
0.0
  0
ARC
  5
FD
330
2
100
AcDbEntity
  8
0
100
AcDbCircle
 10
-4.965539722415429
 20
0.2808033991351806
 30
0.0
 40
0.0620533991351806
100
AcDbArc
 50
0.0000000000000368
 51
90.41236364074143
  0
LINE
  5
FE
330
2
100
AcDbEntity
  8
0
100
AcDbLine
 10
-4.903039722415429
 20
1.5
 30
0.0
 11
-4.903039722415429
 21
1.280803399135174
 31
0.0
  0
ARC
  5
FF
330
2
100
AcDbEntity
  8
0
100
AcDbCircle
 10
-4.965539722415429
 20
1.280803399135174
 30
0.0
 40
0.0620533991351806
100
AcDbArc
 50
269.5876363592586
 51
0.0
  0
LINE
  5
100
330
2
100
AcDbEntity
  8
0
100
AcDbLine
 10
-4.965539722415429
 20
1.499071209564569
 30
0.0
 11
-4.903039722415429
 21
1.499553467296259
 31
0.0
  0
ARC
  5
101
330
2
100
AcDbEntity
  8
0
100
AcDbCircle
 10
-4.965539722415429
 20
1.499553399135181
 30
0.0
 40
0.0620533991351806
100
AcDbArc
 50
0.0000000000000368
 51
90.00000000000003
  0
LINE
  5
102
330
2
100
AcDbEntity
  8
0
100
AcDbLine
 10
-4.965539722415429
 20
1.499071209564569
 30
0.0
 11
-4.965539722415429
 21
1.562053399135181
 31
0.0
  0
LINE
  5
103
330
2
100
AcDbEntity
  8
0
100
AcDbLine
 10
-1.5915
 20
1.98029974852264
 30
0.0
 11
-1.5915
 21
4.969263676719748
 31
0.0
  0
LINE
  5
104
330
2
100
AcDbEntity
  8
0
100
AcDbLine
 10
-0.0289999999999999
 20
4.969263676719748
 30
0.0
 11
-0.0289999999999999
 21
0.0959999999999965
 31
0.0
  0
ARC
  5
105
330
2
100
AcDbEntity
  8
0
100
AcDbCircle
 10
-0.456512526443758
 20
2.031763676719748
 30
0.0
 40
0.25
100
AcDbArc
 50
270.0
 51
19.47122063449213
  0
LINE
  5
106
330
2
100
AcDbEntity
  8
0
100
AcDbLine
 10
-0.0144999999999982
 20
0.0625
 30
0.0
 11
-2.309159967902506
 21
0.0625
 31
0.0
  0
ARC
  5
107
330
2
100
AcDbEntity
  8
0
100
AcDbCircle
 10
-1.864498835684884
 20
1.546426883790623
 30
0.0
 40
0.0465583634359522
100
AcDbArc
 50
265.6930453872357
 51
323.1384660827287
  0
LINE
  5
108
330
2
100
AcDbEntity
  8
0
100
AcDbLine
 10
-1.547497303097494
 20
1.904664923803985
 30
0.0
 11
-1.887451605266943
 21
1.567637432676413
 31
0.0
  0
LINE
  5
109
330
2
100
AcDbEntity
  8
0
100
AcDbLine
 10
-1.5915
 20
1.94904974852264
 30
0.0
 11
-1.931454302169453
 21
1.612022257395072
 31
0.0
  0
LINE
  5
10A
330
2
100
AcDbEntity
  8
0
100
AcDbLine
 10
-1.917295357860688
 20
1.406299999999931
 30
0.0
 11
-1.778486323280252
 21
1.406299999999931
 31
0.0
  0
LINE
  5
10B
330
2
100
AcDbEntity
  8
0
100
AcDbLine
 10
-1.87163289224851
 20
1.5625
 30
0.0
 11
-1.567948648640318
 21
1.863385576563776
 31
0.0
  0
ARC
  5
10C
330
2
100
AcDbEntity
  8
0
100
AcDbCircle
 10
-2.155873221462215
 20
0.5922448208653748
 30
0.0
 40
0.398714416915481
100
AcDbArc
 50
262.572797953049
 51
341.1751298352849
  0
CIRCLE
  5
10D
330
2
100
AcDbEntity
  8
0
100
AcDbCircle
 10
-2.965986323280252
 20
0.78125
 30
0.0
 40
0.25
  0
ARC
  5
10E
330
2
100
AcDbEntity
  8
0
100
AcDbCircle
 10
-2.184686323280246
 20
0.073959135850501
 30
0.0
 40
0.125
100
AcDbArc
 50
100.4756816963877
 51
185.2598658665735
  0
LINE
  5
10F
330
2
100
AcDbEntity
  8
0
100
AcDbLine
 10
-2.309159967902549
 20
0.0625
 30
0.0
 11
-2.309159967902549
 21
0.0
 31
0.0
  0
LINE
  5
110
330
2
100
AcDbEntity
  8
0
100
AcDbLine
 10
-1.97729535786069
 20
1.499999999999996
 30
0.0
 11
-1.867995357860693
 21
1.499999999999996
 31
0.0
  0
LINE
  5
111
330
2
100
AcDbEntity
  8
0
100
AcDbLine
 10
-1.931454302169453
 20
1.612022257395072
 30
0.0
 11
-1.887465182788773
 21
1.567623976165812
 31
0.0
  0
ARC
  5
112
330
2
100
AcDbEntity
  8
0
100
AcDbCircle
 10
-1.917295357860688
 20
1.469950000000001
 30
0.0
 40
0.06
100
AcDbArc
 50
180.0000000000042
 51
270.0
  0
LINE
  5
113
330
2
100
AcDbEntity
  8
0
100
AcDbLine
 10
-1.97729535786069
 20
1.5625
 30
0.0
 11
-1.97729535786069
 21
1.469950000000001
 31
0.0
  0
LINE
  5
114
330
2
100
AcDbEntity
  8
0
100
AcDbLine
 10
-1.778486323280252
 20
1.406299999999931
 30
0.0
 11
-1.778486323280253
 21
0.4635890190651892
 31
0.0
  0
LINE
  5
115
330
2
100
AcDbEntity
  8
0
100
AcDbLine
 10
-1.378902941928271
 20
0.0625
 30
0.0
 11
-1.378902941928271
 21
0.0
 31
0.0
  0
LINE
  5
116
330
2
100
AcDbEntity
  8
0
100
AcDbLine
 10
-0.456512526443758
 20
1.781763676719748
 30
0.0
 11
-1.438436323280254
 21
1.781763676719748
 31
0.0
  0
ARC
  5
117
330
2
100
AcDbEntity
  8
0
100
AcDbCircle
 10
-1.498436323280258
 20
1.920199999999895
 30
0.0
 40
0.06
100
AcDbArc
 50
0.0
 51
89.99999999999577
  0
LINE
  5
118
330
2
100
AcDbEntity
  8
0
100
AcDbLine
 10
-1.529
 20
1.949049748522644
 30
0.0
 11
-1.529
 21
1.980299748522644
 31
0.0
  0
LINE
  5
119
330
2
100
AcDbEntity
  8
0
100
AcDbLine
 10
-1.5915
 20
1.94904974852264
 30
0.0
 11
-1.5915
 21
1.98029974852264
 31
0.0
  0
LINE
  5
11A
330
2
100
AcDbEntity
  8
0
100
AcDbLine
 10
-1.498436323280254
 20
1.980199999999893
 30
0.0
 11
-1.591500000000002
 21
1.980503725378213
 31
0.0
  0
ARC
  5
11B
330
2
100
AcDbEntity
  8
0
100
AcDbCircle
 10
-1.5915
 20
1.949049748522644
 30
0.0
 40
0.0625
100
AcDbArc
 50
314.7522933747875
 51
0.0
  0
LINE
  5
11C
330
2
100
AcDbEntity
  8
0
100
AcDbLine
 10
-1.827265607304479
 20
1.518476399268533
 30
0.0
 11
-1.523959529259649
 21
1.818987295334505
 31
0.0
  0
LINE
  5
11D
330
2
100
AcDbEntity
  8
0
100
AcDbLine
 10
-1.567948648640318
 20
1.863385576563776
 30
0.0
 11
-1.523959529259638
 21
1.818987295334519
 31
0.0
  0
LINE
  5
11E
330
2
100
AcDbEntity
  8
0
100
AcDbLine
 10
-1.438436323280262
 20
1.920199999999895
 30
0.0
 11
-1.438436323280255
 21
1.781763676719748
 31
0.0
  0
CIRCLE
  5
11F
330
2
100
AcDbEntity
  8
0
100
AcDbCircle
 10
-0.8102499999998969
 20
2.969263676719748
 30
0.0
 40
0.25
  0
LINE
  5
120
330
2
100
AcDbEntity
  8
0
100
AcDbLine
 10
-0.0914999999999999
 20
2.281237321341983
 30
0.0
 11
-0.0914999999999981
 21
0.1104999999999983
 31
0.0
  0
ARC
  5
121
330
2
100
AcDbEntity
  8
0
100
AcDbCircle
 10
-0.125
 20
0.0959999999999965
 30
0.0
 40
0.096
100
AcDbArc
 50
270.0
 51
0.0
  0
ARC
  5
122
330
2
100
AcDbEntity
  8
0
100
AcDbCircle
 10
-0.1394999999999982
 20
0.1104999999999983
 30
0.0
 40
0.048
100
AcDbArc
 50
270.0
 51
0.0
  0
LINE
  5
123
330
2
100
AcDbEntity
  8
0
100
AcDbLine
 10
-0.0914999999999999
 20
1.432854879902358
 30
0.0
 11
-0.0289999999999999
 21
1.432854879902358
 31
0.0
  0
ARC
  5
124
330
2
100
AcDbEntity
  8
0
100
AcDbCircle
 10
-0.102959135850508
 20
2.156763676719748
 30
0.0
 40
0.125
100
AcDbArc
 50
84.74013413342034
 51
199.4712206344914
  0
LINE
  5
125
330
2
100
AcDbEntity
  8
0
100
AcDbLine
 10
-0.0914999999999999
 20
2.281237321342051
 30
0.0
 11
-0.0289999999999999
 21
2.281237321342051
 31
0.0
  0
LINE
  5
126
330
2
100
AcDbEntity
  8
0
100
AcDbLine
 10
-1.21694660086461
 20
4.969263676719748
 30
0.0
 11
-0.4035533991351823
 21
4.969263676719748
 31
0.0
  0
LINE
  5
127
330
2
100
AcDbEntity
  8
0
100
AcDbLine
 10
-1.529
 20
4.906763676719748
 30
0.0
 11
-1.271223851361569
 21
4.906763676719748
 31
0.0
  0
ARC
  5
128
330
2
100
AcDbEntity
  8
0
100
AcDbCircle
 10
-1.475021248349204
 20
4.937819405543621
 30
0.0
 40
0.0620533991351806
100
AcDbArc
 50
149.5537900583658
 51
209.55578744575
  0
ARC
  5
129
330
2
100
AcDbEntity
  8
0
100
AcDbCircle
 10
-1.529
 20
4.969263676719748
 30
0.0
 40
0.0620533991351806
100
AcDbArc
 50
180.0
 51
270.0
  0
LINE
  5
12A
330
2
100
AcDbEntity
  8
0
100
AcDbLine
 10
-1.5915
 20
4.969263676719748
 30
0.0
 11
-1.52851781042893
 21
4.969263676719748
 31
0.0
  0
ARC
  5
12B
330
2
100
AcDbEntity
  8
0
100
AcDbCircle
 10
-1.278999999999996
 20
4.969263676719748
 30
0.0
 40
0.0620533991351806
100
AcDbArc
 50
270.0000000000001
 51
0.0000000000000254
  0
LINE
  5
12C
330
2
100
AcDbEntity
  8
0
100
AcDbLine
 10
-0.0919821895706097
 20
4.969263676719748
 30
0.0
 11
-0.0289999999999999
 21
4.969263676719748
 31
0.0
  0
LINE
  5
12D
330
2
100
AcDbEntity
  8
0
100
AcDbLine
 10
-0.0914999999999999
 20
4.906763676719748
 30
0.0
 11
-0.349276148638431
 21
4.906763676719748
 31
0.0
  0
ARC
  5
12E
330
2
100
AcDbEntity
  8
0
100
AcDbCircle
 10
-0.1454787516507956
 20
4.937819405543621
 30
0.0
 40
0.0620533991351806
100
AcDbArc
 50
330.44421255425
 51
30.44620994163421
  0
ARC
  5
12F
330
2
100
AcDbEntity
  8
0
100
AcDbCircle
 10
-0.3415000000000017
 20
4.969263676719748
 30
0.0
 40
0.0620533991351806
100
AcDbArc
 50
180.0
 51
270.0
  0
ARC
  5
130
330
2
100
AcDbEntity
  8
0
100
AcDbCircle
 10
-0.0914999999999999
 20
4.969263676719748
 30
0.0
 40
0.0620533991351806
100
AcDbArc
 50
270.0000000000001
 51
0.0000000000000254
  0
LINE
  5
131
330
2
100
AcDbEntity
  8
0
100
AcDbLine
 10
6.207208066117794
 20
-0.0864751979109819
 30
0.0
 11
10.58220806611779
 21
-0.0864751979109819
 31
0.0
  0
LINE
  5
132
330
2
100
AcDbEntity
  8
0
100
AcDbLine
 10
7.332208066117794
 20
1.413524676760289
 30
0.0
 11
8.519708066117794
 21
1.413524676760289
 31
0.0
  0
ARC
  5
133
330
2
100
AcDbEntity
  8
0
100
AcDbCircle
 10
7.332208066117794
 20
0.2885246767602894
 30
0.0
 40
1.125
100
AcDbArc
 50
90.0
 51
180.0
  0
LINE
  5
134
330
2
100
AcDbEntity
  8
0
100
AcDbLine
 10
6.207208066117794
 20
-0.0864751979109819
 30
0.0
 11
6.207208066117794
 21
0.2885246767602894
 31
0.0
  0
LINE
  5
135
330
2
100
AcDbEntity
  8
0
100
AcDbLine
 10
10.58220806611779
 20
4.788524676760297
 30
0.0
 11
10.58220806611779
 21
-0.0864751979109855
 31
0.0
  0
LINE
  5
136
330
2
100
AcDbEntity
  8
0
100
AcDbLine
 10
9.144708066117794
 20
1.795654225537135
 30
0.0
 11
9.14470806611779
 21
4.976024676760297
 31
0.0
  0
LINE
  5
137
330
2
100
AcDbEntity
  8
0
100
AcDbLine
 10
9.207208066117794
 20
2.297491110755832
 30
0.0
 11
9.207208066117794
 21
4.913524676760289
 31
0.0
  0
ARC
  5
138
330
2
100
AcDbEntity
  8
0
100
AcDbCircle
 10
8.527161920909887
 20
2.22328818353127
 30
0.0
 40
0.8097754601889573
100
AcDbArc
 50
269.688683663153
 51
356.3047808938373
  0
LINE
  5
139
330
2
100
AcDbEntity
  8
0
100
AcDbLine
 10
9.207208066117794
 20
1.795654225537135
 30
0.0
 11
9.207208066117794
 21
2.297491110755832
 31
0.0
  0
CIRCLE
  5
13A
330
2
100
AcDbEntity
  8
0
100
AcDbCircle
 10
8.426008066117795
 20
0.4202438779672058
 30
0.0
 40
0.078
  0
LINE
  5
13B
330
2
100
AcDbEntity
  8
0
100
AcDbLine
 10
8.531561810247503
 20
1.413524676760289
 30
0.0
 11
8.519708066117794
 21
1.413524676760289
 31
0.0
  0
LINE
  5
13C
330
2
100
AcDbEntity
  8
0
100
AcDbLine
 10
9.144708066117794
 20
1.795654225537135
 30
0.0
 11
9.207208066117794
 21
1.795654225537135
 31
0.0
  0
CIRCLE
  5
13D
330
2
100
AcDbEntity
  8
0
100
AcDbCircle
 10
10.2385080661178
 20
0.4760246767602894
 30
0.0
 40
0.078
  0
LINE
  5
13E
330
2
100
AcDbEntity
  8
0
100
AcDbLine
 10
9.144708066117794
 20
2.297491110755832
 30
0.0
 11
9.207208066117794
 21
2.297491110755832
 31
0.0
  0
ARC
  5
13F
330
2
100
AcDbEntity
  8
0
100
AcDbCircle
 10
9.210262031569968
 20
2.172528423144623
 30
0.0
 40
0.125
100
AcDbArc
 50
359.3447556167045
 51
91.39997394927298
  0
CIRCLE
  5
140
330
2
100
AcDbEntity
  8
0
100
AcDbCircle
 10
10.05090806611779
 20
2.351024676760297
 30
0.0
 40
0.08595
  0
LINE
  5
141
330
2
100
AcDbEntity
  8
0
100
AcDbLine
 10
9.269708066118405
 20
4.976024676760297
 30
0.0
 11
10.39470806611779
 21
4.976024676760297
 31
0.0
  0
LINE
  5
142
330
2
100
AcDbEntity
  8
0
100
AcDbLine
 10
9.207208066117794
 20
4.913524676760289
 30
0.0
 11
9.207208066117794
 21
4.976024676760289
 31
0.0
  0
LINE
  5
143
330
2
100
AcDbEntity
  8
0
100
AcDbLine
 10
9.14470806611779
 20
4.913524676760289
 30
0.0
 11
9.207208066117794
 21
4.913524676760289
 31
0.0
  0
ARC
  5
144
330
2
100
AcDbEntity
  8
0
100
AcDbCircle
 10
9.207208066117794
 20
4.976024676760289
 30
0.0
 40
0.0625
100
AcDbArc
 50
270.0
 51
0.0
  0
LINE
  5
145
330
2
100
AcDbEntity
  8
0
100
AcDbLine
 10
9.14470806611779
 20
4.976024676760297
 30
0.0
 11
9.207208066117794
 21
4.976024676760297
 31
0.0
  0
LINE
  5
146
330
2
100
AcDbEntity
  8
0
100
AcDbLine
 10
10.39470806611779
 20
4.976024676760297
 30
0.0
 11
10.58220806611779
 21
4.788524676760297
 31
0.0
  0
CIRCLE
  5
147
330
2
100
AcDbEntity
  8
0
100
AcDbCircle
 10
10.22883578626131
 20
4.663524676760297
 30
0.0
 40
0.08595
  0
ENDSEC
  0
SECTION
  2
OBJECTS
  0
DICTIONARY
  5
9
330
0
100
AcDbDictionary
281
     1
  3
ACAD_COLOR
350
14B
  3
ACAD_GROUP
350
23
  3
ACAD_LAYOUT
350
D
  3
ACAD_MATERIAL
350
14A
  3
ACAD_MLINESTYLE
350
24
  3
ACAD_PLOTSETTINGS
350
25
  3
ACAD_PLOTSTYLENAME
350
8
  3
ACAD_TABLESTYLE
350
14C
  3
ACDBHEADERROUNDTRIPXREC
350
158
  3
AcDbVariableDictionary
350
C1
  0
DICTIONARY
  5
14B
102
{ACAD_REACTORS
330
9
102
}
330
9
100
AcDbDictionary
281
     1
  0
DICTIONARY
  5
23
102
{ACAD_REACTORS
330
9
102
}
330
9
100
AcDbDictionary
281
     1
  0
DICTIONARY
  5
D
102
{ACAD_REACTORS
330
9
102
}
330
9
100
AcDbDictionary
281
     1
  3
Layout1
350
13
  3
Model
350
C
  0
DICTIONARY
  5
14A
102
{ACAD_REACTORS
330
9
102
}
330
9
100
AcDbDictionary
281
     1
  0
DICTIONARY
  5
24
102
{ACAD_REACTORS
330
9
102
}
330
9
100
AcDbDictionary
281
     1
  3
Standard
350
27
  0
DICTIONARY
  5
25
102
{ACAD_REACTORS
330
9
102
}
330
9
100
AcDbDictionary
281
     1
  0
ACDBDICTIONARYWDFLT
  5
8
102
{ACAD_REACTORS
330
9
102
}
330
9
100
AcDbDictionary
281
     1
  3
Normal
350
7
100
AcDbDictionaryWithDefault
340
7
  0
DICTIONARY
  5
14C
102
{ACAD_REACTORS
330
9
102
}
330
9
100
AcDbDictionary
281
     1
  3
Standard
350
14D
  0
DICTIONARY
  5
158
102
{ACAD_REACTORS
330
9
102
}
330
9
100
AcDbDictionary
281
     1
  3
COLORDICT
350
159
  3
MATERIALDICT
350
15A
  0
DICTIONARY
  5
C1
102
{ACAD_REACTORS
330
9
102
}
330
9
100
AcDbDictionary
281
     1
  3
CTABLESTYLE
350
156
  3
DIMASSOC
350
C3
  3
HIDETEXT
350
C2
  0
LAYOUT
  5
13
102
{ACAD_REACTORS
330
D
102
}
102
{ACAD_XDICTIONARY
360
15B
102
}
330
D
100
AcDbPlotSettings
  1

  2
hp psc 2100 series
  4

  6

 40
0.0
 41
0.0
 42
0.0
 43
0.0
 44
0.0
 45
0.0
 46
0.0
 47
0.0
 48
0.0
 49
0.0
140
0.0
141
0.0
142
1.0
143
1.0
 70
   688
 72
     0
 73
     0
 74
     5
  7

 75
    16
147
1.0
148
0.0
149
0.0
100
AcDbLayout
  1
Layout1
 70
     0
 71
     1
 10
0.0
 20
0.0
 11
12.0
 21
9.0
 12
0.0
 22
0.0
 32
0.0
 14
1.000000000000000E+20
 24
1.000000000000000E+20
 34
1.000000000000000E+20
 15
-1.000000000000000E+20
 25
-1.000000000000000E+20
 35
-1.000000000000000E+20
146
0.0
 13
0.0
 23
0.0
 33
0.0
 16
1.0
 26
0.0
 36
0.0
 17
0.0
 27
1.0
 37
0.0
 76
     0
330
E
  0
LAYOUT
  5
C
102
{ACAD_REACTORS
330
D
102
}
102
{ACAD_XDICTIONARY
360
15D
102
}
330
D
100
AcDbPlotSettings
  1

  2
HP LaserJet 2100 Series PS
  4
Letter
  6

 40
5.365749835968018
 41
5.408073902130127
 42
5.132904052734375
 43
5.090576171875
 44
215.8999938964844
 45
279.3999938964844
 46
0.0
 47
0.0
 48
0.0
 49
0.0
140
0.0
141
0.0
142
1.0
143
2.975440689981091
 70
 28336
 72
     0
 73
     1
 74
     2
  7

 75
     0
147
0.3360846691944497
148
0.0
149
0.0
100
AcDbLayout
  1
Model
 70
     1
 71
     0
 10
0.0
 20
0.0
 11
12.0
 21
9.0
 12
0.0
 22
0.0
 32
0.0
 14
0.0
 24
0.0
 34
0.0
 15
0.0
 25
0.0
 35
0.0
146
0.0
 13
0.0
 23
0.0
 33
0.0
 16
1.0
 26
0.0
 36
0.0
 17
0.0
 27
1.0
 37
0.0
 76
     0
330
2
  0
MLINESTYLE
  5
27
102
{ACAD_REACTORS
330
24
102
}
330
24
100
AcDbMlineStyle
  2
STANDARD
 70
     0
  3

 62
   256
 51
90.0
 52
90.0
 71
     2
 49
0.5
 62
   256
  6
BYLAYER
 49
-0.5
 62
   256
  6
BYLAYER
  0
ACDBPLACEHOLDER
  5
7
102
{ACAD_REACTORS
330
8
102
}
330
8
  0
ACAD_PROXY_OBJECT
  5
14D
102
{ACAD_REACTORS
330
14C
102
}
330
14C
100
AcDbProxyObject
 90
      499
 91
      532
 95
   983063
 70
     0
 93
     1841
310
4214DD185B99185C9928B81E85EB51B8AE3F2E07A17AD46E2B8FC02B5E8DC0F42B1CFD028000000C1008070000C3001FDFF8000000C1003FBFF000000182007F7FE00000030400FEFFC00000060801FDFF8000000C1003FBFF00000018200000000000000681FA0B0000001820100E000186003FBFF000000182007F7FE000
310
00030400FEFFC00000060801FDFF8000000C1003FBFF000000182007F7FE000000304000AD7A3703D0AC73F4160000003040201C00030C007F7FE00000030400FEFFC00000060801FDFF8000000C1003FBFF000000182007F7FE00000030400FEFFC000000608000
340
16
340
16
340
16
 94
        0
  0
XRECORD
  5
159
102
{ACAD_REACTORS
330
158
102
}
330
158
100
AcDbXrecord
340
14B
  0
XRECORD
  5
15A
102
{ACAD_REACTORS
330
158
102
}
330
158
100
AcDbXrecord
340
14A
  0
DICTIONARYVAR
  5
156
102
{ACAD_REACTORS
330
C1
102
}
330
C1
100
DictionaryVariables
280
     0
  1
STANDARD
  0
DICTIONARYVAR
  5
C3
102
{ACAD_REACTORS
330
C1
102
}
330
C1
100
DictionaryVariables
280
     0
  1
2
  0
DICTIONARYVAR
  5
C2
102
{ACAD_REACTORS
330
C1
102
}
330
C1
100
DictionaryVariables
280
     0
  1
1
  0
DICTIONARY
  5
15B
330
13
100
AcDbDictionary
280
     1
281
     1
  3
ACAD_XREC_ROUNDTRIP
360
15C
  0
DICTIONARY
  5
15D
330
C
100
AcDbDictionary
280
     1
281
     1
  3
ACAD_XREC_ROUNDTRIP
360
15E
  0
XRECORD
  5
15C
102
{ACAD_REACTORS
330
15B
102
}
330
15B
100
AcDbXrecord
102
SHADEPLOT
 70
     0
102
SHADEPLOTRESLEVEL
 70
     2
102
SHADEPLOTCUSTOMDPI
 70
   300
  0
XRECORD
  5
15E
102
{ACAD_REACTORS
330
15D
102
}
330
15D
100
AcDbXrecord
102
SHADEPLOT
 70
     0
102
SHADEPLOTRESLEVEL
 70
     2
102
SHADEPLOTCUSTOMDPI
 70
   300
  0
ENDSEC
  0
EOF
