  0
SECTION
  2
HEADER
  9
$ACADVER
  1
AC1015
  9
$ACADMAINTVER
 70
     6
  9
$DWGCODEPAGE
  3
ANSI_1252
  9
$INSBASE
 10
0.0
 20
0.0
 30
0.0
  9
$EXTMIN
 10
-7.607823889128808
 20
0.0
 30
0.0
  9
$EXTMAX
 10
15.97660197515223
 20
25.04837465297256
 30
0.0
  9
$LIMMIN
 10
0.0
 20
0.0
  9
$LIMMAX
 10
32.0
 20
42.0
  9
$ORTHOMODE
 70
     1
  9
$REGENMODE
 70
     1
  9
$FILLMODE
 70
     1
  9
$QTEXTMODE
 70
     0
  9
$MIRRTEXT
 70
     0
  9
$LTSCALE
 40
1.0
  9
$ATTMODE
 70
     1
  9
$TEXTSIZE
 40
0.36
  9
$TRACEWID
 40
0.05
  9
$TEXTSTYLE
  7
STANDARD
  9
$CLAYER
  8
0
  9
$CELTYPE
  6
ByLayer
  9
$CECOLOR
 62
   256
  9
$CELTSCALE
 40
1.0
  9
$DISPSILH
 70
     0
  9
$DIMSCALE
 40
4.0
  9
$DIMASZ
 40
0.125
  9
$DIMEXO
 40
0.062
  9
$DIMDLI
 40
0.375
  9
$DIMRND
 40
0.0
  9
$DIMDLE
 40
0.0
  9
$DIMEXE
 40
0.08
  9
$DIMTP
 40
0.0
  9
$DIMTM
 40
0.0
  9
$DIMTXT
 40
0.09
  9
$DIMCEN
 40
-0.03125
  9
$DIMTSZ
 40
0.0
  9
$DIMTOL
 70
     0
  9
$DIMLIM
 70
     0
  9
$DIMTIH
 70
     1
  9
$DIMTOH
 70
     1
  9
$DIMSE1
 70
     0
  9
$DIMSE2
 70
     0
  9
$DIMTAD
 70
     0
  9
$DIMZIN
 70
     0
  9
$DIMBLK
  1

  9
$DIMASO
 70
     0
  9
$DIMSHO
 70
     0
  9
$DIMPOST
  1

  9
$DIMAPOST
  1

  9
$DIMALT
 70
     0
  9
$DIMALTD
 70
     2
  9
$DIMALTF
 40
25.4
  9
$DIMLFAC
 40
1.0
  9
$DIMTOFL
 70
     0
  9
$DIMTVP
 40
0.0
  9
$DIMTIX
 70
     0
  9
$DIMSOXD
 70
     0
  9
$DIMSAH
 70
     0
  9
$DIMBLK1
  1

  9
$DIMBLK2
  1

  9
$DIMSTYLE
  2
Standard
  9
$DIMCLRD
 70
     0
  9
$DIMCLRE
 70
     0
  9
$DIMCLRT
 70
     0
  9
$DIMTFAC
 40
1.0
  9
$DIMGAP
 40
0.09
  9
$DIMJUST
 70
     0
  9
$DIMSD1
 70
     0
  9
$DIMSD2
 70
     0
  9
$DIMTOLJ
 70
     1
  9
$DIMTZIN
 70
     0
  9
$DIMALTZ
 70
     0
  9
$DIMALTTZ
 70
     0
  9
$DIMUPT
 70
     0
  9
$DIMDEC
 70
     4
  9
$DIMTDEC
 70
     4
  9
$DIMALTU
 70
     5
  9
$DIMALTTD
 70
     2
  9
$DIMTXSTY
  7
STANDARD
  9
$DIMAUNIT
 70
     0
  9
$DIMADEC
 70
     0
  9
$DIMALTRND
 40
0.0
  9
$DIMAZIN
 70
     0
  9
$DIMDSEP
 70
    46
  9
$DIMATFIT
 70
     3
  9
$DIMFRAC
 70
     0
  9
$DIMLDRBLK
  1

  9
$DIMLUNIT
 70
     5
  9
$DIMLWD
 70
    -2
  9
$DIMLWE
 70
    -2
  9
$DIMTMOVE
 70
     2
  9
$LUNITS
 70
     5
  9
$LUPREC
 70
     4
  9
$SKETCHINC
 40
0.1
  9
$FILLETRAD
 40
0.03125
  9
$AUNITS
 70
     0
  9
$AUPREC
 70
     0
  9
$MENU
  1
QA
  9
$ELEVATION
 40
0.0
  9
$PELEVATION
 40
0.0
  9
$THICKNESS
 40
0.0
  9
$LIMCHECK
 70
     0
  9
$CHAMFERA
 40
0.25
  9
$CHAMFERB
 40
0.25
  9
$CHAMFERC
 40
0.0
  9
$CHAMFERD
 40
0.0
  9
$SKPOLY
 70
     0
  9
$TDCREATE
 40
2449248.909714815
  9
$TDUCREATE
 40
2449249.243048148
  9
$TDUPDATE
 40
2454179.855958681
  9
$TDUUPDATE
 40
2454180.189292014
  9
$TDINDWG
 40
0.1730577431
  9
$TDUSRTIMER
 40
0.1730577431
  9
$USRTIMER
 70
     1
  9
$ANGBASE
 50
0.0
  9
$ANGDIR
 70
     0
  9
$PDMODE
 70
     0
  9
$PDSIZE
 40
0.0
  9
$PLINEWID
 40
0.0
  9
$SPLFRAME
 70
     0
  9
$SPLINETYPE
 70
     6
  9
$SPLINESEGS
 70
     8
  9
$HANDSEED
  5
1D0
  9
$SURFTAB1
 70
     6
  9
$SURFTAB2
 70
     6
  9
$SURFTYPE
 70
     6
  9
$SURFU
 70
     6
  9
$SURFV
 70
     6
  9
$UCSBASE
  2

  9
$UCSNAME
  2

  9
$UCSORG
 10
0.0
 20
0.0
 30
0.0
  9
$UCSXDIR
 10
1.0
 20
0.0
 30
0.0
  9
$UCSYDIR
 10
0.0
 20
1.0
 30
0.0
  9
$UCSORTHOREF
  2

  9
$UCSORTHOVIEW
 70
     0
  9
$UCSORGTOP
 10
0.0
 20
0.0
 30
0.0
  9
$UCSORGBOTTOM
 10
0.0
 20
0.0
 30
0.0
  9
$UCSORGLEFT
 10
0.0
 20
0.0
 30
0.0
  9
$UCSORGRIGHT
 10
0.0
 20
0.0
 30
0.0
  9
$UCSORGFRONT
 10
0.0
 20
0.0
 30
0.0
  9
$UCSORGBACK
 10
0.0
 20
0.0
 30
0.0
  9
$PUCSBASE
  2

  9
$PUCSNAME
  2

  9
$PUCSORG
 10
0.0
 20
0.0
 30
0.0
  9
$PUCSXDIR
 10
1.0
 20
0.0
 30
0.0
  9
$PUCSYDIR
 10
0.0
 20
1.0
 30
0.0
  9
$PUCSORTHOREF
  2

  9
$PUCSORTHOVIEW
 70
     0
  9
$PUCSORGTOP
 10
0.0
 20
0.0
 30
0.0
  9
$PUCSORGBOTTOM
 10
0.0
 20
0.0
 30
0.0
  9
$PUCSORGLEFT
 10
0.0
 20
0.0
 30
0.0
  9
$PUCSORGRIGHT
 10
0.0
 20
0.0
 30
0.0
  9
$PUCSORGFRONT
 10
0.0
 20
0.0
 30
0.0
  9
$PUCSORGBACK
 10
0.0
 20
0.0
 30
0.0
  9
$USERI1
 70
     0
  9
$USERI2
 70
     0
  9
$USERI3
 70
     0
  9
$USERI4
 70
     0
  9
$USERI5
 70
     0
  9
$USERR1
 40
0.0
  9
$USERR2
 40
0.0
  9
$USERR3
 40
0.0
  9
$USERR4
 40
0.0
  9
$USERR5
 40
0.0
  9
$WORLDVIEW
 70
     1
  9
$SHADEDGE
 70
     3
  9
$SHADEDIF
 70
    70
  9
$TILEMODE
 70
     1
  9
$MAXACTVP
 70
    16
  9
$PINSBASE
 10
0.0
 20
0.0
 30
0.0
  9
$PLIMCHECK
 70
     0
  9
$PEXTMIN
 10
1.000000000000000E+20
 20
1.000000000000000E+20
 30
1.000000000000000E+20
  9
$PEXTMAX
 10
-1.000000000000000E+20
 20
-1.000000000000000E+20
 30
-1.000000000000000E+20
  9
$PLIMMIN
 10
0.0
 20
0.0
  9
$PLIMMAX
 10
12.0
 20
9.0
  9
$UNITMODE
 70
     0
  9
$VISRETAIN
 70
     0
  9
$PLINEGEN
 70
     1
  9
$PSLTSCALE
 70
     0
  9
$TREEDEPTH
 70
  3020
  9
$CMLSTYLE
  2
Standard
  9
$CMLJUST
 70
     0
  9
$CMLSCALE
 40
1.0
  9
$PROXYGRAPHICS
 70
     1
  9
$MEASUREMENT
 70
     0
  9
$CELWEIGHT
370
    -1
  9
$ENDCAPS
280
     0
  9
$JOINSTYLE
280
     0
  9
$LWDISPLAY
290
     0
  9
$INSUNITS
 70
     0
  9
$HYPERLINKBASE
  1

  9
$STYLESHEET
  1

  9
$XEDIT
290
     1
  9
$CEPSNTYPE
380
     0
  9
$PSTYLEMODE
290
     1
  9
$FINGERPRINTGUID
  2
{15DD8FF3-BECA-11D4-8FCF-00D0B726A456}
  9
$VERSIONGUID
  2
{8DA9EF31-8ABE-4215-A4A7-4950CF7F7033}
  9
$EXTNAMES
290
     1
  9
$PSVPSCALE
 40
0.0
  9
$OLESTARTUP
290
     0
  0
ENDSEC
  0
SECTION
  2
CLASSES
  0
CLASS
  1
ACDBDICTIONARYWDFLT
  2
AcDbDictionaryWithDefault
  3
AutoCAD 2000
 90
        0
280
     0
281
     0
  0
CLASS
  1
ACDBPLACEHOLDER
  2
AcDbPlaceHolder
  3
ObjectDBX Classes
 90
        0
280
     0
281
     0
  0
CLASS
  1
LAYOUT
  2
AcDbLayout
  3
ObjectDBX Classes
 90
        0
280
     0
281
     0
  0
CLASS
  1
LONG_TRANSACTION
  2
AcDbLongTransaction
  3
ObjectDBX Classes
 90
   -65536
280
     1
281
     0
  0
CLASS
  1
LWPOLYLINE
  2
AcDbPolyline
  3
AutoCAD 2000
 90
        0
280
     0
281
     1
  0
CLASS
  1
HATCH
  2
AcDbHatch
  3
AutoCAD 2000
 90
        0
280
     0
281
     1
  0
CLASS
  1
XRECORD
  2
AcDbXrecord
  3
AutoCAD 2000
 90
        0
280
     0
281
     0
  0
CLASS
  1
LONG_TRANSACTION
  2
AcDbLongTransaction
  3
ObjectDBX Classes
 90
   -65536
280
     1
281
     0
  0
CLASS
  1
LWPOLYLINE
  2
AcDbPolyline
  3
AutoCAD 2000
 90
        0
280
     0
281
     1
  0
CLASS
  1
HATCH
  2
AcDbHatch
  3
AutoCAD 2000
 90
        0
280
     0
281
     1
  0
CLASS
  1
XRECORD
  2
AcDbXrecord
  3
AutoCAD 2000
 90
        0
280
     0
281
     0
  0
CLASS
  1
LONG_TRANSACTION
  2
AcDbLongTransaction
  3
ObjectDBX Classes
 90
   -65536
280
     1
281
     0
  0
CLASS
  1
LWPOLYLINE
  2
AcDbPolyline
  3
AutoCAD 2000
 90
        0
280
     0
281
     1
  0
CLASS
  1
HATCH
  2
AcDbHatch
  3
AutoCAD 2000
 90
        0
280
     0
281
     1
  0
CLASS
  1
XRECORD
  2
AcDbXrecord
  3
AutoCAD 2000
 90
        0
280
     0
281
     0
  0
CLASS
  1
LONG_TRANSACTION
  2
AcDbLongTransaction
  3
ObjectDBX Classes
 90
   -65536
280
     1
281
     0
  0
CLASS
  1
LWPOLYLINE
  2
AcDbPolyline
  3
AutoCAD 2000
 90
        0
280
     0
281
     1
  0
CLASS
  1
HATCH
  2
AcDbHatch
  3
AutoCAD 2000
 90
        0
280
     0
281
     1
  0
CLASS
  1
XRECORD
  2
AcDbXrecord
  3
AutoCAD 2000
 90
        0
280
     0
281
     0
  0
CLASS
  1
DICTIONARYVAR
  2
AcDbDictionaryVar
  3
AutoCAD 2000
 90
        0
280
     0
281
     0
  0
CLASS
  1
TABLESTYLE
  2
AcDbTableStyle
  3
ObjectDBX Classes
 90
     2047
280
     1
281
     0
  0
ENDSEC
  0
SECTION
  2
TABLES
  0
TABLE
  2
VPORT
  5
1D
330
0
100
AcDbSymbolTable
 70
     2
  0
VPORT
  5
1C0
330
1D
100
AcDbSymbolTableRecord
100
AcDbViewportTableRecord
  2
*Active
 70
     0
 10
0.0
 20
0.0
 11
1.0
 21
1.0
 12
12.19580081407424
 22
22.30835565946715
 13
0.0
 23
0.0
 14
0.063
 24
0.063
 15
2.0
 25
2.0
 16
0.0
 26
0.0
 36
1.0
 17
0.0
 27
0.0
 37
0.0
 40
45.28420254146021
 41
1.814583333333334
 42
50.0
 43
0.0
 44
0.0
 50
0.0
 51
0.0
 71
     0
 72
   100
 73
     1
 74
     0
 75
     0
 76
     0
 77
     0
 78
     0
281
     0
 65
     1
110
0.0
120
0.0
130
0.0
111
1.0
121
0.0
131
0.0
112
0.0
122
1.0
132
0.0
 79
     0
146
0.0
  0
ENDTAB
  0
TABLE
  2
LTYPE
  5
18
330
0
100
AcDbSymbolTable
 70
     1
  0
LTYPE
  5
19
330
18
100
AcDbSymbolTableRecord
100
AcDbLinetypeTableRecord
  2
ByBlock
 70
     0
  3

 72
    65
 73
     0
 40
0.0
  0
LTYPE
  5
1A
330
18
100
AcDbSymbolTableRecord
100
AcDbLinetypeTableRecord
  2
ByLayer
 70
     0
  3

 72
    65
 73
     0
 40
0.0
  0
LTYPE
  5
A
330
18
100
AcDbSymbolTableRecord
100
AcDbLinetypeTableRecord
  2
CONTINUOUS
 70
     0
  3
Solid line
 72
    65
 73
     0
 40
0.0
  0
ENDTAB
  0
TABLE
  2
LAYER
  5
14
330
0
100
AcDbSymbolTable
 70
     2
  0
LAYER
  5
6
330
14
100
AcDbSymbolTableRecord
100
AcDbLayerTableRecord
  2
0
 70
     0
 62
     7
  6
CONTINUOUS
370
    -3
390
7
  0
ENDTAB
  0
TABLE
  2
STYLE
  5
15
330
0
100
AcDbSymbolTable
 70
     1
  0
STYLE
  5
16
330
15
100
AcDbSymbolTableRecord
100
AcDbTextStyleTableRecord
  2
STANDARD
 70
     0
 40
0.0
 41
1.0
 50
0.0
 71
     0
 42
0.36
  3
TXT
  4

  0
ENDTAB
  0
TABLE
  2
VIEW
  5
1B
330
0
100
AcDbSymbolTable
 70
     0
  0
ENDTAB
  0
TABLE
  2
UCS
  5
1C
330
0
100
AcDbSymbolTable
 70
     0
  0
ENDTAB
  0
TABLE
  2
APPID
  5
1F
330
0
100
AcDbSymbolTable
 70
     1
  0
APPID
  5
20
330
1F
100
AcDbSymbolTableRecord
100
AcDbRegAppTableRecord
  2
ACAD
 70
     0
  0
ENDTAB
  0
TABLE
  2
DIMSTYLE
  5
21
330
0
100
AcDbSymbolTable
 70
     1
100
AcDbDimStyleTable
  0
DIMSTYLE
105
28
330
21
100
AcDbSymbolTableRecord
100
AcDbDimStyleTableRecord
  2
Standard
 70
     0
  3

  4

340
16
  0
ENDTAB
  0
TABLE
  2
BLOCK_RECORD
  5
1
330
0
100
AcDbSymbolTable
 70
     0
  0
BLOCK_RECORD
  5
2
330
1
100
AcDbSymbolTableRecord
100
AcDbBlockTableRecord
  2
*Model_Space
340
C
  0
BLOCK_RECORD
  5
E
330
1
100
AcDbSymbolTableRecord
100
AcDbBlockTableRecord
  2
*Paper_Space
340
13
  0
ENDTAB
  0
ENDSEC
  0
SECTION
  2
BLOCKS
  0
BLOCK
  5
5
330
2
100
AcDbEntity
  8
0
100
AcDbBlockBegin
  2
*Model_Space
 70
     0
 10
0.0
 20
0.0
 30
0.0
  3
*Model_Space
  1

  4

  0
ENDBLK
  5
B
330
2
100
AcDbEntity
  8
0
100
AcDbBlockEnd
  0
BLOCK
  5
11
330
E
100
AcDbEntity
 67
     1
  8
0
100
AcDbBlockBegin
  2
*Paper_Space
 70
     0
 10
0.0
 20
0.0
 30
0.0
  3
*Paper_Space
  1

  4

  0
ENDBLK
  5
12
330
E
100
AcDbEntity
 67
     1
  8
0
100
AcDbBlockEnd
  0
ENDSEC
  0
SECTION
  2
ENTITIES
  0
LINE
  5
10B
330
2
100
AcDbEntity
  8
0
100
AcDbLine
 10
1.654499999999993
 20
7.409122889251403
 30
0.0
 11
1.654500000000143
 21
12.6921228892514
 31
0.0
  0
LINE
  5
10C
330
2
100
AcDbEntity
  8
0
100
AcDbLine
 10
-0.0000000000000053
 20
7.409122889251403
 30
0.0
 11
-0.0000000000000053
 21
14.3613728892514
 31
0.0
  0
LINE
  5
10D
330
2
100
AcDbEntity
  8
0
100
AcDbLine
 10
0.3749999999999947
 20
7.409122889251403
 30
0.0
 11
1.279499999999993
 21
7.409122889251403
 31
0.0
  0
LINE
  5
10E
330
2
100
AcDbEntity
  8
0
100
AcDbLine
 10
0.0312499999999947
 20
7.471622889251403
 30
0.0
 11
0.3437499999999947
 21
7.471622889251403
 31
0.0
  0
ARC
  5
10F
330
2
100
AcDbEntity
  8
0
100
AcDbCircle
 10
0.0312499999999947
 20
7.440372889251403
 30
0.0
 40
0.03125
100
AcDbArc
 50
90.0
 51
180.0
  0
LINE
  5
110
330
2
100
AcDbEntity
  8
0
100
AcDbLine
 10
-0.0000000000000053
 20
7.409122889251403
 30
0.0
 11
0.045999999999994
 21
7.409122889251403
 31
0.0
  0
ARC
  5
111
330
2
100
AcDbEntity
  8
0
100
AcDbCircle
 10
0.3437499999999947
 20
7.440372889251403
 30
0.0
 40
0.03125
100
AcDbArc
 50
0.0
 51
90.0
  0
LINE
  5
112
330
2
100
AcDbEntity
  8
0
100
AcDbLine
 10
0.3749999999999947
 20
7.409122889251403
 30
0.0
 11
0.3749999999999947
 21
7.440372889251403
 31
0.0
  0
CIRCLE
  5
113
330
2
100
AcDbEntity
  8
0
100
AcDbCircle
 10
0.8272499999999941
 20
9.909122889251403
 30
0.0
 40
0.1875
  0
ARC
  5
114
330
2
100
AcDbEntity
  8
0
100
AcDbCircle
 10
1.623249999999993
 20
7.440372889251403
 30
0.0
 40
0.03125
100
AcDbArc
 50
0.0
 51
90.0
  0
ARC
  5
115
330
2
100
AcDbEntity
  8
0
100
AcDbCircle
 10
1.310749999999993
 20
7.440372889251403
 30
0.0
 40
0.03125
100
AcDbArc
 50
90.0
 51
179.9999999999984
  0
LINE
  5
116
330
2
100
AcDbEntity
  8
0
100
AcDbLine
 10
1.310749999999993
 20
7.471622889251403
 30
0.0
 11
1.623249999999993
 21
7.471622889251403
 31
0.0
  0
LINE
  5
117
330
2
100
AcDbEntity
  8
0
100
AcDbLine
 10
1.279499999999993
 20
7.409122889251403
 30
0.0
 11
1.279499999999993
 21
7.440372889251403
 31
0.0
  0
LINE
  5
118
330
2
100
AcDbEntity
  8
0
100
AcDbLine
 10
1.608499999999994
 20
7.409122889251407
 30
0.0
 11
1.654499999999993
 21
7.409122889251403
 31
0.0
  0
LINE
  5
119
330
2
100
AcDbEntity
  8
0
100
AcDbLine
 10
1.654499999999993
 20
7.409122889251403
 30
0.0
 11
1.654499999999993
 21
7.440372889251403
 31
0.0
  0
LINE
  5
11A
330
2
100
AcDbEntity
  8
0
100
AcDbLine
 10
7.045999999999994
 20
12.8006228892514
 30
0.0
 11
1.762999999999996
 21
12.8006228892517
 31
0.0
  0
LINE
  5
11B
330
2
100
AcDbEntity
  8
0
100
AcDbLine
 10
0.0937499999999947
 20
14.4551228892514
 30
0.0
 11
7.045999999999994
 21
14.4551228892514
 31
0.0
  0
LINE
  5
11C
330
2
100
AcDbEntity
  8
0
100
AcDbLine
 10
-0.0000000000000053
 20
10.7841228892514
 30
0.0
 11
1.654499999999993
 21
10.7841228892514
 31
0.0
  0
LINE
  5
11D
330
2
100
AcDbEntity
  8
0
100
AcDbLine
 10
0.0927999999999933
 20
14.4091228892514
 30
0.0
 11
3.675417293578162
 21
14.4091228892514
 31
0.0
  0
LINE
  5
11E
330
2
100
AcDbEntity
  8
0
100
AcDbLine
 10
0.045999999999994
 20
10.79944832038959
 30
0.0
 11
0.045999999999994
 21
14.3623228892514
 31
0.0
  0
ARC
  5
11F
330
2
100
AcDbEntity
  8
0
100
AcDbCircle
 10
0.0937499999999947
 20
14.3613728892514
 30
0.0
 40
0.09375
100
AcDbArc
 50
90.00000000000003
 51
180.0
  0
ARC
  5
120
330
2
100
AcDbEntity
  8
0
100
AcDbCircle
 10
0.0927999999999933
 20
14.3623228892514
 30
0.0
 40
0.0468
100
AcDbArc
 50
90.00000000000006
 51
180.0
  0
LINE
  5
121
330
2
100
AcDbEntity
  8
0
100
AcDbLine
 10
3.670999999999992
 20
14.4551228892514
 30
0.0
 11
3.670999999999996
 21
12.8006228892514
 31
0.0
  0
LINE
  5
122
330
2
100
AcDbEntity
  8
0
100
AcDbLine
 10
3.675417293578162
 20
12.8466228892514
 30
0.0
 11
1.716999999999995
 21
12.8466228892514
 31
0.0
  0
LINE
  5
123
330
2
100
AcDbEntity
  8
0
100
AcDbLine
 10
1.608499999999994
 20
10.79944832038959
 30
0.0
 11
1.608499999999994
 21
12.7381228892514
 31
0.0
  0
LINE
  5
124
330
2
100
AcDbEntity
  8
0
100
AcDbLine
 10
1.670999999999996
 20
12.72741807305732
 30
0.0
 11
1.670999999999996
 21
11.8466228892514
 31
0.0
  0
LINE
  5
125
330
2
100
AcDbEntity
  8
0
100
AcDbLine
 10
1.716999999999993
 20
12.7381228892514
 30
0.0
 11
1.716999999999995
 21
11.8466228892514
 31
0.0
  0
LINE
  5
126
330
2
100
AcDbEntity
  8
0
100
AcDbLine
 10
1.670999999999996
 20
11.8466228892514
 30
0.0
 11
1.716999999999995
 21
11.8466228892514
 31
0.0
  0
LINE
  5
127
330
2
100
AcDbEntity
  8
0
100
AcDbLine
 10
1.700499999999993
 20
12.7381228892514
 30
0.0
 11
2.608499999999994
 21
12.7381228892514
 31
0.0
  0
LINE
  5
128
330
2
100
AcDbEntity
  8
0
100
AcDbLine
 10
1.654499999999993
 20
12.7841228892514
 30
0.0
 11
2.608499999999994
 21
12.7841228892514
 31
0.0
  0
ARC
  5
129
330
2
100
AcDbEntity
  8
0
100
AcDbCircle
 10
1.716999999999995
 20
12.8006228892514
 30
0.0
 40
0.046
100
AcDbArc
 50
90.0
 51
180.0
  0
ARC
  5
12A
330
2
100
AcDbEntity
  8
0
100
AcDbCircle
 10
1.700499999999993
 20
12.6921228892514
 30
0.0
 40
0.046
100
AcDbArc
 50
90.0
 51
180.0
  0
ARC
  5
12B
330
2
100
AcDbEntity
  8
0
100
AcDbCircle
 10
1.654499999999993
 20
12.7381228892514
 30
0.0
 40
0.046
100
AcDbArc
 50
90.0
 51
180.0
  0
LINE
  5
12C
330
2
100
AcDbEntity
  8
0
100
AcDbLine
 10
1.670999999999996
 20
12.8006228892514
 30
0.0
 11
1.670999999999996
 21
12.7841228892514
 31
0.0
  0
ARC
  5
12D
330
2
100
AcDbEntity
  8
0
100
AcDbCircle
 10
1.762999999999995
 20
12.7546228892514
 30
0.0
 40
0.046
100
AcDbArc
 50
90.0
 51
140.1108496666726
  0
LINE
  5
12E
330
2
100
AcDbEntity
  8
0
100
AcDbLine
 10
2.608499999999994
 20
12.7381228892514
 30
0.0
 11
2.608499999999994
 21
12.7841228892514
 31
0.0
  0
LINE
  5
12F
330
2
100
AcDbEntity
  8
0
100
AcDbLine
 10
3.575898017309202
 20
12.8466228892514
 30
0.0
 11
3.647898017309203
 21
12.8466228892514
 31
0.0
  0
LINE
  5
130
330
2
100
AcDbEntity
  8
0
100
AcDbLine
 10
7.045999999999994
 20
14.0801228892514
 30
0.0
 11
7.045999999999994
 21
13.1756228892514
 31
0.0
  0
LINE
  5
131
330
2
100
AcDbEntity
  8
0
100
AcDbLine
 10
6.983499999999994
 20
13.14437288925141
 30
0.0
 11
6.983499999999994
 21
12.8318728892514
 31
0.0
  0
ARC
  5
132
330
2
100
AcDbEntity
  8
0
100
AcDbCircle
 10
7.014749999999994
 20
12.8318728892514
 30
0.0
 40
0.03125
100
AcDbArc
 50
180.0
 51
270.0
  0
LINE
  5
133
330
2
100
AcDbEntity
  8
0
100
AcDbLine
 10
7.045999999999994
 20
12.8466228892514
 30
0.0
 11
7.045999999999994
 21
12.8006228892514
 31
0.0
  0
LINE
  5
134
330
2
100
AcDbEntity
  8
0
100
AcDbLine
 10
7.045999999999994
 20
12.8006228892514
 30
0.0
 11
7.014749999999994
 21
12.8006228892514
 31
0.0
  0
ARC
  5
135
330
2
100
AcDbEntity
  8
0
100
AcDbCircle
 10
7.014749999999994
 20
13.14437288925141
 30
0.0
 40
0.03125
100
AcDbArc
 50
89.99999999999675
 51
180.0
  0
LINE
  5
136
330
2
100
AcDbEntity
  8
0
100
AcDbLine
 10
7.045999999999994
 20
13.1756228892514
 30
0.0
 11
7.014749999999994
 21
13.17562288925141
 31
0.0
  0
ARC
  5
137
330
2
100
AcDbEntity
  8
0
100
AcDbCircle
 10
7.014749999999994
 20
14.4238728892514
 30
0.0
 40
0.03125
100
AcDbArc
 50
90.0
 51
180.0
  0
ARC
  5
138
330
2
100
AcDbEntity
  8
0
100
AcDbCircle
 10
7.014749999999994
 20
14.1113728892514
 30
0.0
 40
0.03125
100
AcDbArc
 50
180.0
 51
270.0
  0
LINE
  5
139
330
2
100
AcDbEntity
  8
0
100
AcDbLine
 10
6.983499999999994
 20
14.4238728892514
 30
0.0
 11
6.983499999999994
 21
14.1113728892514
 31
0.0
  0
LINE
  5
13A
330
2
100
AcDbEntity
  8
0
100
AcDbLine
 10
7.014749999999994
 20
14.0801228892514
 30
0.0
 11
7.045999999999994
 21
14.0801228892514
 31
0.0
  0
LINE
  5
13B
330
2
100
AcDbEntity
  8
0
100
AcDbLine
 10
7.014749999999994
 20
14.4551228892514
 30
0.0
 11
7.045999999999994
 21
14.4551228892514
 31
0.0
  0
LINE
  5
13C
330
2
100
AcDbEntity
  8
0
100
AcDbLine
 10
7.045999999999994
 20
14.4551228892514
 30
0.0
 11
7.045999999999994
 21
14.4091228892514
 31
0.0
  0
LINE
  5
13D
330
2
100
AcDbEntity
  8
0
100
AcDbLine
 10
3.671304639421138
 20
2.952249999999992
 30
0.0
 11
7.046000000000001
 21
2.952249999999992
 31
0.0
  0
LINE
  5
13E
330
2
100
AcDbEntity
  8
0
100
AcDbLine
 10
0.0
 20
0.0
 30
0.0
 11
6.796000000000001
 21
0.0
 31
0.0
  0
LINE
  5
13F
330
2
100
AcDbEntity
  8
0
100
AcDbLine
 10
3.670999999999999
 20
2.952258585806341
 30
0.0
 11
7.045999999999994
 21
2.952258585806341
 31
0.0
  0
LINE
  5
140
330
2
100
AcDbEntity
  8
0
100
AcDbLine
 10
3.670999999999999
 20
2.906258585806341
 30
0.0
 11
7.045999999999994
 21
2.906258585806341
 31
0.0
  0
LINE
  5
141
330
2
100
AcDbEntity
  8
0
100
AcDbLine
 10
1.608499999999994
 20
0.9375585858063431
 30
0.0
 11
6.795999999999994
 21
0.9375585858063431
 31
0.0
  0
LINE
  5
142
330
2
100
AcDbEntity
  8
0
100
AcDbLine
 10
0.0
 20
2.921008585806341
 30
0.0
 11
0.0
 21
5.3125
 31
0.0
  0
LINE
  5
143
330
2
100
AcDbEntity
  8
0
100
AcDbLine
 10
0.0459999999999994
 20
3.001686959612453
 30
0.0
 11
0.0459999999999994
 21
5.3125
 31
0.0
  0
ARC
  5
144
330
2
100
AcDbEntity
  8
0
100
AcDbCircle
 10
2.5625
 20
4.0625
 30
0.0
 40
1.125
100
AcDbArc
 50
176.8201698801359
 51
270.0
  0
LINE
  5
145
330
2
100
AcDbEntity
  8
0
100
AcDbLine
 10
0.0927999999999987
 20
2.968758585806341
 30
0.0
 11
1.561699999999993
 21
2.968758585806341
 31
0.0
  0
LINE
  5
146
330
2
100
AcDbEntity
  8
0
100
AcDbLine
 10
0.09375
 20
3.014758585806341
 30
0.0
 11
1.560749999999992
 21
3.014758585806341
 31
0.0
  0
LINE
  5
147
330
2
100
AcDbEntity
  8
0
100
AcDbLine
 10
0.0459999999999994
 20
0.0
 30
0.0
 11
0.0459999999999994
 21
2.921958585806344
 31
0.0
  0
LINE
  5
148
330
2
100
AcDbEntity
  8
0
100
AcDbLine
 10
0.0
 20
0.0
 30
0.0
 11
0.0
 21
2.921008585806341
 31
0.0
  0
CIRCLE
  5
149
330
2
100
AcDbEntity
  8
0
100
AcDbCircle
 10
0.75
 20
0.378574251914678
 30
0.0
 40
0.0859375
  0
LINE
  5
14A
330
2
100
AcDbEntity
  8
0
100
AcDbLine
 10
0.3083942895495948
 20
2.906258585806341
 30
0.0
 11
0.43591512066949
 21
2.906258585806341
 31
0.0
  0
ARC
  5
14B
330
2
100
AcDbEntity
  8
0
100
AcDbCircle
 10
0.0927999999999987
 20
2.921958585806344
 30
0.0
 40
0.0468
100
AcDbArc
 50
89.99999999999993
 51
180.0
  0
ARC
  5
14C
330
2
100
AcDbEntity
  8
0
100
AcDbCircle
 10
0.09375
 20
2.921008585806341
 30
0.0
 40
0.09375
100
AcDbArc
 50
89.99999999999993
 51
180.0
  0
CIRCLE
  5
14D
330
2
100
AcDbEntity
  8
0
100
AcDbCircle
 10
0.75
 20
2.874999999999993
 30
0.0
 40
0.0859375
  0
CIRCLE
  5
14E
330
2
100
AcDbEntity
  8
0
100
AcDbCircle
 10
2.625
 20
0.6214832177148004
 30
0.0
 40
0.0859375
  0
CIRCLE
  5
14F
330
2
100
AcDbEntity
  8
0
100
AcDbCircle
 10
4.5
 20
0.625
 30
0.0
 40
0.0859375
  0
LINE
  5
150
330
2
100
AcDbEntity
  8
0
100
AcDbLine
 10
3.670999999999999
 20
2.906258585806341
 30
0.0
 11
2.5625
 21
2.9375
 31
0.0
  0
LINE
  5
151
330
2
100
AcDbEntity
  8
0
100
AcDbLine
 10
1.654499999999993
 20
2.843758585806341
 30
0.0
 11
3.670999999999999
 21
2.843758585806341
 31
0.0
  0
LINE
  5
152
330
2
100
AcDbEntity
  8
0
100
AcDbLine
 10
1.608499999999992
 20
2.92195858580634
 30
0.0
 11
1.608499999999994
 21
0.9375585858063431
 31
0.0
  0
LINE
  5
153
330
2
100
AcDbEntity
  8
0
100
AcDbLine
 10
1.654499999999992
 20
2.921008585806341
 30
0.0
 11
1.654499999999993
 21
0.9375585858063431
 31
0.0
  0
LINE
  5
154
330
2
100
AcDbEntity
  8
0
100
AcDbLine
 10
1.716999999999997
 20
2.843758585806341
 30
0.0
 11
1.716999999999995
 21
1.875058585806343
 31
0.0
  0
LINE
  5
155
330
2
100
AcDbEntity
  8
0
100
AcDbLine
 10
1.654499999999993
 20
1.718758585806341
 30
0.0
 11
2.358499999999994
 21
1.718758585806341
 31
0.0
  0
LINE
  5
156
330
2
100
AcDbEntity
  8
0
100
AcDbLine
 10
1.654499999999993
 20
1.875058585806343
 30
0.0
 11
1.716999999999995
 21
1.875058585806343
 31
0.0
  0
LINE
  5
157
330
2
100
AcDbEntity
  8
0
100
AcDbLine
 10
1.654499999999993
 20
2.218758585806341
 30
0.0
 11
1.716999999999997
 21
2.218758585806341
 31
0.0
  0
ARC
  5
158
330
2
100
AcDbEntity
  8
0
100
AcDbCircle
 10
2.358499999999994
 20
1.468758585806341
 30
0.0
 40
0.25
100
AcDbArc
 50
0.0
 51
90.0
  0
CIRCLE
  5
159
330
2
100
AcDbEntity
  8
0
100
AcDbCircle
 10
2.233499999999996
 20
1.312558585806343
 30
0.0
 40
0.0859375
  0
LINE
  5
15A
330
2
100
AcDbEntity
  8
0
100
AcDbLine
 10
2.608499999999994
 20
1.468758585806341
 30
0.0
 11
2.608499999999994
 21
0.9375585858063431
 31
0.0
  0
ARC
  5
15B
330
2
100
AcDbEntity
  8
0
100
AcDbCircle
 10
1.561699999999993
 20
2.92195858580634
 30
0.0
 40
0.0468
100
AcDbArc
 50
0.0000000000000509
 51
89.99999999999993
  0
ARC
  5
15C
330
2
100
AcDbEntity
  8
0
100
AcDbCircle
 10
1.560749999999992
 20
2.921008585806341
 30
0.0
 40
0.09375
100
AcDbArc
 50
0.0000000000000509
 51
89.99999999999987
  0
CIRCLE
  5
15D
330
2
100
AcDbEntity
  8
0
100
AcDbCircle
 10
4.670999999999994
 20
1.37505858580634
 30
0.0
 40
0.0859375
  0
ARC
  5
15E
330
2
100
AcDbEntity
  8
0
100
AcDbCircle
 10
0.3125
 20
4.1875
 30
0.0
 40
1.125
100
AcDbArc
 50
356.8310630804955
 51
89.99999581307951
  0
LINE
  5
15F
330
2
100
AcDbEntity
  8
0
100
AcDbLine
 10
0.3125000822099917
 20
5.312499999999996
 30
0.0
 11
0.0000000822099917
 21
5.312499999999996
 31
0.0
  0
CIRCLE
  5
160
330
2
100
AcDbEntity
  8
0
100
AcDbCircle
 10
0.75
 20
4.562499999999993
 30
0.0
 40
0.0859375
  0
LINE
  5
161
330
2
100
AcDbEntity
  8
0
100
AcDbLine
 10
7.046000000000001
 20
0.25
 30
0.0
 11
7.045999999999998
 21
2.952258585806337
 31
0.0
  0
CIRCLE
  5
162
330
2
100
AcDbEntity
  8
0
100
AcDbCircle
 10
6.625000000000002
 20
0.375
 30
0.0
 40
0.0859375
  0
LINE
  5
163
330
2
100
AcDbEntity
  8
0
100
AcDbLine
 10
6.796000000000001
 20
0.0
 30
0.0
 11
7.046000000000001
 21
0.25
 31
0.0
  0
CIRCLE
  5
164
330
2
100
AcDbEntity
  8
0
100
AcDbCircle
 10
6.670999999999994
 20
1.312558585806343
 30
0.0
 40
0.0859375
  0
LINE
  5
165
330
2
100
AcDbEntity
  8
0
100
AcDbLine
 10
7.045999999999998
 20
2.952249999999992
 30
0.0
 11
7.045999999999994
 21
1.187558585806343
 31
0.0
  0
LINE
  5
166
330
2
100
AcDbEntity
  8
0
100
AcDbLine
 10
7.045999999999994
 20
1.187558585806343
 30
0.0
 11
6.795999999999994
 21
0.9375585858063431
 31
0.0
  0
LINE
  5
167
330
2
100
AcDbEntity
  8
0
100
AcDbLine
 10
7.066563270785141
 20
24.79837465297256
 30
0.0
 11
7.066563270785141
 21
22.03362465297257
 31
0.0
  0
LINE
  5
168
330
2
100
AcDbEntity
  8
0
100
AcDbLine
 10
3.691867910206279
 20
22.07962465297256
 30
0.0
 11
7.066563270785141
 21
22.07962465297256
 31
0.0
  0
LINE
  5
169
330
2
100
AcDbEntity
  8
0
100
AcDbLine
 10
3.691867910206279
 20
22.03362465297257
 30
0.0
 11
7.066563270785141
 21
22.03362465297257
 31
0.0
  0
ARC
  5
16A
330
2
100
AcDbEntity
  8
0
100
AcDbCircle
 10
2.511135359170368
 20
21.05081209560591
 30
0.0
 40
1.0625
100
AcDbArc
 50
86.11828699773685
 51
186.9055317882326
  0
CIRCLE
  5
16B
330
2
100
AcDbEntity
  8
0
100
AcDbCircle
 10
0.7705632707851411
 20
20.48587465297257
 30
0.0
 40
0.0859375
  0
CIRCLE
  5
16C
330
2
100
AcDbEntity
  8
0
100
AcDbCircle
 10
0.7705632707851411
 20
22.42337465297257
 30
0.0
 40
0.0859375
  0
LINE
  5
16D
330
2
100
AcDbEntity
  8
0
100
AcDbLine
 10
3.691563270785137
 20
22.14211606716622
 30
0.0
 11
2.583063270785139
 21
22.11087465297256
 31
0.0
  0
CIRCLE
  5
16E
330
2
100
AcDbEntity
  8
0
100
AcDbCircle
 10
2.645563270785139
 20
22.73587465297256
 30
0.0
 40
0.0859375
  0
LINE
  5
16F
330
2
100
AcDbEntity
  8
0
100
AcDbLine
 10
3.691563270785137
 20
22.04263508583158
 30
0.0
 11
3.691563270785137
 21
22.14211606716622
 31
0.0
  0
LINE
  5
170
330
2
100
AcDbEntity
  8
0
100
AcDbLine
 10
0.0205632707851393
 20
25.04837465297256
 30
0.0
 11
6.816563270785141
 21
25.04837465297256
 31
0.0
  0
CIRCLE
  5
171
330
2
100
AcDbEntity
  8
0
100
AcDbCircle
 10
0.7705632707851411
 20
24.67337465297256
 30
0.0
 40
0.0859375
  0
CIRCLE
  5
172
330
2
100
AcDbEntity
  8
0
100
AcDbCircle
 10
2.645563270785139
 20
24.42337465297256
 30
0.0
 40
0.0859375
  0
CIRCLE
  5
173
330
2
100
AcDbEntity
  8
0
100
AcDbCircle
 10
4.520563270785139
 20
24.42337465297256
 30
0.0
 40
0.0859375
  0
CIRCLE
  5
174
330
2
100
AcDbEntity
  8
0
100
AcDbCircle
 10
6.645563270785141
 20
24.67337465297256
 30
0.0
 40
0.0859375
  0
LINE
  5
175
330
2
100
AcDbEntity
  8
0
100
AcDbLine
 10
6.816563270785141
 20
25.04837465297256
 30
0.0
 11
7.066563270785141
 21
24.79837465297256
 31
0.0
  0
LINE
  5
176
330
2
100
AcDbEntity
  8
0
100
AcDbLine
 10
0.0205632707851393
 20
25.04837465297256
 30
0.0
 11
0.0205632707851393
 21
19.73587465297257
 31
0.0
  0
ARC
  5
177
330
2
100
AcDbEntity
  8
0
100
AcDbCircle
 10
0.3330632707851393
 20
20.86087465297257
 30
0.0
 40
1.125
100
AcDbArc
 50
270.0000041869205
 51
3.168936919504489
  0
LINE
  5
178
330
2
100
AcDbEntity
  8
0
100
AcDbLine
 10
0.3330632707851393
 20
19.73587465297257
 30
0.0
 11
0.0205632707851393
 21
19.73587465297257
 31
0.0
  0
LINE
  5
179
330
2
100
AcDbEntity
  8
0
100
AcDbLine
 10
-4.655573889128815
 20
10.81143991669622
 30
0.0
 11
-4.655573889128815
 21
7.436744556117365
 31
0.0
  0
LINE
  5
17A
330
2
100
AcDbEntity
  8
0
100
AcDbLine
 10
-4.701573889128808
 20
10.81143991669622
 30
0.0
 11
-4.701573889128808
 21
7.436744556117365
 31
0.0
  0
LINE
  5
17B
330
2
100
AcDbEntity
  8
0
100
AcDbLine
 10
-7.607823889128808
 20
14.48274455611736
 30
0.0
 11
-7.607823889128808
 21
7.686744556117358
 31
0.0
  0
LINE
  5
17C
330
2
100
AcDbEntity
  8
0
100
AcDbLine
 10
-7.357823889128808
 20
7.436744556117358
 30
0.0
 11
-4.655573889128815
 21
7.436744556117365
 31
0.0
  0
LINE
  5
17D
330
2
100
AcDbEntity
  8
0
100
AcDbLine
 10
-7.607823889128808
 20
7.686744556117358
 30
0.0
 11
-7.357823889128808
 21
7.436744556117358
 31
0.0
  0
CIRCLE
  5
17E
330
2
100
AcDbEntity
  8
0
100
AcDbCircle
 10
-7.232823889128808
 20
7.795244556117357
 30
0.0
 40
0.0859375
  0
CIRCLE
  5
17F
330
2
100
AcDbEntity
  8
0
100
AcDbCircle
 10
-6.994975628935107
 20
9.920244556117357
 30
0.0
 40
0.0859375
  0
ARC
  5
180
330
2
100
AcDbEntity
  8
0
100
AcDbCircle
 10
-3.42032388912881
 20
14.17024455611736
 30
0.0
 40
1.125
100
AcDbArc
 50
266.8310630804955
 51
359.9999958130796
  0
LINE
  5
181
330
2
100
AcDbEntity
  8
0
100
AcDbLine
 10
-7.607823889128808
 20
14.48274455611736
 30
0.0
 11
-2.29532388912881
 21
14.48274455611736
 31
0.0
  0
CIRCLE
  5
182
330
2
100
AcDbEntity
  8
0
100
AcDbCircle
 10
-7.238847445268958
 20
11.79524455611736
 30
0.0
 40
0.0859375
  0
CIRCLE
  5
183
330
2
100
AcDbEntity
  8
0
100
AcDbCircle
 10
-6.994975628935107
 20
13.67024455611736
 30
0.0
 40
0.0859375
  0
ARC
  5
184
330
2
100
AcDbEntity
  8
0
100
AcDbCircle
 10
-3.545332474935151
 20
11.91993991669621
 30
0.0
 40
1.125
100
AcDbArc
 50
87.61552351387402
 51
180.0000000000001
  0
CIRCLE
  5
185
330
2
100
AcDbEntity
  8
0
100
AcDbCircle
 10
-5.357823889128817
 20
11.85774455611736
 30
0.0
 40
0.0859375
  0
LINE
  5
186
330
2
100
AcDbEntity
  8
0
100
AcDbLine
 10
-4.701573889128808
 20
10.81143991669622
 30
0.0
 11
-4.670332474935151
 21
11.91993991669621
 31
0.0
  0
LINE
  5
187
330
2
100
AcDbEntity
  8
0
100
AcDbLine
 10
-4.655573889128815
 20
10.81143991669622
 30
0.0
 11
-4.701573889128808
 21
10.81143991669622
 31
0.0
  0
CIRCLE
  5
188
330
2
100
AcDbEntity
  8
0
100
AcDbCircle
 10
-4.732823889128817
 20
13.73274455611736
 30
0.0
 40
0.0859375
  0
LINE
  5
189
330
2
100
AcDbEntity
  8
0
100
AcDbLine
 10
-3.482514101899881
 20
13.04696481471921
 30
0.0
 11
-3.498526902332886
 21
13.04396582314738
 31
0.0
  0
CIRCLE
  5
18A
330
2
100
AcDbEntity
  8
0
100
AcDbCircle
 10
-2.982823889128817
 20
13.73274455611736
 30
0.0
 40
0.0859375
  0
LINE
  5
18B
330
2
100
AcDbEntity
  8
0
100
AcDbLine
 10
-2.29532388912881
 20
14.17024455611736
 30
0.0
 11
-2.29532388912881
 21
14.48274455611736
 31
0.0
  0
LINE
  5
18C
330
2
100
AcDbEntity
  8
0
100
AcDbLine
 10
13.05922070834165
 20
14.45512288925139
 30
0.0
 11
10.66410197515223
 21
14.45512288925139
 31
0.0
  0
LINE
  5
18D
330
2
100
AcDbEntity
  8
0
100
AcDbLine
 10
12.97854233453526
 20
14.40912288925139
 30
0.0
 11
10.66410197515223
 21
14.40912288925139
 31
0.0
  0
ARC
  5
18E
330
2
100
AcDbEntity
  8
0
100
AcDbCircle
 10
11.91410197515223
 20
11.89262288925139
 30
0.0
 40
1.125
100
AcDbArc
 50
0.0
 51
93.17983011986414
  0
ARC
  5
18F
330
2
100
AcDbEntity
  8
0
100
AcDbCircle
 10
11.78910197515223
 20
14.14262288925139
 30
0.0
 40
1.125
100
AcDbArc
 50
180.0000041869205
 51
273.1689369195045
  0
CIRCLE
  5
190
330
2
100
AcDbEntity
  8
0
100
AcDbCircle
 10
11.41410197515224
 20
13.70512288925139
 30
0.0
 40
0.0859375
  0
LINE
  5
191
330
2
100
AcDbEntity
  8
0
100
AcDbLine
 10
10.66410197515223
 20
14.14262288925139
 30
0.0
 11
10.66410197515223
 21
14.45512288925139
 31
0.0
  0
LINE
  5
192
330
2
100
AcDbEntity
  8
0
100
AcDbLine
 10
15.97660197515223
 20
14.45512288925139
 30
0.0
 11
15.97660197515223
 21
7.659122889251393
 31
0.0
  0
LINE
  5
193
330
2
100
AcDbEntity
  8
0
100
AcDbLine
 10
13.00785197515223
 20
10.78381824983025
 30
0.0
 11
13.00785197515223
 21
7.4091228892514
 31
0.0
  0
LINE
  5
194
330
2
100
AcDbEntity
  8
0
100
AcDbLine
 10
12.96185197515223
 20
10.7841228892514
 30
0.0
 11
12.96185197515224
 21
7.4091228892514
 31
0.0
  0
LINE
  5
195
330
2
100
AcDbEntity
  8
0
100
AcDbLine
 10
15.00784338934589
 20
12.8466228892514
 30
0.0
 11
15.00784338934589
 21
7.659122889251403
 31
0.0
  0
LINE
  5
196
330
2
100
AcDbEntity
  8
0
100
AcDbLine
 10
15.97660197515223
 20
7.659122889251393
 30
0.0
 11
15.72660197515223
 21
7.409122889251393
 31
0.0
  0
LINE
  5
197
330
2
100
AcDbEntity
  8
0
100
AcDbLine
 10
15.72660197515223
 20
7.409122889251393
 30
0.0
 11
12.96185197515224
 21
7.4091228892514
 31
0.0
  0
LINE
  5
198
330
2
100
AcDbEntity
  8
0
100
AcDbLine
 10
14.75784338934589
 20
7.409122889251403
 30
0.0
 11
15.00784338934589
 21
7.659122889251403
 31
0.0
  0
CIRCLE
  5
199
330
2
100
AcDbEntity
  8
0
100
AcDbCircle
 10
14.63284338934588
 20
7.784122889251396
 30
0.0
 40
0.0859375
  0
CIRCLE
  5
19A
330
2
100
AcDbEntity
  8
0
100
AcDbCircle
 10
15.60160197515223
 20
7.830122889251392
 30
0.0
 40
0.0859375
  0
CIRCLE
  5
19B
330
2
100
AcDbEntity
  8
0
100
AcDbCircle
 10
14.50784338934589
 20
9.7841228892514
 30
0.0
 40
0.0859375
  0
CIRCLE
  5
19C
330
2
100
AcDbEntity
  8
0
100
AcDbCircle
 10
15.35160197515223
 20
9.955122889251392
 30
0.0
 40
0.0859375
  0
LINE
  5
19D
330
2
100
AcDbEntity
  8
0
100
AcDbLine
 10
15.97660197515223
 20
14.45512288925139
 30
0.0
 11
13.05922070834165
 21
14.45512288925139
 31
0.0
  0
LINE
  5
19E
330
2
100
AcDbEntity
  8
0
100
AcDbLine
 10
15.97660197515223
 20
14.40912288925139
 30
0.0
 11
13.05827070834165
 21
14.4091228892514
 31
0.0
  0
LINE
  5
19F
330
2
100
AcDbEntity
  8
0
100
AcDbLine
 10
13.01147070834164
 20
12.8934228892514
 30
0.0
 11
13.01147070834165
 21
14.3623228892514
 31
0.0
  0
LINE
  5
1A0
330
2
100
AcDbEntity
  8
0
100
AcDbLine
 10
12.96547070834164
 20
12.8943728892514
 30
0.0
 11
12.96547070834165
 21
14.36137288925139
 31
0.0
  0
LINE
  5
1A1
330
2
100
AcDbEntity
  8
0
100
AcDbLine
 10
13.05827070834164
 20
12.8466228892514
 30
0.0
 11
15.00784338934589
 21
12.8466228892514
 31
0.0
  0
LINE
  5
1A2
330
2
100
AcDbEntity
  8
0
100
AcDbLine
 10
13.05922070834164
 20
12.8006228892514
 30
0.0
 11
15.00784338934589
 21
12.8006228892514
 31
0.0
  0
CIRCLE
  5
1A3
330
2
100
AcDbEntity
  8
0
100
AcDbCircle
 10
13.82034338934589
 20
12.2216228892514
 30
0.0
 40
0.0859375
  0
LINE
  5
1A4
330
2
100
AcDbEntity
  8
0
100
AcDbLine
 10
13.07034338934589
 20
10.7841228892514
 30
0.0
 11
13.07034338934589
 21
12.71248292751519
 31
0.0
  0
ARC
  5
1A5
330
2
100
AcDbEntity
  8
0
100
AcDbCircle
 10
12.69053375047379
 20
11.49206048491333
 30
0.0
 40
1.125
100
AcDbArc
 50
26.08357721286592
 51
62.73907811863725
  0
LINE
  5
1A6
330
2
100
AcDbEntity
  8
0
100
AcDbLine
 10
14.07034338934589
 20
12.8006228892514
 30
0.0
 11
14.07034338934589
 21
11.8466228892514
 31
0.0
  0
LINE
  5
1A7
330
2
100
AcDbEntity
  8
0
100
AcDbLine
 10
13.07034338934589
 20
10.7841228892514
 30
0.0
 11
13.03910197515223
 21
11.89262288925139
 31
0.0
  0
LINE
  5
1A8
330
2
100
AcDbEntity
  8
0
100
AcDbLine
 10
12.96185197515223
 20
10.7841228892514
 30
0.0
 11
13.07034338934589
 21
10.7841228892514
 31
0.0
  0
LINE
  5
1A9
330
2
100
AcDbEntity
  8
0
100
AcDbLine
 10
12.97834338934589
 20
10.7841228892514
 30
0.0
 11
13.07034338934589
 21
10.7841228892514
 31
0.0
  0
ARC
  5
1AA
330
2
100
AcDbEntity
  8
0
100
AcDbCircle
 10
13.92549500462753
 20
12.0966228892514
 30
0.0
 40
0.25
100
AcDbArc
 50
206.0835772128662
 51
269.9999999999992
  0
LINE
  5
1AB
330
2
100
AcDbEntity
  8
0
100
AcDbLine
 10
13.92549500462752
 20
11.8466228892514
 30
0.0
 11
14.07034338934589
 21
11.8466228892514
 31
0.0
  0
ARC
  5
1AC
330
2
100
AcDbEntity
  8
0
100
AcDbCircle
 10
13.32034338934589
 20
12.71433902059323
 30
0.0
 40
0.25
100
AcDbArc
 50
180.0
 51
242.739078118637
  0
ARC
  5
1AD
330
2
100
AcDbEntity
  8
0
100
AcDbCircle
 10
13.05922070834164
 20
12.8943728892514
 30
0.0
 40
0.09375
100
AcDbArc
 50
179.9999999999999
 51
270.0
  0
ARC
  5
1AE
330
2
100
AcDbEntity
  8
0
100
AcDbCircle
 10
13.05827070834164
 20
12.8934228892514
 30
0.0
 40
0.0468
100
AcDbArc
 50
179.9999999999999
 51
270.0
  0
LINE
  5
1AF
330
2
100
AcDbEntity
  8
0
100
AcDbLine
 10
13.07034338934589
 20
12.8006228892514
 30
0.0
 11
13.07034338934589
 21
12.71433902059323
 31
0.0
  0
CIRCLE
  5
1B0
330
2
100
AcDbEntity
  8
0
100
AcDbCircle
 10
13.35160197515224
 20
13.70512288925139
 30
0.0
 40
0.0859375
  0
CIRCLE
  5
1B1
330
2
100
AcDbEntity
  8
0
100
AcDbCircle
 10
15.60334226480156
 20
11.83012288925139
 30
0.0
 40
0.0859375
  0
LINE
  5
1B2
330
2
100
AcDbEntity
  8
0
100
AcDbLine
 10
14.25784338934589
 20
12.7381228892514
 30
0.0
 11
15.00784338934589
 21
12.7381228892514
 31
0.0
  0
LINE
  5
1B3
330
2
100
AcDbEntity
  8
0
100
AcDbLine
 10
14.25784338934589
 20
12.8006228892514
 30
0.0
 11
14.25784338934589
 21
12.7381228892514
 31
0.0
  0
CIRCLE
  5
1B4
330
2
100
AcDbEntity
  8
0
100
AcDbCircle
 10
15.35142928748483
 20
13.70512288925139
 30
0.0
 40
0.0859375
  0
LINE
  5
1B5
330
2
100
AcDbEntity
  8
0
100
AcDbLine
 10
15.00784338934589
 20
13.82296672519545
 30
0.0
 11
15.00784338934589
 21
13.75096672519545
 31
0.0
  0
ARC
  5
1B6
330
2
100
AcDbEntity
  8
0
100
AcDbCircle
 10
13.05922070834165
 20
14.36137288925139
 30
0.0
 40
0.09375
100
AcDbArc
 50
90.0
 51
179.9999999999999
  0
ARC
  5
1B7
330
2
100
AcDbEntity
  8
0
100
AcDbCircle
 10
13.05827070834165
 20
14.3623228892514
 30
0.0
 40
0.0468
100
AcDbArc
 50
90.0
 51
179.9999999999999
  0
ENDSEC
  0
SECTION
  2
OBJECTS
  0
DICTIONARY
  5
9
330
0
100
AcDbDictionary
281
     1
  3
ACAD_COLOR
350
1BB
  3
ACAD_GROUP
350
23
  3
ACAD_LAYOUT
350
D
  3
ACAD_MATERIAL
350
1BA
  3
ACAD_MLINESTYLE
350
24
  3
ACAD_PLOTSETTINGS
350
25
  3
ACAD_PLOTSTYLENAME
350
8
  3
ACAD_TABLESTYLE
350
1BC
  3
ACDBHEADERROUNDTRIPXREC
350
1C9
  3
AcDbVariableDictionary
350
100
  0
DICTIONARY
  5
1BB
102
{ACAD_REACTORS
330
9
102
}
330
9
100
AcDbDictionary
281
     1
  0
DICTIONARY
  5
23
102
{ACAD_REACTORS
330
9
102
}
330
9
100
AcDbDictionary
281
     1
  0
DICTIONARY
  5
D
102
{ACAD_REACTORS
330
9
102
}
330
9
100
AcDbDictionary
281
     1
  3
Layout1
350
13
  3
Model
350
C
  0
DICTIONARY
  5
1BA
102
{ACAD_REACTORS
330
9
102
}
330
9
100
AcDbDictionary
281
     1
  0
DICTIONARY
  5
24
102
{ACAD_REACTORS
330
9
102
}
330
9
100
AcDbDictionary
281
     1
  3
Standard
350
27
  0
DICTIONARY
  5
25
102
{ACAD_REACTORS
330
9
102
}
330
9
100
AcDbDictionary
281
     1
  0
ACDBDICTIONARYWDFLT
  5
8
102
{ACAD_REACTORS
330
9
102
}
330
9
100
AcDbDictionary
281
     1
  3
Normal
350
7
100
AcDbDictionaryWithDefault
340
7
  0
DICTIONARY
  5
1BC
102
{ACAD_REACTORS
330
9
102
}
330
9
100
AcDbDictionary
281
     1
  3
Standard
350
1BD
  0
DICTIONARY
  5
1C9
102
{ACAD_REACTORS
330
9
102
}
330
9
100
AcDbDictionary
281
     1
  3
COLORDICT
350
1CA
  3
MATERIALDICT
350
1CB
  0
DICTIONARY
  5
100
102
{ACAD_REACTORS
330
9
102
}
330
9
100
AcDbDictionary
281
     1
  3
CTABLESTYLE
350
1C6
  3
HIDETEXT
350
1C8
  0
LAYOUT
  5
13
102
{ACAD_REACTORS
330
D
102
}
102
{ACAD_XDICTIONARY
360
1CC
102
}
330
D
100
AcDbPlotSettings
  1

  2
HP LaserJet 4
  4

  6

 40
0.0
 41
0.0
 42
0.0
 43
0.0
 44
0.0
 45
0.0
 46
0.0
 47
0.0
 48
0.0
 49
0.0
140
0.0
141
0.0
142
1.0
143
1.0
 70
   688
 72
     0
 73
     0
 74
     5
  7

 75
    16
147
1.0
148
0.0
149
0.0
100
AcDbLayout
  1
Layout1
 70
     0
 71
     1
 10
0.0
 20
0.0
 11
12.0
 21
9.0
 12
0.0
 22
0.0
 32
0.0
 14
1.000000000000000E+20
 24
1.000000000000000E+20
 34
1.000000000000000E+20
 15
-1.000000000000000E+20
 25
-1.000000000000000E+20
 35
-1.000000000000000E+20
146
0.0
 13
0.0
 23
0.0
 33
0.0
 16
1.0
 26
0.0
 36
0.0
 17
0.0
 27
1.0
 37
0.0
 76
     0
330
E
  0
LAYOUT
  5
C
102
{ACAD_REACTORS
330
D
102
}
102
{ACAD_XDICTIONARY
360
1CE
102
}
330
D
100
AcDbPlotSettings
  1

  2
HP LaserJet 4
  4
Letter
  6

 40
7.143749713897705
 41
6.127734661102295
 42
7.14373779296875
 43
7.14373779296875
 44
215.8999938964844
 45
279.3999938964844
 46
0.0
 47
0.0
 48
0.0
 49
0.0
140
0.0
141
0.0
142
1.0
143
1.0
 70
 11952
 72
     0
 73
     1
 74
     0
  7

 75
     0
147
1.0
148
-98.92365035450416
149
6.161480378074746
100
AcDbLayout
  1
Model
 70
     1
 71
     0
 10
0.0
 20
0.0
 11
12.0
 21
9.0
 12
0.0
 22
0.0
 32
0.0
 14
0.0
 24
0.0
 34
0.0
 15
0.0
 25
0.0
 35
0.0
146
0.0
 13
0.0
 23
0.0
 33
0.0
 16
1.0
 26
0.0
 36
0.0
 17
0.0
 27
1.0
 37
0.0
 76
     0
330
2
  0
MLINESTYLE
  5
27
102
{ACAD_REACTORS
330
24
102
}
330
24
100
AcDbMlineStyle
  2
STANDARD
 70
     0
  3

 62
   256
 51
90.0
 52
90.0
 71
     2
 49
0.5
 62
   256
  6
BYLAYER
 49
-0.5
 62
   256
  6
BYLAYER
  0
ACDBPLACEHOLDER
  5
7
102
{ACAD_REACTORS
330
8
102
}
330
8
  0
ACAD_PROXY_OBJECT
  5
1BD
102
{ACAD_REACTORS
330
1BC
102
}
330
1BC
100
AcDbProxyObject
 90
      499
 91
      520
 95
   983063
 70
     0
 93
     1841
310
4214DD185B99185C9928B81E85EB51B8AE3F2E07A17AD46E2B8FC02B5E8DC0F42B1CFD028000000C1008070000C3001FDFF8000000C1003FBFF000000182007F7FE00000030400FEFFC00000060801FDFF8000000C1003FBFF00000018200000000000000681FA0B0000001820100E000186003FBFF000000182007F7FE000
310
00030400FEFFC00000060801FDFF8000000C1003FBFF000000182007F7FE000000304000AD7A3703D0AC73F4160000003040201C00030C007F7FE00000030400FEFFC00000060801FDFF8000000C1003FBFF000000182007F7FE00000030400FEFFC000000608000
340
16
340
16
340
16
 94
        0
  0
XRECORD
  5
1CA
102
{ACAD_REACTORS
330
1C9
102
}
330
1C9
100
AcDbXrecord
340
1BB
  0
XRECORD
  5
1CB
102
{ACAD_REACTORS
330
1C9
102
}
330
1C9
100
AcDbXrecord
340
1BA
  0
DICTIONARYVAR
  5
1C6
102
{ACAD_REACTORS
330
100
102
}
330
100
100
DictionaryVariables
280
     0
  1
STANDARD
  0
DICTIONARYVAR
  5
1C8
102
{ACAD_REACTORS
330
100
102
}
330
100
100
DictionaryVariables
280
     0
  1
0
  0
DICTIONARY
  5
1CC
330
13
100
AcDbDictionary
280
     1
281
     1
  3
ACAD_XREC_ROUNDTRIP
360
1CD
  0
DICTIONARY
  5
1CE
330
C
100
AcDbDictionary
280
     1
281
     1
  3
ACAD_XREC_ROUNDTRIP
360
1CF
  0
XRECORD
  5
1CD
102
{ACAD_REACTORS
330
1CC
102
}
330
1CC
100
AcDbXrecord
102
SHADEPLOT
 70
     0
102
SHADEPLOTRESLEVEL
 70
     2
102
SHADEPLOTCUSTOMDPI
 70
   300
  0
XRECORD
  5
1CF
102
{ACAD_REACTORS
330
1CE
102
}
330
1CE
100
AcDbXrecord
102
SHADEPLOT
 70
     0
102
SHADEPLOTRESLEVEL
 70
     2
102
SHADEPLOTCUSTOMDPI
 70
   300
  0
ENDSEC
  0
EOF
