  0
SECTION
  2
HEADER
  9
$ACADVER
  1
AC1015
  9
$ACADMAINTVER
 70
     6
  9
$DWGCODEPAGE
  3
ANSI_1252
  9
$INSBASE
 10
0.0
 20
0.0
 30
0.0
  9
$EXTMIN
 10
-7.607823889128808
 20
0.0
 30
0.0
  9
$EXTMAX
 10
16.53161757247445
 20
26.38087859687935
 30
0.0
  9
$LIMMIN
 10
0.0
 20
0.0
  9
$LIMMAX
 10
32.0
 20
42.0
  9
$ORTHOMODE
 70
     1
  9
$REGENMODE
 70
     1
  9
$FILLMODE
 70
     1
  9
$QTEXTMODE
 70
     0
  9
$MIRRTEXT
 70
     0
  9
$LTSCALE
 40
1.0
  9
$ATTMODE
 70
     1
  9
$TEXTSIZE
 40
0.36
  9
$TRACEWID
 40
0.05
  9
$TEXTSTYLE
  7
STANDARD
  9
$CLAYER
  8
0
  9
$CELTYPE
  6
ByLayer
  9
$CECOLOR
 62
   256
  9
$CELTSCALE
 40
1.0
  9
$DISPSILH
 70
     0
  9
$DIMSCALE
 40
4.0
  9
$DIMASZ
 40
0.125
  9
$DIMEXO
 40
0.062
  9
$DIMDLI
 40
0.375
  9
$DIMRND
 40
0.0
  9
$DIMDLE
 40
0.0
  9
$DIMEXE
 40
0.08
  9
$DIMTP
 40
0.0
  9
$DIMTM
 40
0.0
  9
$DIMTXT
 40
0.09
  9
$DIMCEN
 40
-0.03125
  9
$DIMTSZ
 40
0.0
  9
$DIMTOL
 70
     0
  9
$DIMLIM
 70
     0
  9
$DIMTIH
 70
     1
  9
$DIMTOH
 70
     1
  9
$DIMSE1
 70
     0
  9
$DIMSE2
 70
     0
  9
$DIMTAD
 70
     0
  9
$DIMZIN
 70
     0
  9
$DIMBLK
  1

  9
$DIMASO
 70
     0
  9
$DIMSHO
 70
     0
  9
$DIMPOST
  1

  9
$DIMAPOST
  1

  9
$DIMALT
 70
     0
  9
$DIMALTD
 70
     2
  9
$DIMALTF
 40
25.4
  9
$DIMLFAC
 40
1.0
  9
$DIMTOFL
 70
     0
  9
$DIMTVP
 40
0.0
  9
$DIMTIX
 70
     0
  9
$DIMSOXD
 70
     0
  9
$DIMSAH
 70
     0
  9
$DIMBLK1
  1

  9
$DIMBLK2
  1

  9
$DIMSTYLE
  2
Standard
  9
$DIMCLRD
 70
     0
  9
$DIMCLRE
 70
     0
  9
$DIMCLRT
 70
     0
  9
$DIMTFAC
 40
1.0
  9
$DIMGAP
 40
0.09
  9
$DIMJUST
 70
     0
  9
$DIMSD1
 70
     0
  9
$DIMSD2
 70
     0
  9
$DIMTOLJ
 70
     1
  9
$DIMTZIN
 70
     0
  9
$DIMALTZ
 70
     0
  9
$DIMALTTZ
 70
     0
  9
$DIMUPT
 70
     0
  9
$DIMDEC
 70
     4
  9
$DIMTDEC
 70
     4
  9
$DIMALTU
 70
     5
  9
$DIMALTTD
 70
     2
  9
$DIMTXSTY
  7
STANDARD
  9
$DIMAUNIT
 70
     0
  9
$DIMADEC
 70
     0
  9
$DIMALTRND
 40
0.0
  9
$DIMAZIN
 70
     0
  9
$DIMDSEP
 70
    46
  9
$DIMATFIT
 70
     3
  9
$DIMFRAC
 70
     0
  9
$DIMLDRBLK
  1

  9
$DIMLUNIT
 70
     5
  9
$DIMLWD
 70
    -2
  9
$DIMLWE
 70
    -2
  9
$DIMTMOVE
 70
     2
  9
$LUNITS
 70
     5
  9
$LUPREC
 70
     4
  9
$SKETCHINC
 40
0.1
  9
$FILLETRAD
 40
0.0
  9
$AUNITS
 70
     0
  9
$AUPREC
 70
     0
  9
$MENU
  1
QA
  9
$ELEVATION
 40
0.0
  9
$PELEVATION
 40
0.0
  9
$THICKNESS
 40
0.0
  9
$LIMCHECK
 70
     0
  9
$CHAMFERA
 40
0.25
  9
$CHAMFERB
 40
0.25
  9
$CHAMFERC
 40
0.0
  9
$CHAMFERD
 40
0.0
  9
$SKPOLY
 70
     0
  9
$TDCREATE
 40
2449248.933821065
  9
$TDUCREATE
 40
2449249.267154398
  9
$TDUPDATE
 40
2454179.856560359
  9
$TDUUPDATE
 40
2454180.189893692
  9
$TDINDWG
 40
0.1151947917
  9
$TDUSRTIMER
 40
0.1151947917
  9
$USRTIMER
 70
     1
  9
$ANGBASE
 50
0.0
  9
$ANGDIR
 70
     0
  9
$PDMODE
 70
     0
  9
$PDSIZE
 40
0.0
  9
$PLINEWID
 40
0.0
  9
$SPLFRAME
 70
     0
  9
$SPLINETYPE
 70
     6
  9
$SPLINESEGS
 70
     8
  9
$HANDSEED
  5
1C0
  9
$SURFTAB1
 70
     6
  9
$SURFTAB2
 70
     6
  9
$SURFTYPE
 70
     6
  9
$SURFU
 70
     6
  9
$SURFV
 70
     6
  9
$UCSBASE
  2

  9
$UCSNAME
  2

  9
$UCSORG
 10
0.0
 20
0.0
 30
0.0
  9
$UCSXDIR
 10
1.0
 20
0.0
 30
0.0
  9
$UCSYDIR
 10
0.0
 20
1.0
 30
0.0
  9
$UCSORTHOREF
  2

  9
$UCSORTHOVIEW
 70
     0
  9
$UCSORGTOP
 10
0.0
 20
0.0
 30
0.0
  9
$UCSORGBOTTOM
 10
0.0
 20
0.0
 30
0.0
  9
$UCSORGLEFT
 10
0.0
 20
0.0
 30
0.0
  9
$UCSORGRIGHT
 10
0.0
 20
0.0
 30
0.0
  9
$UCSORGFRONT
 10
0.0
 20
0.0
 30
0.0
  9
$UCSORGBACK
 10
0.0
 20
0.0
 30
0.0
  9
$PUCSBASE
  2

  9
$PUCSNAME
  2

  9
$PUCSORG
 10
0.0
 20
0.0
 30
0.0
  9
$PUCSXDIR
 10
1.0
 20
0.0
 30
0.0
  9
$PUCSYDIR
 10
0.0
 20
1.0
 30
0.0
  9
$PUCSORTHOREF
  2

  9
$PUCSORTHOVIEW
 70
     0
  9
$PUCSORGTOP
 10
0.0
 20
0.0
 30
0.0
  9
$PUCSORGBOTTOM
 10
0.0
 20
0.0
 30
0.0
  9
$PUCSORGLEFT
 10
0.0
 20
0.0
 30
0.0
  9
$PUCSORGRIGHT
 10
0.0
 20
0.0
 30
0.0
  9
$PUCSORGFRONT
 10
0.0
 20
0.0
 30
0.0
  9
$PUCSORGBACK
 10
0.0
 20
0.0
 30
0.0
  9
$USERI1
 70
     0
  9
$USERI2
 70
     0
  9
$USERI3
 70
     0
  9
$USERI4
 70
     0
  9
$USERI5
 70
     0
  9
$USERR1
 40
0.0
  9
$USERR2
 40
0.0
  9
$USERR3
 40
0.0
  9
$USERR4
 40
0.0
  9
$USERR5
 40
0.0
  9
$WORLDVIEW
 70
     1
  9
$SHADEDGE
 70
     3
  9
$SHADEDIF
 70
    70
  9
$TILEMODE
 70
     1
  9
$MAXACTVP
 70
    16
  9
$PINSBASE
 10
0.0
 20
0.0
 30
0.0
  9
$PLIMCHECK
 70
     0
  9
$PEXTMIN
 10
1.000000000000000E+20
 20
1.000000000000000E+20
 30
1.000000000000000E+20
  9
$PEXTMAX
 10
-1.000000000000000E+20
 20
-1.000000000000000E+20
 30
-1.000000000000000E+20
  9
$PLIMMIN
 10
0.0
 20
0.0
  9
$PLIMMAX
 10
12.0
 20
9.0
  9
$UNITMODE
 70
     0
  9
$VISRETAIN
 70
     0
  9
$PLINEGEN
 70
     1
  9
$PSLTSCALE
 70
     0
  9
$TREEDEPTH
 70
  3020
  9
$CMLSTYLE
  2
Standard
  9
$CMLJUST
 70
     0
  9
$CMLSCALE
 40
1.0
  9
$PROXYGRAPHICS
 70
     1
  9
$MEASUREMENT
 70
     0
  9
$CELWEIGHT
370
    -1
  9
$ENDCAPS
280
     0
  9
$JOINSTYLE
280
     0
  9
$LWDISPLAY
290
     0
  9
$INSUNITS
 70
     0
  9
$HYPERLINKBASE
  1

  9
$STYLESHEET
  1

  9
$XEDIT
290
     1
  9
$CEPSNTYPE
380
     0
  9
$PSTYLEMODE
290
     1
  9
$FINGERPRINTGUID
  2
{95B91FB9-2D48-48B0-890B-BD98887BDDF1}
  9
$VERSIONGUID
  2
{DF5148C2-7040-42B0-94D0-B05E74F2AB52}
  9
$EXTNAMES
290
     1
  9
$PSVPSCALE
 40
0.0
  9
$OLESTARTUP
290
     0
  0
ENDSEC
  0
SECTION
  2
CLASSES
  0
CLASS
  1
ACDBDICTIONARYWDFLT
  2
AcDbDictionaryWithDefault
  3
AutoCAD 2000
 90
        0
280
     0
281
     0
  0
CLASS
  1
ACDBPLACEHOLDER
  2
AcDbPlaceHolder
  3
ObjectDBX Classes
 90
        0
280
     0
281
     0
  0
CLASS
  1
LAYOUT
  2
AcDbLayout
  3
ObjectDBX Classes
 90
        0
280
     0
281
     0
  0
CLASS
  1
LONG_TRANSACTION
  2
AcDbLongTransaction
  3
ObjectDBX Classes
 90
   -65536
280
     1
281
     0
  0
CLASS
  1
LWPOLYLINE
  2
AcDbPolyline
  3
AutoCAD 2000
 90
        0
280
     0
281
     1
  0
CLASS
  1
HATCH
  2
AcDbHatch
  3
AutoCAD 2000
 90
        0
280
     0
281
     1
  0
CLASS
  1
XRECORD
  2
AcDbXrecord
  3
AutoCAD 2000
 90
        0
280
     0
281
     0
  0
CLASS
  1
LONG_TRANSACTION
  2
AcDbLongTransaction
  3
ObjectDBX Classes
 90
   -65536
280
     1
281
     0
  0
CLASS
  1
LWPOLYLINE
  2
AcDbPolyline
  3
AutoCAD 2000
 90
        0
280
     0
281
     1
  0
CLASS
  1
HATCH
  2
AcDbHatch
  3
AutoCAD 2000
 90
        0
280
     0
281
     1
  0
CLASS
  1
XRECORD
  2
AcDbXrecord
  3
AutoCAD 2000
 90
        0
280
     0
281
     0
  0
CLASS
  1
DICTIONARYVAR
  2
AcDbDictionaryVar
  3
AutoCAD 2000
 90
        0
280
     0
281
     0
  0
CLASS
  1
TABLESTYLE
  2
AcDbTableStyle
  3
ObjectDBX Classes
 90
     2047
280
     1
281
     0
  0
ENDSEC
  0
SECTION
  2
TABLES
  0
TABLE
  2
VPORT
  5
1D
330
0
100
AcDbSymbolTable
 70
     2
  0
VPORT
  5
1B0
330
1D
100
AcDbSymbolTableRecord
100
AcDbViewportTableRecord
  2
*Active
 70
     0
 10
0.0
 20
0.0
 11
1.0
 21
1.0
 12
12.19580081407424
 22
22.30835565946715
 13
0.0
 23
0.0
 14
0.063
 24
0.063
 15
2.0
 25
2.0
 16
0.0
 26
0.0
 36
1.0
 17
0.0
 27
0.0
 37
0.0
 40
45.28420254146021
 41
1.814583333333334
 42
50.0
 43
0.0
 44
0.0
 50
0.0
 51
0.0
 71
     0
 72
   100
 73
     1
 74
     0
 75
     0
 76
     0
 77
     0
 78
     0
281
     0
 65
     1
110
0.0
120
0.0
130
0.0
111
1.0
121
0.0
131
0.0
112
0.0
122
1.0
132
0.0
 79
     0
146
0.0
  0
ENDTAB
  0
TABLE
  2
LTYPE
  5
18
330
0
100
AcDbSymbolTable
 70
     1
  0
LTYPE
  5
19
330
18
100
AcDbSymbolTableRecord
100
AcDbLinetypeTableRecord
  2
ByBlock
 70
     0
  3

 72
    65
 73
     0
 40
0.0
  0
LTYPE
  5
1A
330
18
100
AcDbSymbolTableRecord
100
AcDbLinetypeTableRecord
  2
ByLayer
 70
     0
  3

 72
    65
 73
     0
 40
0.0
  0
LTYPE
  5
A
330
18
100
AcDbSymbolTableRecord
100
AcDbLinetypeTableRecord
  2
CONTINUOUS
 70
     0
  3
Solid line
 72
    65
 73
     0
 40
0.0
  0
ENDTAB
  0
TABLE
  2
LAYER
  5
14
330
0
100
AcDbSymbolTable
 70
     2
  0
LAYER
  5
6
330
14
100
AcDbSymbolTableRecord
100
AcDbLayerTableRecord
  2
0
 70
     0
 62
     7
  6
CONTINUOUS
370
    -3
390
7
  0
ENDTAB
  0
TABLE
  2
STYLE
  5
15
330
0
100
AcDbSymbolTable
 70
     1
  0
STYLE
  5
16
330
15
100
AcDbSymbolTableRecord
100
AcDbTextStyleTableRecord
  2
STANDARD
 70
     0
 40
0.0
 41
1.0
 50
0.0
 71
     0
 42
0.36
  3
TXT
  4

  0
ENDTAB
  0
TABLE
  2
VIEW
  5
1B
330
0
100
AcDbSymbolTable
 70
     0
  0
ENDTAB
  0
TABLE
  2
UCS
  5
1C
330
0
100
AcDbSymbolTable
 70
     0
  0
ENDTAB
  0
TABLE
  2
APPID
  5
1F
330
0
100
AcDbSymbolTable
 70
     1
  0
APPID
  5
20
330
1F
100
AcDbSymbolTableRecord
100
AcDbRegAppTableRecord
  2
ACAD
 70
     0
  0
ENDTAB
  0
TABLE
  2
DIMSTYLE
  5
21
330
0
100
AcDbSymbolTable
 70
     1
100
AcDbDimStyleTable
  0
DIMSTYLE
105
28
330
21
100
AcDbSymbolTableRecord
100
AcDbDimStyleTableRecord
  2
Standard
 70
     0
  3

  4

340
16
  0
ENDTAB
  0
TABLE
  2
BLOCK_RECORD
  5
1
330
0
100
AcDbSymbolTable
 70
     0
  0
BLOCK_RECORD
  5
2
330
1
100
AcDbSymbolTableRecord
100
AcDbBlockTableRecord
  2
*Model_Space
340
C
  0
BLOCK_RECORD
  5
E
330
1
100
AcDbSymbolTableRecord
100
AcDbBlockTableRecord
  2
*Paper_Space
340
13
  0
ENDTAB
  0
ENDSEC
  0
SECTION
  2
BLOCKS
  0
BLOCK
  5
5
330
2
100
AcDbEntity
  8
0
100
AcDbBlockBegin
  2
*Model_Space
 70
     0
 10
0.0
 20
0.0
 30
0.0
  3
*Model_Space
  1

  4

  0
ENDBLK
  5
B
330
2
100
AcDbEntity
  8
0
100
AcDbBlockEnd
  0
BLOCK
  5
11
330
E
100
AcDbEntity
 67
     1
  8
0
100
AcDbBlockBegin
  2
*Paper_Space
 70
     0
 10
0.0
 20
0.0
 30
0.0
  3
*Paper_Space
  1

  4

  0
ENDBLK
  5
12
330
E
100
AcDbEntity
 67
     1
  8
0
100
AcDbBlockEnd
  0
ENDSEC
  0
SECTION
  2
ENTITIES
  0
LINE
  5
103
330
2
100
AcDbEntity
  8
0
100
AcDbLine
 10
1.547570991917237
 20
8.593737023978417
 30
0.0
 11
1.547570991917237
 21
11.98523702397841
 31
0.0
  0
LINE
  5
104
330
2
100
AcDbEntity
  8
0
100
AcDbLine
 10
-0.1069290080827621
 20
8.593737023978417
 30
0.0
 11
-0.1069290080827621
 21
15.54773702397841
 31
0.0
  0
LINE
  5
105
330
2
100
AcDbEntity
  8
0
100
AcDbLine
 10
1.516320991917237
 20
8.62498702397842
 30
0.0
 11
1.157820991917237
 21
8.62498702397842
 31
0.0
  0
LINE
  5
106
330
2
100
AcDbEntity
  8
0
100
AcDbLine
 10
0.3140709919172373
 20
8.593737023978417
 30
0.0
 11
1.126570991917237
 21
8.593737023978417
 31
0.0
  0
LINE
  5
107
330
2
100
AcDbEntity
  8
0
100
AcDbLine
 10
-0.0756790080827621
 20
8.62498702397842
 30
0.0
 11
0.2828209919172373
 21
8.62498702397842
 31
0.0
  0
ARC
  5
108
330
2
100
AcDbEntity
  8
0
100
AcDbCircle
 10
-0.0756790080827621
 20
8.59373702397842
 30
0.0
 40
0.03125
100
AcDbArc
 50
90.0
 51
180.0
  0
LINE
  5
109
330
2
100
AcDbEntity
  8
0
100
AcDbLine
 10
-0.1069290080827621
 20
8.593737023978417
 30
0.0
 11
-0.0609290080827627
 21
8.593737023978417
 31
0.0
  0
ARC
  5
10A
330
2
100
AcDbEntity
  8
0
100
AcDbCircle
 10
0.2828209919172373
 20
8.59373702397842
 30
0.0
 40
0.03125
100
AcDbArc
 50
359.9999999999935
 51
90.0
  0
ARC
  5
10B
330
2
100
AcDbEntity
  8
0
100
AcDbCircle
 10
1.157820991917237
 20
8.59373702397842
 30
0.0
 40
0.03125
100
AcDbArc
 50
90.0
 51
180.0000000000065
  0
CIRCLE
  5
10C
330
2
100
AcDbEntity
  8
0
100
AcDbCircle
 10
0.7203209919172373
 20
11.09373702397842
 30
0.0
 40
0.1875
  0
ARC
  5
10D
330
2
100
AcDbEntity
  8
0
100
AcDbCircle
 10
1.516320991917237
 20
8.59373702397842
 30
0.0
 40
0.03125
100
AcDbArc
 50
0.0
 51
90.0
  0
LINE
  5
10E
330
2
100
AcDbEntity
  8
0
100
AcDbLine
 10
1.501570991917237
 20
8.59373702397842
 30
0.0
 11
1.547570991917237
 21
8.593737023978417
 31
0.0
  0
LINE
  5
10F
330
2
100
AcDbEntity
  8
0
100
AcDbLine
 10
-0.0149290080827615
 20
15.63973702397841
 30
0.0
 11
6.939070991917236
 21
15.63973702397842
 31
0.0
  0
LINE
  5
110
330
2
100
AcDbEntity
  8
0
100
AcDbLine
 10
6.939070991917236
 20
13.98523702397842
 30
0.0
 11
3.547570991917235
 21
13.98523702397841
 31
0.0
  0
ARC
  5
111
330
2
100
AcDbEntity
  8
0
100
AcDbCircle
 10
1.593570991917238
 20
11.98523702397842
 30
0.0
 40
0.092
100
AcDbArc
 50
90.0
 51
180.0
  0
LINE
  5
112
330
2
100
AcDbEntity
  8
0
100
AcDbLine
 10
-0.1069290080827621
 20
11.96873702397842
 30
0.0
 11
1.547570991917237
 21
11.96873702397842
 31
0.0
  0
LINE
  5
113
330
2
100
AcDbEntity
  8
0
100
AcDbLine
 10
-0.0149290080827633
 20
15.59373702397841
 30
0.0
 11
3.568488285495405
 21
15.59373702397842
 31
0.0
  0
LINE
  5
114
330
2
100
AcDbEntity
  8
0
100
AcDbLine
 10
-0.0609290080827627
 20
11.96873702397841
 30
0.0
 11
-0.0609290080827627
 21
15.54773702397841
 31
0.0
  0
ARC
  5
115
330
2
100
AcDbEntity
  8
0
100
AcDbCircle
 10
-0.0149290080827615
 20
15.54773702397841
 30
0.0
 40
0.092
100
AcDbArc
 50
90.00000000000003
 51
180.0
  0
ARC
  5
116
330
2
100
AcDbEntity
  8
0
100
AcDbCircle
 10
-0.0149290080827633
 20
15.54773702397841
 30
0.0
 40
0.046
100
AcDbArc
 50
90.0
 51
180.0
  0
LINE
  5
117
330
2
100
AcDbEntity
  8
0
100
AcDbLine
 10
3.564070991917236
 20
15.63973702397842
 30
0.0
 11
3.564070991917239
 21
13.98523702397842
 31
0.0
  0
LINE
  5
118
330
2
100
AcDbEntity
  8
0
100
AcDbLine
 10
1.593570991917236
 20
12.03123702397841
 30
0.0
 11
3.360070991917237
 21
12.03123702397842
 31
0.0
  0
LINE
  5
119
330
2
100
AcDbEntity
  8
0
100
AcDbLine
 10
1.593570991917238
 20
12.07723702397842
 30
0.0
 11
3.360070991917237
 21
12.07723702397842
 31
0.0
  0
LINE
  5
11A
330
2
100
AcDbEntity
  8
0
100
AcDbLine
 10
1.501570991917237
 20
11.98406245511661
 30
0.0
 11
1.501570991917237
 21
11.98523702397842
 31
0.0
  0
ARC
  5
11B
330
2
100
AcDbEntity
  8
0
100
AcDbCircle
 10
1.593570991917236
 20
11.98523702397841
 30
0.0
 40
0.046
100
AcDbArc
 50
90.0
 51
180.0
  0
LINE
  5
11C
330
2
100
AcDbEntity
  8
0
100
AcDbLine
 10
3.360070991917237
 20
12.03123702397842
 30
0.0
 11
3.360070991917237
 21
12.07723702397842
 31
0.0
  0
LINE
  5
11D
330
2
100
AcDbEntity
  8
0
100
AcDbLine
 10
3.501570991917236
 20
13.93923702397841
 30
0.0
 11
3.501570991917236
 21
12.17273702397842
 31
0.0
  0
LINE
  5
11E
330
2
100
AcDbEntity
  8
0
100
AcDbLine
 10
3.455570991917236
 20
13.93923702397842
 30
0.0
 11
3.455570991917236
 21
12.17273702397842
 31
0.0
  0
LINE
  5
11F
330
2
100
AcDbEntity
  8
0
100
AcDbLine
 10
3.455570991917236
 20
12.17273702397842
 30
0.0
 11
3.501570991917236
 21
12.17273702397842
 31
0.0
  0
ARC
  5
120
330
2
100
AcDbEntity
  8
0
100
AcDbCircle
 10
3.547570991917237
 20
13.93923702397842
 30
0.0
 40
0.092
100
AcDbArc
 50
90.0
 51
180.0
  0
LINE
  5
121
330
2
100
AcDbEntity
  8
0
100
AcDbLine
 10
3.568488285495405
 20
14.03123702397842
 30
0.0
 11
3.547570991917237
 21
14.03123702397842
 31
0.0
  0
ARC
  5
122
330
2
100
AcDbEntity
  8
0
100
AcDbCircle
 10
3.547570991917235
 20
13.93923702397841
 30
0.0
 40
0.046
100
AcDbArc
 50
90.0
 51
180.0
  0
LINE
  5
123
330
2
100
AcDbEntity
  8
0
100
AcDbLine
 10
6.939070991917239
 20
14.40623702397842
 30
0.0
 11
6.939070991917239
 21
15.21873702397842
 31
0.0
  0
ARC
  5
124
330
2
100
AcDbEntity
  8
0
100
AcDbCircle
 10
6.939070991917236
 20
14.37498702397842
 30
0.0
 40
0.03125
100
AcDbArc
 50
89.99999999999352
 51
180.0
  0
LINE
  5
125
330
2
100
AcDbEntity
  8
0
100
AcDbLine
 10
6.907820991917236
 20
14.01648702397842
 30
0.0
 11
6.907820991917236
 21
14.37498702397842
 31
0.0
  0
ARC
  5
126
330
2
100
AcDbEntity
  8
0
100
AcDbCircle
 10
6.939070991917236
 20
14.01648702397842
 30
0.0
 40
0.03125
100
AcDbArc
 50
180.0
 51
270.0
  0
LINE
  5
127
330
2
100
AcDbEntity
  8
0
100
AcDbLine
 10
6.939070991917236
 20
14.03123702397842
 30
0.0
 11
6.939070991917236
 21
13.98523702397842
 31
0.0
  0
LINE
  5
128
330
2
100
AcDbEntity
  8
0
100
AcDbLine
 10
6.907820991917236
 20
15.60848702397842
 30
0.0
 11
6.907820991917236
 21
15.24998702397842
 31
0.0
  0
ARC
  5
129
330
2
100
AcDbEntity
  8
0
100
AcDbCircle
 10
6.939070991917236
 20
15.24998702397842
 30
0.0
 40
0.03125
100
AcDbArc
 50
180.0
 51
270.0000000000065
  0
ARC
  5
12A
330
2
100
AcDbEntity
  8
0
100
AcDbCircle
 10
6.939070991917236
 20
15.60848702397842
 30
0.0
 40
0.03125
100
AcDbArc
 50
90.0
 51
180.0
  0
LINE
  5
12B
330
2
100
AcDbEntity
  8
0
100
AcDbLine
 10
6.939070991917236
 20
15.63973702397842
 30
0.0
 11
6.939070991917236
 21
15.59373702397842
 31
0.0
  0
LINE
  5
12C
330
2
100
AcDbEntity
  8
0
100
AcDbLine
 10
3.580570991917238
 20
0.9375585858063431
 30
0.0
 11
6.795999999999994
 21
0.9375585858063413
 31
0.0
  0
LINE
  5
12D
330
2
100
AcDbEntity
  8
0
100
AcDbLine
 10
3.671304639421138
 20
3.014749999999992
 30
0.0
 11
7.046000000000001
 21
3.014749999999992
 31
0.0
  0
LINE
  5
12E
330
2
100
AcDbEntity
  8
0
100
AcDbLine
 10
0.0
 20
0.0
 30
0.0
 11
6.796000000000001
 21
0.0
 31
0.0
  0
LINE
  5
12F
330
2
100
AcDbEntity
  8
0
100
AcDbLine
 10
3.670999999999999
 20
3.014758585806343
 30
0.0
 11
7.045999999999994
 21
3.014758585806341
 31
0.0
  0
LINE
  5
130
330
2
100
AcDbEntity
  8
0
100
AcDbLine
 10
3.670999999999999
 20
2.968758585806343
 30
0.0
 11
7.045999999999994
 21
2.968758585806341
 31
0.0
  0
LINE
  5
131
330
2
100
AcDbEntity
  8
0
100
AcDbLine
 10
0.0
 20
2.922758585806342
 30
0.0
 11
0.0
 21
5.3125
 31
0.0
  0
LINE
  5
132
330
2
100
AcDbEntity
  8
0
100
AcDbLine
 10
0.0459999999999994
 20
3.002432922954604
 30
0.0
 11
0.0459999999999994
 21
5.3125
 31
0.0
  0
ARC
  5
133
330
2
100
AcDbEntity
  8
0
100
AcDbCircle
 10
0.3125
 20
4.1875
 30
0.0
 40
1.125
100
AcDbArc
 50
356.8310630804955
 51
89.99999581307951
  0
LINE
  5
134
330
2
100
AcDbEntity
  8
0
100
AcDbLine
 10
0.0919999999999987
 20
2.968758585806341
 30
0.0
 11
1.562499999999993
 21
2.96875858580634
 31
0.0
  0
LINE
  5
135
330
2
100
AcDbEntity
  8
0
100
AcDbLine
 10
0.0920000000000005
 20
3.014758585806343
 30
0.0
 11
1.562499999999993
 21
3.014758585806339
 31
0.0
  0
ARC
  5
136
330
2
100
AcDbEntity
  8
0
100
AcDbCircle
 10
2.5625
 20
4.0625
 30
0.0
 40
1.125
100
AcDbArc
 50
176.8201698801359
 51
270.0
  0
LINE
  5
137
330
2
100
AcDbEntity
  8
0
100
AcDbLine
 10
0.0459999999999994
 20
0.0
 30
0.0
 11
0.0459999999999994
 21
2.922758585806342
 31
0.0
  0
LINE
  5
138
330
2
100
AcDbEntity
  8
0
100
AcDbLine
 10
0.0
 20
0.0
 30
0.0
 11
0.0
 21
2.922758585806342
 31
0.0
  0
CIRCLE
  5
139
330
2
100
AcDbEntity
  8
0
100
AcDbCircle
 10
0.75
 20
0.3762184134219471
 30
0.0
 40
0.0859375
  0
ARC
  5
13A
330
2
100
AcDbEntity
  8
0
100
AcDbCircle
 10
0.0920000000000005
 20
2.922758585806342
 30
0.0
 40
0.092
100
AcDbArc
 50
89.99999999999987
 51
180.0
  0
ARC
  5
13B
330
2
100
AcDbEntity
  8
0
100
AcDbCircle
 10
0.0919999999999987
 20
2.922758585806342
 30
0.0
 40
0.046
100
AcDbArc
 50
89.99999999999993
 51
180.0
  0
LINE
  5
13C
330
2
100
AcDbEntity
  8
0
100
AcDbLine
 10
0.3083942895495948
 20
2.906258585806341
 30
0.0
 11
0.43591512066949
 21
2.906258585806341
 31
0.0
  0
CIRCLE
  5
13D
330
2
100
AcDbEntity
  8
0
100
AcDbCircle
 10
0.75
 20
2.874999999999993
 30
0.0
 40
0.0859375
  0
CIRCLE
  5
13E
330
2
100
AcDbEntity
  8
0
100
AcDbCircle
 10
0.75
 20
4.562499999999993
 30
0.0
 40
0.0859375
  0
LINE
  5
13F
330
2
100
AcDbEntity
  8
0
100
AcDbLine
 10
3.626570991917237
 20
2.911033688934836
 30
0.0
 11
3.626570991917236
 21
0.9375585858063413
 31
0.0
  0
LINE
  5
140
330
2
100
AcDbEntity
  8
0
100
AcDbLine
 10
3.580570991917238
 20
2.912330130119235
 30
0.0
 11
3.580570991917236
 21
0.9375585858063413
 31
0.0
  0
LINE
  5
141
330
2
100
AcDbEntity
  8
0
100
AcDbLine
 10
1.608499999999992
 20
2.92275858580634
 30
0.0
 11
1.608499999999994
 21
0.9375585858063413
 31
0.0
  0
LINE
  5
142
330
2
100
AcDbEntity
  8
0
100
AcDbLine
 10
1.654499999999993
 20
2.922758585806339
 30
0.0
 11
1.654499999999993
 21
0.9375585858063413
 31
0.0
  0
LINE
  5
143
330
2
100
AcDbEntity
  8
0
100
AcDbLine
 10
3.492284691971861
 20
2.656258585806343
 30
0.0
 11
3.492284691971861
 21
0.9375585858063413
 31
0.0
  0
LINE
  5
144
330
2
100
AcDbEntity
  8
0
100
AcDbLine
 10
1.608499999999994
 20
0.9375585858063413
 30
0.0
 11
3.492284691971861
 21
0.9375585858063413
 31
0.0
  0
CIRCLE
  5
145
330
2
100
AcDbEntity
  8
0
100
AcDbCircle
 10
2.28828469197186
 20
1.375058585806341
 30
0.0
 40
0.0859375
  0
CIRCLE
  5
146
330
2
100
AcDbEntity
  8
0
100
AcDbCircle
 10
2.625
 20
0.625152869804003
 30
0.0
 40
0.0859375
  0
CIRCLE
  5
147
330
2
100
AcDbEntity
  8
0
100
AcDbCircle
 10
4.5
 20
0.625
 30
0.0
 40
0.0859375
  0
CIRCLE
  5
148
330
2
100
AcDbEntity
  8
0
100
AcDbCircle
 10
4.670999999999994
 20
1.37505858580634
 30
0.0
 40
0.0859375
  0
ARC
  5
149
330
2
100
AcDbEntity
  8
0
100
AcDbCircle
 10
3.242284691971861
 20
2.656258585806343
 30
0.0
 40
0.25
100
AcDbArc
 50
0.0
 51
90.0
  0
LINE
  5
14A
330
2
100
AcDbEntity
  8
0
100
AcDbLine
 10
3.670999999999999
 20
2.906258585806341
 30
0.0
 11
2.5625
 21
2.9375
 31
0.0
  0
LINE
  5
14B
330
2
100
AcDbEntity
  8
0
100
AcDbLine
 10
2.41328469197186
 20
2.906258585806343
 30
0.0
 11
3.242284691971861
 21
2.906258585806343
 31
0.0
  0
LINE
  5
14C
330
2
100
AcDbEntity
  8
0
100
AcDbLine
 10
1.654499999999993
 20
2.906258585806341
 30
0.0
 11
2.41328469197186
 21
2.906258585806343
 31
0.0
  0
ARC
  5
14D
330
2
100
AcDbEntity
  8
0
100
AcDbCircle
 10
1.562499999999993
 20
2.922758585806339
 30
0.0
 40
0.092
100
AcDbArc
 50
0.0000000000000509
 51
89.9999999999998
  0
ARC
  5
14E
330
2
100
AcDbEntity
  8
0
100
AcDbCircle
 10
1.562499999999993
 20
2.92275858580634
 30
0.0
 40
0.046
100
AcDbArc
 50
0.0000000000000509
 51
89.99999999999993
  0
CIRCLE
  5
14F
330
2
100
AcDbEntity
  8
0
100
AcDbCircle
 10
3.0
 20
2.0625
 30
0.0
 40
0.1015625
  0
LINE
  5
150
330
2
100
AcDbEntity
  8
0
100
AcDbLine
 10
3.670999999999999
 20
3.005739567140978
 30
0.0
 11
3.670999999999999
 21
2.906258585806341
 31
0.0
  0
LINE
  5
151
330
2
100
AcDbEntity
  8
0
100
AcDbLine
 10
3.670999999999999
 20
3.014758585806343
 30
0.0
 11
3.670999999999999
 21
2.906258585806341
 31
0.0
  0
LINE
  5
152
330
2
100
AcDbEntity
  8
0
100
AcDbLine
 10
0.3125
 20
5.3125
 30
0.0
 11
0.0
 21
5.3125
 31
0.0
  0
LINE
  5
153
330
2
100
AcDbEntity
  8
0
100
AcDbLine
 10
7.046000000000001
 20
0.25
 30
0.0
 11
7.046000000000001
 21
3.014749999999992
 31
0.0
  0
LINE
  5
154
330
2
100
AcDbEntity
  8
0
100
AcDbLine
 10
7.045999999999994
 20
3.014758585806341
 30
0.0
 11
7.045999999999994
 21
1.187558585806341
 31
0.0
  0
CIRCLE
  5
155
330
2
100
AcDbEntity
  8
0
100
AcDbCircle
 10
6.625000000000002
 20
0.375
 30
0.0
 40
0.0859375
  0
LINE
  5
156
330
2
100
AcDbEntity
  8
0
100
AcDbLine
 10
6.796000000000001
 20
0.0
 30
0.0
 11
7.046000000000001
 21
0.25
 31
0.0
  0
CIRCLE
  5
157
330
2
100
AcDbEntity
  8
0
100
AcDbCircle
 10
6.670999999999994
 20
1.312558585806341
 30
0.0
 40
0.0859375
  0
LINE
  5
158
330
2
100
AcDbEntity
  8
0
100
AcDbLine
 10
7.045999999999994
 20
1.187558585806341
 30
0.0
 11
6.795999999999994
 21
0.9375585858063413
 31
0.0
  0
LINE
  5
159
330
2
100
AcDbEntity
  8
0
100
AcDbLine
 10
0.0205632707851393
 20
26.38087859687935
 30
0.0
 11
0.0205632707851393
 21
21.06837859687936
 31
0.0
  0
LINE
  5
15A
330
2
100
AcDbEntity
  8
0
100
AcDbLine
 10
7.066563270785141
 20
26.13087859687935
 30
0.0
 11
7.066563270785141
 21
23.36612859687936
 31
0.0
  0
LINE
  5
15B
330
2
100
AcDbEntity
  8
0
100
AcDbLine
 10
3.691867910206279
 20
23.41212859687935
 30
0.0
 11
7.066563270785141
 21
23.41212859687935
 31
0.0
  0
LINE
  5
15C
330
2
100
AcDbEntity
  8
0
100
AcDbLine
 10
3.691867910206279
 20
23.36612859687936
 30
0.0
 11
7.066563270785141
 21
23.36612859687936
 31
0.0
  0
ARC
  5
15D
330
2
100
AcDbEntity
  8
0
100
AcDbCircle
 10
2.511135359170368
 20
22.3833160395127
 30
0.0
 40
1.0625
100
AcDbArc
 50
86.11828699773685
 51
186.9055317882326
  0
ARC
  5
15E
330
2
100
AcDbEntity
  8
0
100
AcDbCircle
 10
0.3330632707851393
 20
22.19337859687936
 30
0.0
 40
1.125
100
AcDbArc
 50
270.0000041869205
 51
3.168936919504489
  0
LINE
  5
15F
330
2
100
AcDbEntity
  8
0
100
AcDbLine
 10
0.3330632707851393
 20
21.06837859687936
 30
0.0
 11
0.0205632707851393
 21
21.06837859687936
 31
0.0
  0
CIRCLE
  5
160
330
2
100
AcDbEntity
  8
0
100
AcDbCircle
 10
0.7705632707851411
 20
21.81837859687936
 30
0.0
 40
0.0859375
  0
CIRCLE
  5
161
330
2
100
AcDbEntity
  8
0
100
AcDbCircle
 10
0.7705632707851411
 20
23.75587859687936
 30
0.0
 40
0.0859375
  0
LINE
  5
162
330
2
100
AcDbEntity
  8
0
100
AcDbLine
 10
3.691563270785137
 20
23.47462001107301
 30
0.0
 11
2.583063270785139
 21
23.44337859687935
 31
0.0
  0
CIRCLE
  5
163
330
2
100
AcDbEntity
  8
0
100
AcDbCircle
 10
2.645563270785139
 20
24.06837859687935
 30
0.0
 40
0.0859375
  0
LINE
  5
164
330
2
100
AcDbEntity
  8
0
100
AcDbLine
 10
3.691563270785137
 20
23.37513902973837
 30
0.0
 11
3.691563270785137
 21
23.47462001107301
 31
0.0
  0
LINE
  5
165
330
2
100
AcDbEntity
  8
0
100
AcDbLine
 10
0.0205632707851393
 20
26.38087859687935
 30
0.0
 11
6.816563270785141
 21
26.38087859687935
 31
0.0
  0
CIRCLE
  5
166
330
2
100
AcDbEntity
  8
0
100
AcDbCircle
 10
0.7705632707851411
 20
26.00587859687935
 30
0.0
 40
0.0859375
  0
CIRCLE
  5
167
330
2
100
AcDbEntity
  8
0
100
AcDbCircle
 10
2.645563270785139
 20
25.75587859687935
 30
0.0
 40
0.0859375
  0
CIRCLE
  5
168
330
2
100
AcDbEntity
  8
0
100
AcDbCircle
 10
4.520563270785139
 20
25.75587859687935
 30
0.0
 40
0.0859375
  0
LINE
  5
169
330
2
100
AcDbEntity
  8
0
100
AcDbLine
 10
6.816563270785141
 20
26.38087859687935
 30
0.0
 11
7.066563270785141
 21
26.13087859687935
 31
0.0
  0
CIRCLE
  5
16A
330
2
100
AcDbEntity
  8
0
100
AcDbCircle
 10
6.645563270785141
 20
26.00587859687935
 30
0.0
 40
0.0859375
  0
LINE
  5
16B
330
2
100
AcDbEntity
  8
0
100
AcDbLine
 10
-4.655565303322474
 20
12.00389187271691
 30
0.0
 11
-4.655565303322474
 21
8.628891872716913
 31
0.0
  0
LINE
  5
16C
330
2
100
AcDbEntity
  8
0
100
AcDbLine
 10
-4.701565303322466
 20
12.00389187271691
 30
0.0
 11
-4.701565303322466
 21
8.628891872716913
 31
0.0
  0
LINE
  5
16D
330
2
100
AcDbEntity
  8
0
100
AcDbLine
 10
-7.607823889128808
 20
15.67489187271691
 30
0.0
 11
-7.607823889128808
 21
8.878891872716906
 31
0.0
  0
LINE
  5
16E
330
2
100
AcDbEntity
  8
0
100
AcDbLine
 10
-7.357823889128808
 20
8.628891872716906
 30
0.0
 11
-4.655565303322474
 21
8.628891872716917
 31
0.0
  0
CIRCLE
  5
16F
330
2
100
AcDbEntity
  8
0
100
AcDbCircle
 10
-7.232823889128811
 20
8.987391872716906
 30
0.0
 40
0.0859375
  0
LINE
  5
170
330
2
100
AcDbEntity
  8
0
100
AcDbLine
 10
-7.607823889128808
 20
8.878891872716906
 30
0.0
 11
-7.357823889128808
 21
8.628891872716906
 31
0.0
  0
CIRCLE
  5
171
330
2
100
AcDbEntity
  8
0
100
AcDbCircle
 10
-6.982823889128811
 20
11.11239187271691
 30
0.0
 40
0.0859375
  0
ARC
  5
172
330
2
100
AcDbEntity
  8
0
100
AcDbCircle
 10
-3.420323889128811
 20
15.36239187271691
 30
0.0
 40
1.125
100
AcDbArc
 50
266.8310630804955
 51
359.9999958130796
  0
LINE
  5
173
330
2
100
AcDbEntity
  8
0
100
AcDbLine
 10
-7.607823889128808
 20
15.67489187271691
 30
0.0
 11
-2.29532388912881
 21
15.67489187271691
 31
0.0
  0
CIRCLE
  5
174
330
2
100
AcDbEntity
  8
0
100
AcDbCircle
 10
-7.238847445268961
 20
12.98739187271691
 30
0.0
 40
0.0859375
  0
CIRCLE
  5
175
330
2
100
AcDbEntity
  8
0
100
AcDbCircle
 10
-6.99497562893511
 20
14.86239187271691
 30
0.0
 40
0.0859375
  0
ARC
  5
176
330
2
100
AcDbEntity
  8
0
100
AcDbCircle
 10
-3.545323889128811
 20
13.11239187271691
 30
0.0
 40
1.125
100
AcDbArc
 50
86.82016988013588
 51
180.0000000000001
  0
CIRCLE
  5
177
330
2
100
AcDbEntity
  8
0
100
AcDbCircle
 10
-5.357823889128818
 20
13.04989187271691
 30
0.0
 40
0.0859375
  0
LINE
  5
178
330
2
100
AcDbEntity
  8
0
100
AcDbLine
 10
-4.701565303322466
 20
12.00389187271691
 30
0.0
 11
-4.670323889128811
 21
13.11239187271691
 31
0.0
  0
LINE
  5
179
330
2
100
AcDbEntity
  8
0
100
AcDbLine
 10
-4.655565303322474
 20
12.00389187271691
 30
0.0
 11
-4.701565303322466
 21
12.00389187271691
 31
0.0
  0
CIRCLE
  5
17A
330
2
100
AcDbEntity
  8
0
100
AcDbCircle
 10
-4.732823889128818
 20
14.86239187271691
 30
0.0
 40
0.0859375
  0
LINE
  5
17B
330
2
100
AcDbEntity
  8
0
100
AcDbLine
 10
-2.295323889128813
 20
15.36239179050692
 30
0.0
 11
-2.295323889128813
 21
15.67489179050692
 31
0.0
  0
CIRCLE
  5
17C
330
2
100
AcDbEntity
  8
0
100
AcDbCircle
 10
-2.982823889128818
 20
14.86239187271691
 30
0.0
 40
0.0859375
  0
LINE
  5
17D
330
2
100
AcDbEntity
  8
0
100
AcDbLine
 10
13.61248630566386
 20
15.64727020585094
 30
0.0
 11
11.21911757247444
 21
15.64727020585094
 31
0.0
  0
LINE
  5
17E
330
2
100
AcDbEntity
  8
0
100
AcDbLine
 10
13.53281196851635
 20
15.60127020585094
 30
0.0
 11
11.21911757247444
 21
15.60127020585094
 31
0.0
  0
ARC
  5
17F
330
2
100
AcDbEntity
  8
0
100
AcDbCircle
 10
12.46911757247444
 20
13.08477020585094
 30
0.0
 40
1.125
100
AcDbArc
 50
0.0
 51
93.17983011986414
  0
ARC
  5
180
330
2
100
AcDbEntity
  8
0
100
AcDbCircle
 10
12.34411757247444
 20
15.33477020585094
 30
0.0
 40
1.125
100
AcDbArc
 50
180.0000041869205
 51
273.1689369195045
  0
LINE
  5
181
330
2
100
AcDbEntity
  8
0
100
AcDbLine
 10
11.21911757247444
 20
15.33477020585094
 30
0.0
 11
11.21911757247444
 21
15.64727020585094
 31
0.0
  0
CIRCLE
  5
182
330
2
100
AcDbEntity
  8
0
100
AcDbCircle
 10
11.90661757247445
 20
14.89727020585094
 30
0.0
 40
0.0859375
  0
LINE
  5
183
330
2
100
AcDbEntity
  8
0
100
AcDbLine
 10
15.56285898666811
 20
12.07723702397842
 30
0.0
 11
15.5628589866681
 21
8.851270205850952
 31
0.0
  0
LINE
  5
184
330
2
100
AcDbEntity
  8
0
100
AcDbLine
 10
16.53161757247445
 20
15.64727020585094
 30
0.0
 11
16.53161757247445
 21
8.851270205850941
 31
0.0
  0
LINE
  5
185
330
2
100
AcDbEntity
  8
0
100
AcDbLine
 10
13.56286757247444
 20
11.9759655664298
 30
0.0
 11
13.56286757247444
 21
8.601270205850948
 31
0.0
  0
LINE
  5
186
330
2
100
AcDbEntity
  8
0
100
AcDbLine
 10
13.51686757247445
 20
11.97627020585095
 30
0.0
 11
13.51686757247445
 21
8.601270205850948
 31
0.0
  0
LINE
  5
187
330
2
100
AcDbEntity
  8
0
100
AcDbLine
 10
16.53161757247445
 20
8.851270205850941
 30
0.0
 11
16.28161757247445
 21
8.601270205850941
 31
0.0
  0
LINE
  5
188
330
2
100
AcDbEntity
  8
0
100
AcDbLine
 10
16.28161757247445
 20
8.601270205850941
 30
0.0
 11
13.51686757247445
 21
8.601270205850948
 31
0.0
  0
LINE
  5
189
330
2
100
AcDbEntity
  8
0
100
AcDbLine
 10
15.3128589866681
 20
8.601270205850952
 30
0.0
 11
15.5628589866681
 21
8.851270205850952
 31
0.0
  0
CIRCLE
  5
18A
330
2
100
AcDbEntity
  8
0
100
AcDbCircle
 10
15.1878589866681
 20
8.976270205850945
 30
0.0
 40
0.0859375
  0
CIRCLE
  5
18B
330
2
100
AcDbEntity
  8
0
100
AcDbCircle
 10
16.15661757247445
 20
9.022270205850941
 30
0.0
 40
0.0859375
  0
CIRCLE
  5
18C
330
2
100
AcDbEntity
  8
0
100
AcDbCircle
 10
15.0628589866681
 20
10.97627020585095
 30
0.0
 40
0.0859375
  0
CIRCLE
  5
18D
330
2
100
AcDbEntity
  8
0
100
AcDbCircle
 10
15.90661757247444
 20
11.14727020585094
 30
0.0
 40
0.0859375
  0
LINE
  5
18E
330
2
100
AcDbEntity
  8
0
100
AcDbLine
 10
16.53161757247445
 20
15.64727020585094
 30
0.0
 11
13.61248630566386
 21
15.64727020585094
 31
0.0
  0
LINE
  5
18F
330
2
100
AcDbEntity
  8
0
100
AcDbLine
 10
16.53161757247445
 20
15.60127020585094
 30
0.0
 11
13.61248630566386
 21
15.60127020585094
 31
0.0
  0
LINE
  5
190
330
2
100
AcDbEntity
  8
0
100
AcDbLine
 10
13.56648630566386
 20
14.08477020585095
 30
0.0
 11
13.56648630566386
 21
15.55527020585095
 31
0.0
  0
LINE
  5
191
330
2
100
AcDbEntity
  8
0
100
AcDbLine
 10
13.52048630566386
 20
14.08477020585095
 30
0.0
 11
13.52048630566386
 21
15.55527020585094
 31
0.0
  0
LINE
  5
192
330
2
100
AcDbEntity
  8
0
100
AcDbLine
 10
13.62380982912906
 20
12.03123702397842
 30
0.0
 11
15.5628589866681
 21
12.03123702397842
 31
0.0
  0
LINE
  5
193
330
2
100
AcDbEntity
  8
0
100
AcDbLine
 10
13.62251338794466
 20
12.07723702397842
 30
0.0
 11
15.5628589866681
 21
12.07723702397842
 31
0.0
  0
LINE
  5
194
330
2
100
AcDbEntity
  8
0
100
AcDbLine
 10
13.61248630566386
 20
14.03877020585095
 30
0.0
 11
15.56285898666811
 21
14.03877020585095
 31
0.0
  0
LINE
  5
195
330
2
100
AcDbEntity
  8
0
100
AcDbLine
 10
13.61248630566386
 20
13.99277020585095
 30
0.0
 11
15.56285898666811
 21
13.99277020585095
 31
0.0
  0
LINE
  5
196
330
2
100
AcDbEntity
  8
0
100
AcDbLine
 10
13.87535898666811
 20
12.17747641175793
 30
0.0
 11
15.5628589866681
 21
12.17747641175792
 31
0.0
  0
LINE
  5
197
330
2
100
AcDbEntity
  8
0
100
AcDbLine
 10
13.6253589866681
 20
11.97627020585095
 30
0.0
 11
13.59411757247444
 21
13.08477020585094
 31
0.0
  0
LINE
  5
198
330
2
100
AcDbEntity
  8
0
100
AcDbLine
 10
13.62535898666811
 20
13.99277020585095
 30
0.0
 11
13.62535898666811
 21
12.42747641175793
 31
0.0
  0
ARC
  5
199
330
2
100
AcDbEntity
  8
0
100
AcDbCircle
 10
13.87535898666811
 20
12.42747641175793
 30
0.0
 40
0.25
100
AcDbArc
 50
180.0
 51
270.0
  0
LINE
  5
19A
330
2
100
AcDbEntity
  8
0
100
AcDbLine
 10
13.51686757247445
 20
11.97627020585095
 30
0.0
 11
13.6253589866681
 21
11.97627020585095
 31
0.0
  0
LINE
  5
19B
330
2
100
AcDbEntity
  8
0
100
AcDbLine
 10
13.5333589866681
 20
11.97627020585095
 30
0.0
 11
13.6253589866681
 21
11.97627020585095
 31
0.0
  0
ARC
  5
19C
330
2
100
AcDbEntity
  8
0
100
AcDbCircle
 10
13.61248630566386
 20
14.08477020585095
 30
0.0
 40
0.092
100
AcDbArc
 50
179.9999999999999
 51
270.0
  0
ARC
  5
19D
330
2
100
AcDbEntity
  8
0
100
AcDbCircle
 10
13.61248630566386
 20
14.08477020585095
 30
0.0
 40
0.046
100
AcDbArc
 50
179.9999999999997
 51
270.0
  0
CIRCLE
  5
19E
330
2
100
AcDbEntity
  8
0
100
AcDbCircle
 10
14.3753589866681
 20
13.36497641175792
 30
0.0
 40
0.0859375
  0
CIRCLE
  5
19F
330
2
100
AcDbEntity
  8
0
100
AcDbCircle
 10
16.1583746075133
 20
13.02227020585094
 30
0.0
 40
0.0859375
  0
LINE
  5
1A0
330
2
100
AcDbEntity
  8
0
100
AcDbLine
 10
15.56285898666811
 20
14.03877020585095
 30
0.0
 11
15.5628589866681
 21
12.17747641175792
 31
0.0
  0
CIRCLE
  5
1A1
330
2
100
AcDbEntity
  8
0
100
AcDbCircle
 10
15.1253589866681
 20
12.61497641175792
 30
0.0
 40
0.1015625
  0
CIRCLE
  5
1A2
330
2
100
AcDbEntity
  8
0
100
AcDbCircle
 10
13.65661757247445
 20
14.89727020585094
 30
0.0
 40
0.0859375
  0
ARC
  5
1A3
330
2
100
AcDbEntity
  8
0
100
AcDbCircle
 10
13.61248630566386
 20
15.55527020585094
 30
0.0
 40
0.092
100
AcDbArc
 50
90.0
 51
179.9999999999999
  0
ARC
  5
1A4
330
2
100
AcDbEntity
  8
0
100
AcDbCircle
 10
13.61248630566386
 20
15.55527020585095
 30
0.0
 40
0.046
100
AcDbArc
 50
90.0
 51
179.9999999999999
  0
CIRCLE
  5
1A5
330
2
100
AcDbEntity
  8
0
100
AcDbCircle
 10
15.91876931228074
 20
14.89727020585094
 30
0.0
 40
0.0859375
  0
LINE
  5
1A6
330
2
100
AcDbEntity
  8
0
100
AcDbLine
 10
15.56285898666811
 20
15.015114041795
 30
0.0
 11
15.56285898666811
 21
14.943114041795
 31
0.0
  0
LINE
  5
1A7
330
2
100
AcDbEntity
  8
0
100
AcDbLine
 10
15.56285898666811
 20
15.61525753097352
 30
0.0
 11
15.56285898666811
 21
15.54325753097352
 31
0.0
  0
ENDSEC
  0
SECTION
  2
OBJECTS
  0
DICTIONARY
  5
9
330
0
100
AcDbDictionary
281
     1
  3
ACAD_COLOR
350
1AB
  3
ACAD_GROUP
350
23
  3
ACAD_LAYOUT
350
D
  3
ACAD_MATERIAL
350
1AA
  3
ACAD_MLINESTYLE
350
24
  3
ACAD_PLOTSETTINGS
350
25
  3
ACAD_PLOTSTYLENAME
350
8
  3
ACAD_TABLESTYLE
350
1AC
  3
ACDBHEADERROUNDTRIPXREC
350
1B9
  3
AcDbVariableDictionary
350
F8
  0
DICTIONARY
  5
1AB
102
{ACAD_REACTORS
330
9
102
}
330
9
100
AcDbDictionary
281
     1
  0
DICTIONARY
  5
23
102
{ACAD_REACTORS
330
9
102
}
330
9
100
AcDbDictionary
281
     1
  0
DICTIONARY
  5
D
102
{ACAD_REACTORS
330
9
102
}
330
9
100
AcDbDictionary
281
     1
  3
Layout1
350
13
  3
Model
350
C
  0
DICTIONARY
  5
1AA
102
{ACAD_REACTORS
330
9
102
}
330
9
100
AcDbDictionary
281
     1
  0
DICTIONARY
  5
24
102
{ACAD_REACTORS
330
9
102
}
330
9
100
AcDbDictionary
281
     1
  3
Standard
350
27
  0
DICTIONARY
  5
25
102
{ACAD_REACTORS
330
9
102
}
330
9
100
AcDbDictionary
281
     1
  0
ACDBDICTIONARYWDFLT
  5
8
102
{ACAD_REACTORS
330
9
102
}
330
9
100
AcDbDictionary
281
     1
  3
Normal
350
7
100
AcDbDictionaryWithDefault
340
7
  0
DICTIONARY
  5
1AC
102
{ACAD_REACTORS
330
9
102
}
330
9
100
AcDbDictionary
281
     1
  3
Standard
350
1AD
  0
DICTIONARY
  5
1B9
102
{ACAD_REACTORS
330
9
102
}
330
9
100
AcDbDictionary
281
     1
  3
COLORDICT
350
1BA
  3
MATERIALDICT
350
1BB
  0
DICTIONARY
  5
F8
102
{ACAD_REACTORS
330
9
102
}
330
9
100
AcDbDictionary
281
     1
  3
CTABLESTYLE
350
1B6
  3
HIDETEXT
350
1B8
  0
LAYOUT
  5
13
102
{ACAD_REACTORS
330
D
102
}
102
{ACAD_XDICTIONARY
360
1BC
102
}
330
D
100
AcDbPlotSettings
  1

  2
HP LaserJet 2100 Series PS
  4

  6

 40
0.0
 41
0.0
 42
0.0
 43
0.0
 44
0.0
 45
0.0
 46
0.0
 47
0.0
 48
0.0
 49
0.0
140
0.0
141
0.0
142
1.0
143
1.0
 70
   688
 72
     0
 73
     0
 74
     5
  7

 75
    16
147
1.0
148
0.0
149
0.0
100
AcDbLayout
  1
Layout1
 70
     0
 71
     1
 10
0.0
 20
0.0
 11
12.0
 21
9.0
 12
0.0
 22
0.0
 32
0.0
 14
1.000000000000000E+20
 24
1.000000000000000E+20
 34
1.000000000000000E+20
 15
-1.000000000000000E+20
 25
-1.000000000000000E+20
 35
-1.000000000000000E+20
146
0.0
 13
0.0
 23
0.0
 33
0.0
 16
1.0
 26
0.0
 36
0.0
 17
0.0
 27
1.0
 37
0.0
 76
     0
330
E
  0
LAYOUT
  5
C
102
{ACAD_REACTORS
330
D
102
}
102
{ACAD_XDICTIONARY
360
1BE
102
}
330
D
100
AcDbPlotSettings
  1

  2
HP LaserJet 2100 Series PS
  4
Letter
  6

 40
5.365749835968018
 41
5.408073902130127
 42
5.132904052734375
 43
5.090576171875
 44
215.8999938964844
 45
279.3999938964844
 46
0.0
 47
0.0
 48
0.0
 49
0.0
140
0.0
141
0.0
142
1.0
143
1.0
 70
 11952
 72
     0
 73
     1
 74
     0
  7

 75
     0
147
1.0
148
-67.39115001262596
149
8.825129660318046
100
AcDbLayout
  1
Model
 70
     1
 71
     0
 10
0.0
 20
0.0
 11
12.0
 21
9.0
 12
0.0
 22
0.0
 32
0.0
 14
0.0
 24
0.0
 34
0.0
 15
0.0
 25
0.0
 35
0.0
146
0.0
 13
0.0
 23
0.0
 33
0.0
 16
1.0
 26
0.0
 36
0.0
 17
0.0
 27
1.0
 37
0.0
 76
     0
330
2
  0
MLINESTYLE
  5
27
102
{ACAD_REACTORS
330
24
102
}
330
24
100
AcDbMlineStyle
  2
STANDARD
 70
     0
  3

 62
   256
 51
90.0
 52
90.0
 71
     2
 49
0.5
 62
   256
  6
BYLAYER
 49
-0.5
 62
   256
  6
BYLAYER
  0
ACDBPLACEHOLDER
  5
7
102
{ACAD_REACTORS
330
8
102
}
330
8
  0
ACAD_PROXY_OBJECT
  5
1AD
102
{ACAD_REACTORS
330
1AC
102
}
330
1AC
100
AcDbProxyObject
 90
      499
 91
      512
 95
   983063
 70
     0
 93
     1841
310
4214DD185B99185C9928B81E85EB51B8AE3F2E07A17AD46E2B8FC02B5E8DC0F42B1CFD028000000C1008070000C3001FDFF8000000C1003FBFF000000182007F7FE00000030400FEFFC00000060801FDFF8000000C1003FBFF00000018200000000000000681FA0B0000001820100E000186003FBFF000000182007F7FE000
310
00030400FEFFC00000060801FDFF8000000C1003FBFF000000182007F7FE000000304000AD7A3703D0AC73F4160000003040201C00030C007F7FE00000030400FEFFC00000060801FDFF8000000C1003FBFF000000182007F7FE00000030400FEFFC000000608000
340
16
340
16
340
16
 94
        0
  0
XRECORD
  5
1BA
102
{ACAD_REACTORS
330
1B9
102
}
330
1B9
100
AcDbXrecord
340
1AB
  0
XRECORD
  5
1BB
102
{ACAD_REACTORS
330
1B9
102
}
330
1B9
100
AcDbXrecord
340
1AA
  0
DICTIONARYVAR
  5
1B6
102
{ACAD_REACTORS
330
F8
102
}
330
F8
100
DictionaryVariables
280
     0
  1
STANDARD
  0
DICTIONARYVAR
  5
1B8
102
{ACAD_REACTORS
330
F8
102
}
330
F8
100
DictionaryVariables
280
     0
  1
0
  0
DICTIONARY
  5
1BC
330
13
100
AcDbDictionary
280
     1
281
     1
  3
ACAD_XREC_ROUNDTRIP
360
1BD
  0
DICTIONARY
  5
1BE
330
C
100
AcDbDictionary
280
     1
281
     1
  3
ACAD_XREC_ROUNDTRIP
360
1BF
  0
XRECORD
  5
1BD
102
{ACAD_REACTORS
330
1BC
102
}
330
1BC
100
AcDbXrecord
102
SHADEPLOT
 70
     0
102
SHADEPLOTRESLEVEL
 70
     2
102
SHADEPLOTCUSTOMDPI
 70
   300
  0
XRECORD
  5
1BF
102
{ACAD_REACTORS
330
1BE
102
}
330
1BE
100
AcDbXrecord
102
SHADEPLOT
 70
     0
102
SHADEPLOTRESLEVEL
 70
     2
102
SHADEPLOTCUSTOMDPI
 70
   300
  0
ENDSEC
  0
EOF
