  0
SECTION
  2
HEADER
  9
$ACADVER
  1
AC1015
  9
$ACADMAINTVER
 70
    20
  9
$DWGCODEPAGE
  3
ANSI_1252
  9
$INSBASE
 10
0.0
 20
0.0
 30
0.0
  9
$EXTMIN
 10
-1.176308442269705
 20
-0.0000000000000004
 30
0.0
  9
$EXTMAX
 10
1.176308442269705
 20
7.93749999999998
 30
0.0
  9
$LIMMIN
 10
0.0
 20
0.0
  9
$LIMMAX
 10
32.0
 20
42.0
  9
$ORTHOMODE
 70
     1
  9
$REGENMODE
 70
     1
  9
$FILLMODE
 70
     1
  9
$QTEXTMODE
 70
     0
  9
$MIRRTEXT
 70
     0
  9
$LTSCALE
 40
0.5
  9
$ATTMODE
 70
     1
  9
$TEXTSIZE
 40
0.36
  9
$TRACEWID
 40
0.05
  9
$TEXTSTYLE
  7
STANDARD
  9
$CLAYER
  8
0
  9
$CELTYPE
  6
BYLAYER
  9
$CECOLOR
 62
   256
  9
$CELTSCALE
 40
1.0
  9
$DISPSILH
 70
     0
  9
$DIMSCALE
 40
4.0
  9
$DIMASZ
 40
0.1
  9
$DIMEXO
 40
0.062
  9
$DIMDLI
 40
0.375
  9
$DIMRND
 40
0.0
  9
$DIMDLE
 40
0.0
  9
$DIMEXE
 40
0.08
  9
$DIMTP
 40
0.0
  9
$DIMTM
 40
0.0
  9
$DIMTXT
 40
0.075
  9
$DIMCEN
 40
-0.0078125
  9
$DIMTSZ
 40
0.0
  9
$DIMTOL
 70
     0
  9
$DIMLIM
 70
     0
  9
$DIMTIH
 70
     1
  9
$DIMTOH
 70
     1
  9
$DIMSE1
 70
     0
  9
$DIMSE2
 70
     0
  9
$DIMTAD
 70
     0
  9
$DIMZIN
 70
     0
  9
$DIMBLK
  1

  9
$DIMASO
 70
     0
  9
$DIMSHO
 70
     0
  9
$DIMPOST
  1

  9
$DIMAPOST
  1

  9
$DIMALT
 70
     0
  9
$DIMALTD
 70
     2
  9
$DIMALTF
 40
25.4
  9
$DIMLFAC
 40
1.0
  9
$DIMTOFL
 70
     0
  9
$DIMTVP
 40
0.0
  9
$DIMTIX
 70
     0
  9
$DIMSOXD
 70
     0
  9
$DIMSAH
 70
     0
  9
$DIMBLK1
  1

  9
$DIMBLK2
  1

  9
$DIMSTYLE
  2
STANDARD
  9
$DIMCLRD
 70
     0
  9
$DIMCLRE
 70
     0
  9
$DIMCLRT
 70
     0
  9
$DIMTFAC
 40
1.0
  9
$DIMGAP
 40
0.09
  9
$DIMJUST
 70
     0
  9
$DIMSD1
 70
     0
  9
$DIMSD2
 70
     0
  9
$DIMTOLJ
 70
     1
  9
$DIMTZIN
 70
     0
  9
$DIMALTZ
 70
     0
  9
$DIMALTTZ
 70
     0
  9
$DIMUPT
 70
     0
  9
$DIMDEC
 70
     5
  9
$DIMTDEC
 70
     5
  9
$DIMALTU
 70
     2
  9
$DIMALTTD
 70
     2
  9
$DIMTXSTY
  7
STANDARD
  9
$DIMAUNIT
 70
     0
  9
$DIMADEC
 70
     0
  9
$DIMALTRND
 40
0.0
  9
$DIMAZIN
 70
     0
  9
$DIMDSEP
 70
    46
  9
$DIMATFIT
 70
     3
  9
$DIMFRAC
 70
     2
  9
$DIMLDRBLK
  1

  9
$DIMLUNIT
 70
     5
  9
$DIMLWD
 70
    -2
  9
$DIMLWE
 70
    -2
  9
$DIMTMOVE
 70
     2
  9
$LUNITS
 70
     2
  9
$LUPREC
 70
     4
  9
$SKETCHINC
 40
0.1
  9
$FILLETRAD
 40
0.0
  9
$AUNITS
 70
     0
  9
$AUPREC
 70
     0
  9
$MENU
  1
qa
  9
$ELEVATION
 40
0.0
  9
$PELEVATION
 40
0.0
  9
$THICKNESS
 40
0.0
  9
$LIMCHECK
 70
     0
  9
$CHAMFERA
 40
0.4375
  9
$CHAMFERB
 40
0.4375
  9
$CHAMFERC
 40
0.0
  9
$CHAMFERD
 40
0.0
  9
$SKPOLY
 70
     0
  9
$TDCREATE
 40
2452872.401862616
  9
$TDUCREATE
 40
2452872.693529283
  9
$TDUPDATE
 40
2454579.502205636
  9
$TDUUPDATE
 40
2454579.793872304
  9
$TDINDWG
 40
0.6917154861
  9
$TDUSRTIMER
 40
0.6917154861
  9
$USRTIMER
 70
     1
  9
$ANGBASE
 50
0.0
  9
$ANGDIR
 70
     0
  9
$PDMODE
 70
     0
  9
$PDSIZE
 40
0.0
  9
$PLINEWID
 40
0.0
  9
$SPLFRAME
 70
     0
  9
$SPLINETYPE
 70
     6
  9
$SPLINESEGS
 70
     8
  9
$HANDSEED
  5
4093
  9
$SURFTAB1
 70
     6
  9
$SURFTAB2
 70
     6
  9
$SURFTYPE
 70
     6
  9
$SURFU
 70
     6
  9
$SURFV
 70
     6
  9
$UCSBASE
  2

  9
$UCSNAME
  2

  9
$UCSORG
 10
0.0
 20
0.0
 30
0.0
  9
$UCSXDIR
 10
1.0
 20
0.0
 30
0.0
  9
$UCSYDIR
 10
0.0
 20
1.0
 30
0.0
  9
$UCSORTHOREF
  2

  9
$UCSORTHOVIEW
 70
     0
  9
$UCSORGTOP
 10
0.0
 20
0.0
 30
0.0
  9
$UCSORGBOTTOM
 10
0.0
 20
0.0
 30
0.0
  9
$UCSORGLEFT
 10
0.0
 20
0.0
 30
0.0
  9
$UCSORGRIGHT
 10
0.0
 20
0.0
 30
0.0
  9
$UCSORGFRONT
 10
0.0
 20
0.0
 30
0.0
  9
$UCSORGBACK
 10
0.0
 20
0.0
 30
0.0
  9
$PUCSBASE
  2

  9
$PUCSNAME
  2

  9
$PUCSORG
 10
0.0
 20
0.0
 30
0.0
  9
$PUCSXDIR
 10
1.0
 20
0.0
 30
0.0
  9
$PUCSYDIR
 10
0.0
 20
1.0
 30
0.0
  9
$PUCSORTHOREF
  2

  9
$PUCSORTHOVIEW
 70
     0
  9
$PUCSORGTOP
 10
0.0
 20
0.0
 30
0.0
  9
$PUCSORGBOTTOM
 10
0.0
 20
0.0
 30
0.0
  9
$PUCSORGLEFT
 10
0.0
 20
0.0
 30
0.0
  9
$PUCSORGRIGHT
 10
0.0
 20
0.0
 30
0.0
  9
$PUCSORGFRONT
 10
0.0
 20
0.0
 30
0.0
  9
$PUCSORGBACK
 10
0.0
 20
0.0
 30
0.0
  9
$USERI1
 70
     0
  9
$USERI2
 70
     0
  9
$USERI3
 70
     0
  9
$USERI4
 70
     0
  9
$USERI5
 70
     0
  9
$USERR1
 40
0.0
  9
$USERR2
 40
0.0
  9
$USERR3
 40
0.0
  9
$USERR4
 40
0.0
  9
$USERR5
 40
0.0
  9
$WORLDVIEW
 70
     1
  9
$SHADEDGE
 70
     3
  9
$SHADEDIF
 70
    70
  9
$TILEMODE
 70
     1
  9
$MAXACTVP
 70
    16
  9
$PINSBASE
 10
0.0
 20
0.0
 30
0.0
  9
$PLIMCHECK
 70
     0
  9
$PEXTMIN
 10
1.000000000000000E+20
 20
1.000000000000000E+20
 30
1.000000000000000E+20
  9
$PEXTMAX
 10
-1.000000000000000E+20
 20
-1.000000000000000E+20
 30
-1.000000000000000E+20
  9
$PLIMMIN
 10
0.0
 20
0.0
  9
$PLIMMAX
 10
12.0
 20
9.0
  9
$UNITMODE
 70
     0
  9
$VISRETAIN
 70
     0
  9
$PLINEGEN
 70
     0
  9
$PSLTSCALE
 70
     0
  9
$TREEDEPTH
 70
  3020
  9
$CMLSTYLE
  2
STANDARD
  9
$CMLJUST
 70
     0
  9
$CMLSCALE
 40
1.0
  9
$PROXYGRAPHICS
 70
     1
  9
$MEASUREMENT
 70
     0
  9
$CELWEIGHT
370
    -1
  9
$ENDCAPS
280
     0
  9
$JOINSTYLE
280
     0
  9
$LWDISPLAY
290
     0
  9
$INSUNITS
 70
     0
  9
$HYPERLINKBASE
  1

  9
$STYLESHEET
  1
monochrome.ctb
  9
$XEDIT
290
     1
  9
$CEPSNTYPE
380
     0
  9
$PSTYLEMODE
290
     1
  9
$FINGERPRINTGUID
  2
{3F8EE252-4A01-453C-A5F5-5678F9528411}
  9
$VERSIONGUID
  2
{4C126C44-E9EA-4BAE-973B-0B4B7DFB2806}
  9
$EXTNAMES
290
     1
  9
$PSVPSCALE
 40
0.0
  9
$OLESTARTUP
290
     0
  0
ENDSEC
  0
SECTION
  2
CLASSES
  0
CLASS
  1
DICTIONARYVAR
  2
AcDbDictionaryVar
  3
ObjectDBX Classes
 90
        0
280
     0
281
     0
  0
CLASS
  1
ACDBDICTIONARYWDFLT
  2
AcDbDictionaryWithDefault
  3
ObjectDBX Classes
 90
        0
280
     0
281
     0
  0
CLASS
  1
ACDBPLACEHOLDER
  2
AcDbPlaceHolder
  3
ObjectDBX Classes
 90
        0
280
     0
281
     0
  0
CLASS
  1
LAYOUT
  2
AcDbLayout
  3
ObjectDBX Classes
 90
        0
280
     0
281
     0
  0
CLASS
  1
TABLESTYLE
  2
AcDbTableStyle
  3
ObjectDBX Classes
 90
     2047
280
     0
281
     0
  0
CLASS
  1
SORTENTSTABLE
  2
AcDbSortentsTable
  3
ObjectDBX Classes
 90
        0
280
     0
281
     0
  0
ENDSEC
  0
SECTION
  2
TABLES
  0
TABLE
  2
VPORT
  5
8
330
0
100
AcDbSymbolTable
 70
     2
  0
VPORT
  5
408D
330
8
100
AcDbSymbolTableRecord
100
AcDbViewportTableRecord
  2
*Active
 70
     0
 10
0.0
 20
0.0
 11
1.0
 21
1.0
 12
2.797011183235422
 22
7.125970908737752
 13
0.0
 23
0.0
 14
0.063
 24
0.063
 15
0.25
 25
0.25
 16
0.0
 26
0.0
 36
1.0
 17
0.0
 27
0.0
 37
0.0
 40
20.99117376793114
 41
1.760162601626016
 42
50.0
 43
0.0
 44
0.0
 50
0.0
 51
0.0
 71
     0
 72
   100
 73
     1
 74
     0
 75
     0
 76
     0
 77
     0
 78
     0
281
     0
 65
     1
110
0.0
120
0.0
130
0.0
111
1.0
121
0.0
131
0.0
112
0.0
122
1.0
132
0.0
 79
     0
146
0.0
  0
ENDTAB
  0
TABLE
  2
LTYPE
  5
5
330
0
100
AcDbSymbolTable
 70
     3
  0
LTYPE
  5
11
330
5
100
AcDbSymbolTableRecord
100
AcDbLinetypeTableRecord
  2
BYBLOCK
 70
     0
  3

 72
    65
 73
     0
 40
0.0
  0
LTYPE
  5
12
330
5
100
AcDbSymbolTableRecord
100
AcDbLinetypeTableRecord
  2
BYLAYER
 70
     0
  3

 72
    65
 73
     0
 40
0.0
  0
LTYPE
  5
13
330
5
100
AcDbSymbolTableRecord
100
AcDbLinetypeTableRecord
  2
CONTINUOUS
 70
     0
  3
Solid line
 72
    65
 73
     0
 40
0.0
  0
LTYPE
  5
2B
330
5
100
AcDbSymbolTableRecord
100
AcDbLinetypeTableRecord
  2
HIDDEN
 70
     0
  3
_ _ _ _ _ _ _ _ _ _ _ _ _ _ _ _ _ _ _ _ _ _ _
 72
    65
 73
     2
 40
0.375
 49
0.25
 74
     0
 49
-0.125
 74
     0
  0
LTYPE
  5
343F
330
5
100
AcDbSymbolTableRecord
100
AcDbLinetypeTableRecord
  2
THD
 70
     0
  3
_ _ _ _ _ _ _ _ _ _ _ _ _ _ _ _ _ _ _ _ _ _ _ _
 72
    65
 73
     2
 40
0.15
 49
0.11
 74
     0
 49
-0.04
 74
     0
  0
ENDTAB
  0
TABLE
  2
LAYER
  5
2
102
{ACAD_XDICTIONARY
360
2ABF
102
}
330
0
100
AcDbSymbolTable
 70
     3
  0
LAYER
  5
E
330
2
100
AcDbSymbolTableRecord
100
AcDbLayerTableRecord
  2
0
 70
     0
 62
     7
  6
CONTINUOUS
370
    -3
390
47A
  0
LAYER
  5
37
330
2
100
AcDbSymbolTableRecord
100
AcDbLayerTableRecord
  2
DIM
 70
     0
 62
     5
  6
CONTINUOUS
370
    -3
390
47A
  0
LAYER
  5
2DFD
330
2
100
AcDbSymbolTableRecord
100
AcDbLayerTableRecord
  2
Defpoints
 70
     0
 62
     7
  6
CONTINUOUS
290
     0
370
    -3
390
47A
  0
ENDTAB
  0
TABLE
  2
STYLE
  5
3
330
0
100
AcDbSymbolTable
 70
     1
  0
STYLE
  5
F
330
3
100
AcDbSymbolTableRecord
100
AcDbTextStyleTableRecord
  2
STANDARD
 70
     0
 40
0.0
 41
1.0
 50
0.0
 71
     0
 42
0.36
  3
TXT
  4

  0
ENDTAB
  0
TABLE
  2
VIEW
  5
6
330
0
100
AcDbSymbolTable
 70
     0
  0
ENDTAB
  0
TABLE
  2
UCS
  5
7
330
0
100
AcDbSymbolTable
 70
     0
  0
ENDTAB
  0
TABLE
  2
APPID
  5
9
330
0
100
AcDbSymbolTable
 70
     5
  0
APPID
  5
10
330
9
100
AcDbSymbolTableRecord
100
AcDbRegAppTableRecord
  2
ACAD
 70
     0
  0
APPID
  5
DA7
330
9
100
AcDbSymbolTableRecord
100
AcDbRegAppTableRecord
  2
RAK
 70
     0
  0
APPID
  5
2C62
330
9
100
AcDbSymbolTableRecord
100
AcDbRegAppTableRecord
  2
ACAD_PSEXT
 70
     0
  0
APPID
  5
2C6B
330
9
100
AcDbSymbolTableRecord
100
AcDbRegAppTableRecord
  2
ACAD_DSTYLE_DIMTEXT_FILL
 70
     0
  0
APPID
  5
3435
330
9
100
AcDbSymbolTableRecord
100
AcDbRegAppTableRecord
  2
CONTENTBLOCKICON
 70
     0
  0
ENDTAB
  0
TABLE
  2
DIMSTYLE
  5
A
330
0
100
AcDbSymbolTable
 70
     1
100
AcDbDimStyleTable
 71
     1
340
465
  0
DIMSTYLE
105
465
330
A
100
AcDbSymbolTableRecord
100
AcDbDimStyleTableRecord
  2
STANDARD
 70
     0
340
F
  0
ENDTAB
  0
TABLE
  2
BLOCK_RECORD
  5
1
330
0
100
AcDbSymbolTable
 70
     0
  0
BLOCK_RECORD
  5
17
102
{ACAD_XDICTIONARY
360
7D0
102
}
330
1
100
AcDbSymbolTableRecord
100
AcDbBlockTableRecord
  2
*MODEL_SPACE
340
47D
  0
BLOCK_RECORD
  5
14
102
{ACAD_XDICTIONARY
360
7CE
102
}
330
1
100
AcDbSymbolTableRecord
100
AcDbBlockTableRecord
  2
*PAPER_SPACE
340
47E
  0
ENDTAB
  0
ENDSEC
  0
SECTION
  2
BLOCKS
  0
BLOCK
  5
47
330
17
100
AcDbEntity
  8
0
100
AcDbBlockBegin
  2
*MODEL_SPACE
 70
     0
 10
0.0
 20
0.0
 30
0.0
  3
*MODEL_SPACE
  1

  0
ENDBLK
  5
48
330
17
100
AcDbEntity
  8
0
100
AcDbBlockEnd
  0
BLOCK
  5
45
330
14
100
AcDbEntity
 67
     1
  8
0
100
AcDbBlockBegin
  2
*PAPER_SPACE
 70
     0
 10
0.0
 20
0.0
 30
0.0
  3
*PAPER_SPACE
  1

  0
ENDBLK
  5
46
330
14
100
AcDbEntity
 67
     1
  8
0
100
AcDbBlockEnd
  0
ENDSEC
  0
SECTION
  2
ENTITIES
  0
TEXT
  5
3A7
330
17
100
AcDbEntity
  8
DIM
100
AcDbText
 10
14.93846334400804
 20
21.0944638759405
 30
0.0
 40
0.36
  1
   
 50
359.9999999999988
 11
14.93846334400805
 21
21.2744638759405
 31
0.0
100
AcDbText
 73
     2
  0
TEXT
  5
400
330
17
100
AcDbEntity
  8
DIM
100
AcDbText
 10
13.55232669162668
 20
10.34149078419336
 30
0.0
 40
0.36
  1
   
 72
     1
 11
14.09232669162668
 21
10.52149078419336
 31
0.0
100
AcDbText
 73
     2
  0
LINE
  5
3977
330
17
100
AcDbEntity
  8
0
100
AcDbLine
 10
-1.03125
 20
1.166249999999971
 30
0.0
 11
1.03125
 21
1.166249999999971
 31
0.0
  0
LINE
  5
3978
330
17
100
AcDbEntity
  8
0
100
AcDbLine
 10
-0.971995370359366
 20
0.9312499999999861
 30
0.0
 11
0.971995370359366
 21
0.9312499999999861
 31
0.0
  0
LINE
  5
3979
330
17
100
AcDbEntity
  8
0
100
AcDbLine
 10
-0.46875
 20
0.9312499999999577
 30
0.0
 11
-0.46875
 21
1.166249999999971
 31
0.0
  0
LINE
  5
397A
330
17
100
AcDbEntity
  8
0
100
AcDbLine
 10
0.46875
 20
0.9312499999999577
 30
0.0
 11
0.46875
 21
1.166249999999971
 31
0.0
  0
LINE
  5
3A7F
330
17
100
AcDbEntity
  8
0
100
AcDbLine
 10
-1.031250000000007
 20
7.937499999999916
 30
0.0
 11
-1.03125
 21
1.166249999999999
 31
0.0
  0
LINE
  5
3A80
330
17
100
AcDbEntity
  8
0
100
AcDbLine
 10
-1.166250000000005
 20
7.937499999999916
 30
0.0
 11
-1.166249999999999
 21
1.166249999999999
 31
0.0
  0
LINE
  5
3A81
330
17
100
AcDbEntity
  8
0
100
AcDbLine
 10
1.031250000000056
 20
7.937499999999916
 30
0.0
 11
1.03125
 21
1.166249999999999
 31
0.0
  0
LINE
  5
3A82
330
17
100
AcDbEntity
  8
0
100
AcDbLine
 10
1.166250000000047
 20
7.937499999999916
 30
0.0
 11
1.166249999999999
 21
1.166249999999999
 31
0.0
  0
ARC
  5
3A83
330
17
100
AcDbEntity
  8
0
100
AcDbCircle
 10
0.0
 20
1.166249999999999
 30
0.0
 40
1.03125
100
AcDbArc
 50
180.0
 51
0.0
  0
ARC
  5
3A84
330
17
100
AcDbEntity
  8
0
100
AcDbCircle
 10
0.0
 20
1.166249999999999
 30
0.0
 40
0.3935499999999999
100
AcDbArc
 50
242.1521145270961
 51
269.9999999999992
  0
ARC
  5
3A85
330
17
100
AcDbEntity
  8
0
100
AcDbCircle
 10
0.0
 20
1.166249999999999
 30
0.0
 40
0.3935499999999999
100
AcDbArc
 50
269.9999999999992
 51
297.8478854729035
  0
ARC
  5
3A86
330
17
100
AcDbEntity
  8
0
100
AcDbCircle
 10
0.0
 20
1.166249999999999
 30
0.0
 40
0.6435500000000001
100
AcDbArc
 50
180.0
 51
225.3504016180178
  0
ARC
  5
3A87
330
17
100
AcDbEntity
  8
0
100
AcDbCircle
 10
-0.3644209472917055
 20
0.7973442184308955
 30
0.0
 40
0.125
100
AcDbArc
 50
225.3504016180177
 51
320.05209306109
  0
ARC
  5
3A88
330
17
100
AcDbEntity
  8
0
100
AcDbCircle
 10
0.0
 20
1.166249999999999
 30
0.0
 40
0.6435500000000001
100
AcDbArc
 50
268.2629752123441
 51
271.7370247876555
  0
ARC
  5
3A89
330
17
100
AcDbEntity
  8
0
100
AcDbCircle
 10
0.0189011460430919
 20
0.5429865330952186
 30
0.0
 40
0.02
100
AcDbArc
 50
271.7370247876531
 51
11.19790693890448
  0
ARC
  5
3A8A
330
17
100
AcDbEntity
  8
0
100
AcDbCircle
 10
-0.018901146043099
 20
0.5429865330952186
 30
0.0
 40
0.02
100
AcDbArc
 50
168.8020930610895
 51
268.262975212347
  0
ARC
  5
3A8B
330
17
100
AcDbEntity
  8
0
100
AcDbCircle
 10
0.0
 20
1.166249999999999
 30
0.0
 40
0.6435500000000001
100
AcDbArc
 50
314.6495983819816
 51
0.0
  0
ARC
  5
3A8C
330
17
100
AcDbEntity
  8
0
100
AcDbCircle
 10
0.0
 20
1.166249999999999
 30
0.0
 40
1.16625
100
AcDbArc
 50
180.0
 51
0.0
  0
LINE
  5
3A8D
330
17
100
AcDbEntity
  8
0
100
AcDbLine
 10
-0.4375
 20
7.937499999999916
 30
0.0
 11
-0.4375
 21
7.804903876505962
 31
0.0
  0
ARC
  5
3A8E
330
17
100
AcDbEntity
  8
0
100
AcDbCircle
 10
-0.3125
 20
7.804903876505955
 30
0.0
 40
0.125
100
AcDbArc
 50
179.9999999999967
 51
220.0000000000005
  0
LINE
  5
3A8F
330
17
100
AcDbEntity
  8
0
100
AcDbLine
 10
-0.4082555553898715
 20
7.724555425295138
 30
0.0
 11
0.2832555553898146
 21
6.900444574704751
 31
0.0
  0
ARC
  5
3A90
330
17
100
AcDbEntity
  8
0
100
AcDbCircle
 10
0.1874999999999574
 20
6.820096123493941
 30
0.0
 40
0.1249999999999837
100
AcDbArc
 50
359.9999999999935
 51
40.00000000000186
  0
LINE
  5
3A91
330
17
100
AcDbEntity
  8
0
100
AcDbLine
 10
0.3124999999999432
 20
6.820096123493927
 30
0.0
 11
0.3124999999999147
 21
6.554903876505905
 31
0.0
  0
ARC
  5
3A92
330
17
100
AcDbEntity
  8
0
100
AcDbCircle
 10
0.1874999999999431
 20
6.554903876505884
 30
0.0
 40
0.1249999999999716
100
AcDbArc
 50
320.0000000000147
 51
0.0000000000097707
  0
LINE
  5
3A93
330
17
100
AcDbEntity
  8
0
100
AcDbLine
 10
0.2832555553898146
 20
6.474555425295109
 30
0.0
 11
-0.4082555553898715
 21
5.650444574704694
 31
0.0
  0
ARC
  5
3A94
330
17
100
AcDbEntity
  8
0
100
AcDbCircle
 10
-0.3124999999999929
 20
5.57009612349387
 30
0.0
 40
0.1250000000000091
100
AcDbArc
 50
139.9999999999994
 51
180.0
  0
LINE
  5
3A95
330
17
100
AcDbEntity
  8
0
100
AcDbLine
 10
-0.4375
 20
5.57009612349387
 30
0.0
 11
-0.4375
 21
5.304903876506104
 31
0.0
  0
ARC
  5
3A96
330
17
100
AcDbEntity
  8
0
100
AcDbCircle
 10
-0.3124999999999858
 20
5.304903876506104
 30
0.0
 40
0.1250000000000142
100
AcDbArc
 50
180.0
 51
219.9999999999986
  0
LINE
  5
3A97
330
17
100
AcDbEntity
  8
0
100
AcDbLine
 10
-0.4082555553898715
 20
5.22455542529528
 30
0.0
 11
-0.1794777784405142
 21
4.951908687710131
 31
0.0
  0
ARC
  5
3A98
330
17
100
AcDbEntity
  8
0
100
AcDbCircle
 10
-0.5625000000000142
 20
4.630514882866856
 30
0.0
 40
0.5000000000000066
100
AcDbArc
 50
0.0000000000008142
 51
40.0
  0
LINE
  5
3A99
330
17
100
AcDbEntity
  8
0
100
AcDbLine
 10
-0.0625
 20
4.630514882866863
 30
0.0
 11
-0.0625000000000284
 21
3.367668339265323
 31
0.0
  0
ARC
  5
3A9A
330
17
100
AcDbEntity
  8
0
100
AcDbCircle
 10
-0.5625000000000427
 20
3.367668339265351
 30
0.0
 40
0.5000000000000142
100
AcDbArc
 50
339.9999999999951
 51
359.9999999999968
  0
LINE
  5
3A9B
330
17
100
AcDbEntity
  8
0
100
AcDbLine
 10
-0.09265368960709
 20
3.196658267602474
 30
0.0
 11
-0.613396310392858
 21
1.765929675646022
 31
0.0
  0
ARC
  5
3A9C
330
17
100
AcDbEntity
  8
0
100
AcDbCircle
 10
-0.143549999999891
 20
1.594919603983223
 30
0.0
 40
0.4999999999999999
100
AcDbArc
 50
160.0000000000043
 51
180.000000000004
  0
LINE
  5
3A9D
330
17
100
AcDbEntity
  8
0
100
AcDbLine
 10
-0.6435499999998911
 20
1.594919603983187
 30
0.0
 11
-0.6435499999998911
 21
1.166249999999999
 31
0.0
  0
CIRCLE
  5
3A9E
330
17
100
AcDbEntity
  8
0
100
AcDbCircle
 10
-0.0625000000000569
 20
6.687500000000001
 30
0.0
 40
0.125
  0
CIRCLE
  5
3A9F
330
17
100
AcDbEntity
  8
0
100
AcDbCircle
 10
-0.5625
 20
6.062499999999973
 30
0.0
 40
0.125
  0
CIRCLE
  5
3AA0
330
17
100
AcDbEntity
  8
0
100
AcDbCircle
 10
-0.5625
 20
7.312499999999973
 30
0.0
 40
0.125
  0
LINE
  5
3AA1
330
17
100
AcDbEntity
  8
0
100
AcDbLine
 10
0.6435499999999763
 20
1.166250000000085
 30
0.0
 11
0.6435499999999195
 21
1.594919603983287
 31
0.0
  0
ARC
  5
3AA2
330
17
100
AcDbEntity
  8
0
100
AcDbCircle
 10
0.1435499999999337
 20
1.594919603983194
 30
0.0
 40
0.4999999999999858
100
AcDbArc
 50
0.000000000010992
 51
20.00000000000524
  0
LINE
  5
3AA3
330
17
100
AcDbEntity
  8
0
100
AcDbLine
 10
0.613396310392858
 20
1.765929675646065
 30
0.0
 11
0.0926536896071468
 21
3.196658267602289
 31
0.0
  0
ARC
  5
3AA4
330
17
100
AcDbEntity
  8
0
100
AcDbCircle
 10
0.5625000000000853
 20
3.367668339265167
 30
0.0
 40
0.5
100
AcDbArc
 50
180.0000000000031
 51
200.0000000000052
  0
LINE
  5
3AA5
330
17
100
AcDbEntity
  8
0
100
AcDbLine
 10
0.0625000000000853
 20
3.367668339265138
 30
0.0
 11
0.0625000000001137
 21
4.630514882866878
 31
0.0
  0
ARC
  5
3AA6
330
17
100
AcDbEntity
  8
0
100
AcDbCircle
 10
-0.4374999999998579
 20
4.630514882866863
 30
0.0
 40
0.4999999999999645
100
AcDbArc
 50
0.0000000000020356
 51
39.99999999999731
  0
LINE
  5
3AA7
330
17
100
AcDbEntity
  8
0
100
AcDbLine
 10
-0.0544777784403721
 20
4.951908687710089
 30
0.0
 11
-0.2832555553897578
 21
5.224555425295351
 31
0.0
  0
ARC
  5
3AA8
330
17
100
AcDbEntity
  8
0
100
AcDbCircle
 10
-0.1874999999999147
 20
5.304903876506161
 30
0.0
 40
0.1249999999999705
100
AcDbArc
 50
180.0000000000049
 51
220.0000000000048
  0
LINE
  5
3AA9
330
17
100
AcDbEntity
  8
0
100
AcDbLine
 10
-0.3124999999998863
 20
5.304903876506147
 30
0.0
 11
-0.3124999999998295
 21
5.570096123493913
 31
0.0
  0
ARC
  5
3AAA
330
17
100
AcDbEntity
  8
0
100
AcDbCircle
 10
-0.1874999999998579
 20
5.570096123493934
 30
0.0
 40
0.1249999999999716
100
AcDbArc
 50
140.0000000000146
 51
180.0000000000096
  0
LINE
  5
3AAB
330
17
100
AcDbEntity
  8
0
100
AcDbLine
 10
-0.2832555553897293
 20
5.650444574704708
 30
0.0
 11
0.4082555553899283
 21
6.47455542529518
 31
0.0
  0
ARC
  5
3AAC
330
17
100
AcDbEntity
  8
0
100
AcDbCircle
 10
0.3125000000000853
 20
6.55490387650599
 30
0.0
 40
0.1249999999999705
100
AcDbArc
 50
319.999999999995
 51
359.9999999999951
  0
LINE
  5
3AAD
330
17
100
AcDbEntity
  8
0
100
AcDbLine
 10
0.4375000000000569
 20
6.554903876505976
 30
0.0
 11
0.4375000000000569
 21
6.82009612349397
 31
0.0
  0
ARC
  5
3AAE
330
17
100
AcDbEntity
  8
0
100
AcDbCircle
 10
0.3125000000000995
 20
6.820096123493962
 30
0.0
 40
0.1249999999999574
100
AcDbArc
 50
0.0000000000032569
 51
40.00000000000757
  0
LINE
  5
3AAF
330
17
100
AcDbEntity
  8
0
100
AcDbLine
 10
0.4082555553899283
 20
6.900444574704765
 30
0.0
 11
-0.2832555553897578
 21
7.72455542529518
 31
0.0
  0
ARC
  5
3AB0
330
17
100
AcDbEntity
  8
0
100
AcDbCircle
 10
-0.1874999999999289
 20
7.804903876506026
 30
0.0
 40
0.1249999999999847
100
AcDbArc
 50
180.0000000000162
 51
220.0000000000227
  0
LINE
  5
3AB1
330
17
100
AcDbEntity
  8
0
100
AcDbLine
 10
-0.3124999999999147
 20
7.80490387650599
 30
0.0
 11
-0.3124999999998579
 21
7.937499999999916
 31
0.0
  0
CIRCLE
  5
3AB2
330
17
100
AcDbEntity
  8
0
100
AcDbCircle
 10
0.5625000000000853
 20
6.06249999999993
 30
0.0
 40
0.125
  0
CIRCLE
  5
3AB3
330
17
100
AcDbEntity
  8
0
100
AcDbCircle
 10
0.0625000000001137
 20
5.437499999999987
 30
0.0
 40
0.125
  0
CIRCLE
  5
3AB4
330
17
100
AcDbEntity
  8
0
100
AcDbCircle
 10
0.5625000000000853
 20
7.31249999999993
 30
0.0
 40
0.125
  0
LINE
  5
3AB5
330
17
100
AcDbEntity
  8
0
100
AcDbLine
 10
-0.0385203910477401
 20
0.5468705034153505
 30
0.0
 11
0.0
 21
0.7726999999999951
 31
0.0
  0
LINE
  5
3AB6
330
17
100
AcDbEntity
  8
0
100
AcDbLine
 10
0.0385203910477472
 20
0.5468705034153505
 30
0.0
 11
0.0
 21
0.7726999999999951
 31
0.0
  0
ARC
  5
3AB7
330
17
100
AcDbEntity
  8
0
100
AcDbCircle
 10
-1.0
 20
1.670746052584371
 30
0.0
 40
0.03125
100
AcDbArc
 50
180.0000000000227
 51
221.3954130506539
  0
ARC
  5
3AB8
330
17
100
AcDbEntity
  8
0
100
AcDbCircle
 10
-1.0
 20
1.670746052584371
 30
0.0
 40
0.16625
100
AcDbArc
 50
180.0000000000227
 51
221.3954130506539
  0
ARC
  5
3AB9
330
17
100
AcDbEntity
  8
0
100
AcDbCircle
 10
-1.187499999999886
 20
1.395746052584394
 30
0.0
 40
0.1562500000000203
100
AcDbArc
 50
318.6045869493546
 51
41.39541305064532
  0
ARC
  5
3ABA
330
17
100
AcDbEntity
  8
0
100
AcDbCircle
 10
-1.187499999999886
 20
1.395746052584394
 30
0.0
 40
0.2912500000000203
100
AcDbArc
 50
318.6045869493633
 51
41.39541305063768
  0
LINE
  5
3ABB
330
17
100
AcDbEntity
  8
0
100
AcDbLine
 10
-1.023442625316079
 20
1.650081933481709
 30
0.0
 11
-0.9690147320540063
 21
1.588335642621382
 31
0.0
  0
LINE
  5
3ABC
330
17
100
AcDbEntity
  8
0
100
AcDbLine
 10
-1.124714766681563
 20
1.560812938958116
 30
0.0
 11
-1.070286873419433
 21
1.499066648097789
 31
0.0
  0
LINE
  5
3ABD
330
17
100
AcDbEntity
  8
0
100
AcDbLine
 10
-1.022457883693718
 20
1.142527322085394
 30
0.0
 11
-0.9690147320540063
 21
1.203156462547378
 31
0.0
  0
ARC
  5
3ABE
330
17
100
AcDbEntity
  8
0
100
AcDbCircle
 10
-0.9990152583776392
 20
1.121863202982696
 30
0.0
 40
0.03125
100
AcDbArc
 50
138.6045869493547
 51
182.1181302886497
  0
ARC
  5
3ABF
330
17
100
AcDbEntity
  8
0
100
AcDbCircle
 10
-0.9990182165562657
 20
1.121859847046126
 30
0.0
 40
0.16625
100
AcDbArc
 50
138.6045869493547
 51
182.1181302886497
  0
LINE
  5
3AC0
330
17
100
AcDbEntity
  8
0
100
AcDbLine
 10
-1.123732983237779
 20
1.231792960672402
 30
0.0
 11
-1.070286873419433
 21
1.292425457070971
 31
0.0
  0
ARC
  5
3AC1
330
17
100
AcDbEntity
  8
0
100
AcDbCircle
 10
1.0
 20
1.670746052584371
 30
0.0
 40
0.03125
100
AcDbArc
 50
318.604586949346
 51
359.9999999999771
  0
ARC
  5
3AC2
330
17
100
AcDbEntity
  8
0
100
AcDbCircle
 10
1.0
 20
1.670746052584371
 30
0.0
 40
0.16625
100
AcDbArc
 50
318.604586949346
 51
359.9999999999771
  0
ARC
  5
3AC3
330
17
100
AcDbEntity
  8
0
100
AcDbCircle
 10
1.187499999999886
 20
1.395746052584394
 30
0.0
 40
0.1562500000000203
100
AcDbArc
 50
138.6045869493547
 51
221.3954130506453
  0
ARC
  5
3AC4
330
17
100
AcDbEntity
  8
0
100
AcDbCircle
 10
1.187499999999886
 20
1.395746052584394
 30
0.0
 40
0.2912500000000203
100
AcDbArc
 50
138.6045869493623
 51
221.3954130506367
  0
LINE
  5
3AC5
330
17
100
AcDbEntity
  8
0
100
AcDbLine
 10
1.023442625316079
 20
1.650081933481709
 30
0.0
 11
0.9690147320540063
 21
1.588335642621382
 31
0.0
  0
LINE
  5
3AC6
330
17
100
AcDbEntity
  8
0
100
AcDbLine
 10
1.124714766681563
 20
1.560812938958116
 30
0.0
 11
1.070286873419433
 21
1.499066648097789
 31
0.0
  0
LINE
  5
3AC7
330
17
100
AcDbEntity
  8
0
100
AcDbLine
 10
1.022457883693718
 20
1.142527322085394
 30
0.0
 11
0.9690147320540063
 21
1.203156462547378
 31
0.0
  0
ARC
  5
3AC8
330
17
100
AcDbEntity
  8
0
100
AcDbCircle
 10
0.9990152583776392
 20
1.121863202982696
 30
0.0
 40
0.03125
100
AcDbArc
 50
357.8818697113501
 51
41.39541305064532
  0
ARC
  5
3AC9
330
17
100
AcDbEntity
  8
0
100
AcDbCircle
 10
0.9990182165562657
 20
1.121859847046126
 30
0.0
 40
0.16625
100
AcDbArc
 50
357.8818697113501
 51
41.39541305064532
  0
LINE
  5
3ACA
330
17
100
AcDbEntity
  8
0
100
AcDbLine
 10
1.123732983237772
 20
1.231792960672402
 30
0.0
 11
1.070286873419433
 21
1.292425457070971
 31
0.0
  0
LINE
  5
3ACB
330
17
100
AcDbEntity
  8
0
100
AcDbLine
 10
-0.2685923790444775
 20
0.7170828609312441
 30
0.0
 11
-0.1838373483687405
 21
0.8182766794066029
 31
0.0
  0
ARC
  5
3ACC
330
17
100
AcDbEntity
  8
0
100
AcDbCircle
 10
0.3644209472917055
 20
0.7973442184308955
 30
0.0
 40
0.125
100
AcDbArc
 50
219.9479069389097
 51
314.6495983819822
  0
LINE
  5
3ACD
330
17
100
AcDbEntity
  8
0
100
AcDbLine
 10
0.2685923790444775
 20
0.7170828609312441
 30
0.0
 11
0.1838373483687405
 21
0.8182766794066029
 31
0.0
  0
ARC
  5
3ACE
330
17
100
AcDbEntity
  8
0
100
AcDbCircle
 10
0.6398401472300677
 20
0.1911891565175896
 30
0.0
 40
0.3225
100
AcDbArc
 50
70.14299764187812
 51
176.4032023581195
  0
ARC
  5
3ACF
330
17
100
AcDbEntity
  8
0
100
AcDbCircle
 10
0.6398401472300677
 20
0.1911891565175896
 30
0.0
 40
0.1875
100
AcDbArc
 50
70.14299764187855
 51
176.4032023581195
  0
LINE
  5
3AD0
330
17
100
AcDbEntity
  8
0
100
AcDbLine
 10
0.317646869287671
 20
0.2061946653991402
 30
0.0
 11
0.3179753960111213
 21
0.2114211095315088
 31
0.0
  0
ARC
  5
3AD1
330
17
100
AcDbEntity
  8
0
100
AcDbCircle
 10
0.286458424402106
 20
0.2081551259625503
 30
0.0
 40
0.03125
100
AcDbArc
 50
286.5283566325569
 51
356.403202358053
  0
ARC
  5
3AD2
330
17
100
AcDbEntity
  8
0
100
AcDbCircle
 10
0.286458424402106
 20
0.2081551259625503
 30
0.0
 40
0.16625
100
AcDbArc
 50
286.5283566325569
 51
356.403202358053
  0
LINE
  5
3AD3
330
17
100
AcDbEntity
  8
0
100
AcDbLine
 10
0.7543103513909842
 20
0.4927355808164667
 30
0.0
 11
0.7493849525068157
 21
0.4945143708286981
 31
0.0
  0
LINE
  5
3AD4
330
17
100
AcDbEntity
  8
0
100
AcDbLine
 10
0.7543103513910126
 20
0.4927355808164311
 30
0.0
 11
0.749384952506766
 21
0.4945143708286768
 31
0.0
  0
ARC
  5
3AD5
330
17
100
AcDbEntity
  8
0
100
AcDbCircle
 10
0.7649251581038499
 20
0.5221275589473624
 30
0.0
 40
0.03125
100
AcDbArc
 50
250.1429976419444
 51
320.0178433674407
  0
ARC
  5
3AD6
330
17
100
AcDbEntity
  8
0
100
AcDbCircle
 10
0.7649251581038499
 20
0.5221275589473624
 30
0.0
 40
0.16625
100
AcDbArc
 50
250.1429976419444
 51
320.0178433674407
  0
ARC
  5
3AD7
330
17
100
AcDbEntity
  8
0
100
AcDbCircle
 10
-0.6398401472300535
 20
0.1911891565175825
 30
0.0
 40
0.3225
100
AcDbArc
 50
3.596797641880277
 51
109.8570023581214
  0
ARC
  5
3AD8
330
17
100
AcDbEntity
  8
0
100
AcDbCircle
 10
-0.6398401472300535
 20
0.1911891565175825
 30
0.0
 40
0.1875
100
AcDbArc
 50
3.596797641880277
 51
109.8570023581214
  0
LINE
  5
3AD9
330
17
100
AcDbEntity
  8
0
100
AcDbLine
 10
-0.3176468692876568
 20
0.2061946653991402
 30
0.0
 11
-0.3179753960111356
 21
0.2114211095315017
 31
0.0
  0
ARC
  5
3ADA
330
17
100
AcDbEntity
  8
0
100
AcDbCircle
 10
-0.2864584244020989
 20
0.2081551259625503
 30
0.0
 40
0.03125
100
AcDbArc
 50
183.5967976419468
 51
253.4716433674431
  0
ARC
  5
3ADB
330
17
100
AcDbEntity
  8
0
100
AcDbCircle
 10
-0.2864584244020989
 20
0.2081551259625503
 30
0.0
 40
0.16625
100
AcDbArc
 50
183.5967976419468
 51
253.4716433674431
  0
LINE
  5
3ADC
330
17
100
AcDbEntity
  8
0
100
AcDbLine
 10
-0.7543103513909913
 20
0.4927355808164667
 30
0.0
 11
-0.7493849525068015
 21
0.4945143708287052
 31
0.0
  0
LINE
  5
3ADD
330
17
100
AcDbEntity
  8
0
100
AcDbLine
 10
-0.7543103513910126
 20
0.4927355808164311
 30
0.0
 11
-0.7493849525067589
 21
0.4945143708286981
 31
0.0
  0
ARC
  5
3ADE
330
17
100
AcDbEntity
  8
0
100
AcDbCircle
 10
-0.7649251581038499
 20
0.5221275589473553
 30
0.0
 40
0.03125
100
AcDbArc
 50
219.9821566325593
 51
289.8570023580557
  0
ARC
  5
3ADF
330
17
100
AcDbEntity
  8
0
100
AcDbCircle
 10
-0.7649251581038499
 20
0.5221275589473553
 30
0.0
 40
0.16625
100
AcDbArc
 50
219.9821566325593
 51
289.8570023580557
  0
LINE
  5
3AE0
330
17
100
AcDbEntity
  8
0
100
AcDbLine
 10
-1.166250000000005
 20
7.937499999999916
 30
0.0
 11
-0.4375
 21
7.937499999999916
 31
0.0
  0
LINE
  5
3AE1
330
17
100
AcDbEntity
  8
0
100
AcDbLine
 10
-0.3124999999998721
 20
7.93749999999998
 30
0.0
 11
1.166250000000047
 21
7.937499999999923
 31
0.0
  0
ENDSEC
  0
SECTION
  2
OBJECTS
  0
DICTIONARY
  5
C
330
0
100
AcDbDictionary
281
     1
  3
ACAD_COLOR
350
28FA
  3
ACAD_GROUP
350
D
  3
ACAD_LAYOUT
350
47B
  3
ACAD_MATERIAL
350
28F9
  3
ACAD_MLINESTYLE
350
1A
  3
ACAD_PLOTSETTINGS
350
47C
  3
ACAD_PLOTSTYLENAME
350
479
  3
ACAD_TABLESTYLE
350
28FB
  3
ACDBHEADERROUNDTRIPXREC
350
408E
  3
ACDBVARIABLEDICTIONARY
350
49
  0
DICTIONARY
  5
2ABF
330
2
100
AcDbDictionary
280
     1
281
     1
  3
ACAD_LAYERFILTERS
360
2F66
  3
ACAD_LAYERSTATES
360
2C63
  3
ACLYDICTIONARY
360
2F65
  0
DICTIONARY
  5
7D0
330
17
100
AcDbDictionary
280
     1
281
     1
  3
ACAD_LAYOUTSELFREF
360
1071
  3
ACAD_SORTENTS
360
2D11
  0
DICTIONARY
  5
7CE
330
14
100
AcDbDictionary
280
     1
281
     1
  3
ACAD_LAYOUTSELFREF
360
1070
  0
DICTIONARY
  5
28FA
102
{ACAD_REACTORS
330
C
102
}
330
C
100
AcDbDictionary
281
     1
  0
DICTIONARY
  5
D
102
{ACAD_REACTORS
330
C
102
}
330
C
100
AcDbDictionary
281
     1
  0
DICTIONARY
  5
47B
102
{ACAD_REACTORS
330
C
102
}
330
C
100
AcDbDictionary
281
     1
  3
Layout1
350
47E
  3
Model
350
47D
  0
DICTIONARY
  5
28F9
102
{ACAD_REACTORS
330
C
102
}
330
C
100
AcDbDictionary
281
     1
  0
DICTIONARY
  5
1A
102
{ACAD_REACTORS
330
C
102
}
330
C
100
AcDbDictionary
281
     1
  3
STANDARD
350
1B
  0
DICTIONARY
  5
47C
102
{ACAD_REACTORS
330
C
102
}
330
C
100
AcDbDictionary
281
     1
  0
ACDBDICTIONARYWDFLT
  5
479
102
{ACAD_REACTORS
330
C
102
}
330
C
100
AcDbDictionary
281
     1
  3
Normal
350
47A
100
AcDbDictionaryWithDefault
340
47A
  0
DICTIONARY
  5
28FB
102
{ACAD_REACTORS
330
C
102
}
330
C
100
AcDbDictionary
281
     1
  3
Standard
350
28FC
  0
DICTIONARY
  5
408E
102
{ACAD_REACTORS
330
C
102
}
330
C
100
AcDbDictionary
281
     1
  0
DICTIONARY
  5
49
102
{ACAD_REACTORS
330
C
102
}
330
C
100
AcDbDictionary
281
     1
  3
CTABLESTYLE
350
2AA3
  3
DIMADEC
350
4A
  3
DIMASSOC
350
708
  3
PROJECTNAME
350
2F3C
  0
DICTIONARY
  5
2F66
102
{ACAD_REACTORS
330
2ABF
102
}
330
2ABF
100
AcDbDictionary
281
     1
  0
DICTIONARY
  5
2C63
102
{ACAD_REACTORS
330
2ABF
102
}
330
2ABF
100
AcDbDictionary
281
     1
  0
DICTIONARY
  5
2F65
102
{ACAD_REACTORS
330
2ABF
102
}
330
2ABF
100
AcDbDictionary
281
     1
1001
ACAD
1000
<All
  0
XRECORD
  5
1071
102
{ACAD_REACTORS
330
7D0
102
}
330
7D0
100
AcDbXrecord
280
     1
340
17
  0
SORTENTSTABLE
  5
2D11
102
{ACAD_REACTORS
330
7D0
102
}
330
7D0
100
AcDbSortentsTable
330
17
331
3A98
  5
3FFA
331
3ADF
  5
4041
331
3AA0
  5
4002
331
3979
  5
3FDF
331
3AA8
  5
400A
331
3AB0
  5
4012
331
3AB8
  5
401A
331
400
  5
400
331
3AC0
  5
4022
331
3A81
  5
3FE3
331
3AC8
  5
402A
331
3A89
  5
3FEB
331
3AD0
  5
4032
331
3A91
  5
3FF3
331
3AD8
  5
403A
331
3A99
  5
3FFB
331
3AE0
  5
4042
331
3AA1
  5
4003
331
397A
  5
3FE0
331
3AA9
  5
400B
331
3AB1
  5
4013
331
3AB9
  5
401B
331
3AC1
  5
4023
331
3A82
  5
3FE4
331
3AC9
  5
402B
331
3A8A
  5
3FEC
331
3AD1
  5
4033
331
3A92
  5
3FF4
331
3AD9
  5
403B
331
3A9A
  5
3FFC
331
3AE1
  5
4043
331
3AA2
  5
4004
331
3AAA
  5
400C
331
3AB2
  5
4014
331
3ABA
  5
401C
331
3AC2
  5
4024
331
3A83
  5
3FE5
331
3ACA
  5
402C
331
3A8B
  5
3FED
331
3AD2
  5
4034
331
3A93
  5
3FF5
331
3ADA
  5
403C
331
3A9B
  5
3FFD
331
3AA3
  5
4005
331
3AAB
  5
400D
331
3AB3
  5
4015
331
3ABB
  5
401D
331
3AC3
  5
4025
331
3A84
  5
3FE6
331
3ACB
  5
402D
331
3A8C
  5
3FEE
331
3AD3
  5
4035
331
3A94
  5
3FF6
331
3ADB
  5
403D
331
3A9C
  5
3FFE
331
3AA4
  5
4006
331
3AAC
  5
400E
331
3AB4
  5
4016
331
3ABC
  5
401E
331
3AC4
  5
4026
331
3A85
  5
3FE7
331
3ACC
  5
402E
331
3A8D
  5
3FEF
331
3AD4
  5
4036
331
3A95
  5
3FF7
331
3ADC
  5
403E
331
3A9D
  5
3FFF
331
3AA5
  5
4007
331
3AAD
  5
400F
331
3AB5
  5
4017
331
3ABD
  5
401F
331
3AC5
  5
4027
331
3A86
  5
3FE8
331
3ACD
  5
402F
331
3A8E
  5
3FF0
331
3AD5
  5
4037
331
3A96
  5
3FF8
331
3ADD
  5
403F
331
3A9E
  5
4000
331
3977
  5
3FDD
331
3AA6
  5
4008
331
3AAE
  5
4010
331
3AB6
  5
4018
331
3ABE
  5
4020
331
3A7F
  5
3FE1
331
3AC6
  5
4028
331
3A87
  5
3FE9
331
3ACE
  5
4030
331
3A8F
  5
3FF1
331
3AD6
  5
4038
331
3A97
  5
3FF9
331
3ADE
  5
4040
331
3A9F
  5
4001
331
3978
  5
3FDE
331
3AA7
  5
4009
331
3AAF
  5
4011
331
3AB7
  5
4019
331
3ABF
  5
4021
331
3A80
  5
3FE2
331
3A7
  5
3A7
331
3AC7
  5
4029
331
3A88
  5
3FEA
331
3ACF
  5
4031
331
3A90
  5
3FF2
331
3AD7
  5
4039
  0
XRECORD
  5
1070
102
{ACAD_REACTORS
330
7CE
102
}
330
7CE
100
AcDbXrecord
280
     1
340
14
  0
LAYOUT
  5
47E
102
{ACAD_XDICTIONARY
360
4091
102
}
102
{ACAD_REACTORS
330
47B
102
}
330
47B
100
AcDbPlotSettings
  1

  2
hp psc 2100 series
  4

  6

 40
0.0
 41
0.0
 42
0.0
 43
0.0
 44
0.0
 45
0.0
 46
0.0
 47
0.0
 48
0.0
 49
0.0
140
0.0
141
0.0
142
1.0
143
1.0
 70
   688
 72
     0
 73
     0
 74
     5
  7
monochrome.ctb
 75
    16
147
1.0
148
0.0
149
0.0
100
AcDbLayout
  1
Layout1
 70
     0
 71
     1
 10
0.0
 20
0.0
 11
12.0
 21
9.0
 12
0.0
 22
0.0
 32
0.0
 14
1.000000000000000E+20
 24
1.000000000000000E+20
 34
1.000000000000000E+20
 15
-1.000000000000000E+20
 25
-1.000000000000000E+20
 35
-1.000000000000000E+20
146
0.0
 13
0.0
 23
0.0
 33
0.0
 16
1.0
 26
0.0
 36
0.0
 17
0.0
 27
1.0
 37
0.0
 76
     0
330
14
  0
LAYOUT
  5
47D
102
{ACAD_XDICTIONARY
360
408F
102
}
102
{ACAD_REACTORS
330
47B
102
}
330
47B
100
AcDbPlotSettings
  1

  2
HP LaserJet 2100 Series PS
  4
Letter
  6

 40
5.365749835968017
 41
5.408073902130126
 42
5.132904052734375
 43
5.090576171875
 44
215.8999938964844
 45
279.3999938964844
 46
0.0
 47
0.0
 48
0.0
 49
0.0
140
0.0
141
0.0
142
1.0
143
3.967254253308121
 70
 11952
 72
     0
 73
     0
 74
     2
  7
monochrome.ctb
 75
     0
147
0.2520635018958373
148
0.0
149
0.0
100
AcDbLayout
  1
Model
 70
     1
 71
     0
 10
0.0
 20
0.0
 11
12.0
 21
9.0
 12
0.0
 22
0.0
 32
0.0
 14
0.0
 24
0.0
 34
0.0
 15
0.0
 25
0.0
 35
0.0
146
0.0
 13
0.0
 23
0.0
 33
0.0
 16
1.0
 26
0.0
 36
0.0
 17
0.0
 27
1.0
 37
0.0
 76
     0
330
17
1001
ACAD_PSEXT
1000
HP LaserJet 2100 Series PS
1000
HP LaserJet 2100 Series PS
1000
LPT1:
1000

1070
     0
  0
MLINESTYLE
  5
1B
102
{ACAD_REACTORS
330
1A
102
}
330
1A
100
AcDbMlineStyle
  2
STANDARD
 70
     0
  3

 62
   256
 51
90.0
 52
90.0
 71
     2
 49
0.5
 62
   256
  6
BYLAYER
 49
-0.5
 62
   256
  6
BYLAYER
  0
ACDBPLACEHOLDER
  5
47A
102
{ACAD_REACTORS
330
479
102
}
330
479
  0
TABLESTYLE
  5
28FC
102
{ACAD_REACTORS
330
28FB
102
}
330
28FB
100
AcDbTableStyle
  3
Standard
 70
     0
 71
     0
 40
0.06
 41
0.06
280
     0
281
     0
  7
STANDARD
140
0.18
170
     2
 62
     0
 63
     7
283
     0
274
    -2
284
     1
 64
     0
275
    -2
285
     1
 65
     0
276
    -2
286
     1
 66
     0
277
    -2
287
     1
 67
     0
278
    -2
288
     1
 68
     0
279
    -2
289
     1
 69
     0
  7
STANDARD
140
0.25
170
     5
 62
     0
 63
     7
283
     0
274
    -2
284
     1
 64
     0
275
    -2
285
     1
 65
     0
276
    -2
286
     1
 66
     0
277
    -2
287
     1
 67
     0
278
    -2
288
     1
 68
     0
279
    -2
289
     1
 69
     0
  7
STANDARD
140
0.18
170
     5
 62
     0
 63
     7
283
     0
274
    -2
284
     1
 64
     0
275
    -2
285
     1
 65
     0
276
    -2
286
     1
 66
     0
277
    -2
287
     1
 67
     0
278
    -2
288
     1
 68
     0
279
    -2
289
     1
 69
     0
  0
DICTIONARYVAR
  5
2AA3
102
{ACAD_REACTORS
330
49
102
}
330
49
100
DictionaryVariables
280
     0
  1
STANDARD
  0
DICTIONARYVAR
  5
4A
102
{ACAD_REACTORS
330
49
102
}
330
49
100
DictionaryVariables
280
     0
  1
0
  0
DICTIONARYVAR
  5
708
102
{ACAD_REACTORS
330
49
102
}
330
49
100
DictionaryVariables
280
     0
  1
0
  0
DICTIONARYVAR
  5
2F3C
102
{ACAD_REACTORS
330
49
102
}
330
49
100
DictionaryVariables
280
     0
  1

  0
DICTIONARY
  5
4091
330
47E
100
AcDbDictionary
280
     1
281
     1
  3
ACAD_XREC_ROUNDTRIP
360
4092
  0
DICTIONARY
  5
408F
330
47D
100
AcDbDictionary
280
     1
281
     1
  3
ACAD_XREC_ROUNDTRIP
360
4090
  0
XRECORD
  5
4092
102
{ACAD_REACTORS
330
4091
102
}
330
4091
100
AcDbXrecord
280
     1
102
SHADEPLOT
 70
     0
102
SHADEPLOTRESLEVEL
 70
     2
102
SHADEPLOTCUSTOMDPI
 70
   300
  0
XRECORD
  5
4090
102
{ACAD_REACTORS
330
408F
102
}
330
408F
100
AcDbXrecord
280
     1
102
SHADEPLOT
 70
     0
102
SHADEPLOTRESLEVEL
 70
     2
102
SHADEPLOTCUSTOMDPI
 70
   300
  0
ENDSEC
  0
EOF
