  0
SECTION
  2
HEADER
  9
$ACADVER
  1
AC1015
  9
$ACADMAINTVER
 70
    20
  9
$DWGCODEPAGE
  3
ANSI_1252
  9
$INSBASE
 10
0.0
 20
0.0
 30
0.0
  9
$EXTMIN
 10
-1.260746527687796
 20
0.3799231551662121
 30
0.0
  9
$EXTMAX
 10
1.210515015707248
 20
4.071603926863714
 30
0.0
  9
$LIMMIN
 10
0.0
 20
0.0
  9
$LIMMAX
 10
32.0
 20
42.0
  9
$ORTHOMODE
 70
     1
  9
$REGENMODE
 70
     1
  9
$FILLMODE
 70
     1
  9
$QTEXTMODE
 70
     0
  9
$MIRRTEXT
 70
     0
  9
$LTSCALE
 40
0.5
  9
$ATTMODE
 70
     1
  9
$TEXTSIZE
 40
0.36
  9
$TRACEWID
 40
0.05
  9
$TEXTSTYLE
  7
STANDARD
  9
$CLAYER
  8
0
  9
$CELTYPE
  6
BYLAYER
  9
$CECOLOR
 62
   256
  9
$CELTSCALE
 40
1.0
  9
$DISPSILH
 70
     0
  9
$DIMSCALE
 40
4.0
  9
$DIMASZ
 40
0.1
  9
$DIMEXO
 40
0.062
  9
$DIMDLI
 40
0.375
  9
$DIMRND
 40
0.0
  9
$DIMDLE
 40
0.0
  9
$DIMEXE
 40
0.08
  9
$DIMTP
 40
0.0
  9
$DIMTM
 40
0.0
  9
$DIMTXT
 40
0.075
  9
$DIMCEN
 40
-0.0078125
  9
$DIMTSZ
 40
0.0
  9
$DIMTOL
 70
     0
  9
$DIMLIM
 70
     0
  9
$DIMTIH
 70
     1
  9
$DIMTOH
 70
     1
  9
$DIMSE1
 70
     0
  9
$DIMSE2
 70
     0
  9
$DIMTAD
 70
     0
  9
$DIMZIN
 70
     0
  9
$DIMBLK
  1

  9
$DIMASO
 70
     0
  9
$DIMSHO
 70
     0
  9
$DIMPOST
  1

  9
$DIMAPOST
  1

  9
$DIMALT
 70
     0
  9
$DIMALTD
 70
     2
  9
$DIMALTF
 40
25.4
  9
$DIMLFAC
 40
1.0
  9
$DIMTOFL
 70
     0
  9
$DIMTVP
 40
0.0
  9
$DIMTIX
 70
     0
  9
$DIMSOXD
 70
     0
  9
$DIMSAH
 70
     0
  9
$DIMBLK1
  1

  9
$DIMBLK2
  1

  9
$DIMSTYLE
  2
STANDARD
  9
$DIMCLRD
 70
     0
  9
$DIMCLRE
 70
     0
  9
$DIMCLRT
 70
     0
  9
$DIMTFAC
 40
1.0
  9
$DIMGAP
 40
0.09
  9
$DIMJUST
 70
     0
  9
$DIMSD1
 70
     0
  9
$DIMSD2
 70
     0
  9
$DIMTOLJ
 70
     1
  9
$DIMTZIN
 70
     0
  9
$DIMALTZ
 70
     0
  9
$DIMALTTZ
 70
     0
  9
$DIMUPT
 70
     0
  9
$DIMDEC
 70
     5
  9
$DIMTDEC
 70
     5
  9
$DIMALTU
 70
     2
  9
$DIMALTTD
 70
     2
  9
$DIMTXSTY
  7
STANDARD
  9
$DIMAUNIT
 70
     0
  9
$DIMADEC
 70
     0
  9
$DIMALTRND
 40
0.0
  9
$DIMAZIN
 70
     0
  9
$DIMDSEP
 70
    46
  9
$DIMATFIT
 70
     3
  9
$DIMFRAC
 70
     2
  9
$DIMLDRBLK
  1

  9
$DIMLUNIT
 70
     5
  9
$DIMLWD
 70
    -2
  9
$DIMLWE
 70
    -2
  9
$DIMTMOVE
 70
     2
  9
$LUNITS
 70
     2
  9
$LUPREC
 70
     4
  9
$SKETCHINC
 40
0.1
  9
$FILLETRAD
 40
0.0
  9
$AUNITS
 70
     0
  9
$AUPREC
 70
     0
  9
$MENU
  1
qa
  9
$ELEVATION
 40
0.0
  9
$PELEVATION
 40
0.0
  9
$THICKNESS
 40
0.0
  9
$LIMCHECK
 70
     0
  9
$CHAMFERA
 40
0.4375
  9
$CHAMFERB
 40
0.4375
  9
$CHAMFERC
 40
0.0
  9
$CHAMFERD
 40
0.0
  9
$SKPOLY
 70
     0
  9
$TDCREATE
 40
2452872.401862616
  9
$TDUCREATE
 40
2452872.693529283
  9
$TDUPDATE
 40
2454579.502612535
  9
$TDUUPDATE
 40
2454579.794279201
  9
$TDINDWG
 40
0.6915011806
  9
$TDUSRTIMER
 40
0.6915011806
  9
$USRTIMER
 70
     1
  9
$ANGBASE
 50
0.0
  9
$ANGDIR
 70
     0
  9
$PDMODE
 70
     0
  9
$PDSIZE
 40
0.0
  9
$PLINEWID
 40
0.0
  9
$SPLFRAME
 70
     0
  9
$SPLINETYPE
 70
     6
  9
$SPLINESEGS
 70
     8
  9
$HANDSEED
  5
4093
  9
$SURFTAB1
 70
     6
  9
$SURFTAB2
 70
     6
  9
$SURFTYPE
 70
     6
  9
$SURFU
 70
     6
  9
$SURFV
 70
     6
  9
$UCSBASE
  2

  9
$UCSNAME
  2

  9
$UCSORG
 10
0.0
 20
0.0
 30
0.0
  9
$UCSXDIR
 10
1.0
 20
0.0
 30
0.0
  9
$UCSYDIR
 10
0.0
 20
1.0
 30
0.0
  9
$UCSORTHOREF
  2

  9
$UCSORTHOVIEW
 70
     0
  9
$UCSORGTOP
 10
0.0
 20
0.0
 30
0.0
  9
$UCSORGBOTTOM
 10
0.0
 20
0.0
 30
0.0
  9
$UCSORGLEFT
 10
0.0
 20
0.0
 30
0.0
  9
$UCSORGRIGHT
 10
0.0
 20
0.0
 30
0.0
  9
$UCSORGFRONT
 10
0.0
 20
0.0
 30
0.0
  9
$UCSORGBACK
 10
0.0
 20
0.0
 30
0.0
  9
$PUCSBASE
  2

  9
$PUCSNAME
  2

  9
$PUCSORG
 10
0.0
 20
0.0
 30
0.0
  9
$PUCSXDIR
 10
1.0
 20
0.0
 30
0.0
  9
$PUCSYDIR
 10
0.0
 20
1.0
 30
0.0
  9
$PUCSORTHOREF
  2

  9
$PUCSORTHOVIEW
 70
     0
  9
$PUCSORGTOP
 10
0.0
 20
0.0
 30
0.0
  9
$PUCSORGBOTTOM
 10
0.0
 20
0.0
 30
0.0
  9
$PUCSORGLEFT
 10
0.0
 20
0.0
 30
0.0
  9
$PUCSORGRIGHT
 10
0.0
 20
0.0
 30
0.0
  9
$PUCSORGFRONT
 10
0.0
 20
0.0
 30
0.0
  9
$PUCSORGBACK
 10
0.0
 20
0.0
 30
0.0
  9
$USERI1
 70
     0
  9
$USERI2
 70
     0
  9
$USERI3
 70
     0
  9
$USERI4
 70
     0
  9
$USERI5
 70
     0
  9
$USERR1
 40
0.0
  9
$USERR2
 40
0.0
  9
$USERR3
 40
0.0
  9
$USERR4
 40
0.0
  9
$USERR5
 40
0.0
  9
$WORLDVIEW
 70
     1
  9
$SHADEDGE
 70
     3
  9
$SHADEDIF
 70
    70
  9
$TILEMODE
 70
     1
  9
$MAXACTVP
 70
    16
  9
$PINSBASE
 10
0.0
 20
0.0
 30
0.0
  9
$PLIMCHECK
 70
     0
  9
$PEXTMIN
 10
1.000000000000000E+20
 20
1.000000000000000E+20
 30
1.000000000000000E+20
  9
$PEXTMAX
 10
-1.000000000000000E+20
 20
-1.000000000000000E+20
 30
-1.000000000000000E+20
  9
$PLIMMIN
 10
0.0
 20
0.0
  9
$PLIMMAX
 10
12.0
 20
9.0
  9
$UNITMODE
 70
     0
  9
$VISRETAIN
 70
     0
  9
$PLINEGEN
 70
     0
  9
$PSLTSCALE
 70
     0
  9
$TREEDEPTH
 70
  3020
  9
$CMLSTYLE
  2
STANDARD
  9
$CMLJUST
 70
     0
  9
$CMLSCALE
 40
1.0
  9
$PROXYGRAPHICS
 70
     1
  9
$MEASUREMENT
 70
     0
  9
$CELWEIGHT
370
    -1
  9
$ENDCAPS
280
     0
  9
$JOINSTYLE
280
     0
  9
$LWDISPLAY
290
     0
  9
$INSUNITS
 70
     0
  9
$HYPERLINKBASE
  1

  9
$STYLESHEET
  1
monochrome.ctb
  9
$XEDIT
290
     1
  9
$CEPSNTYPE
380
     0
  9
$PSTYLEMODE
290
     1
  9
$FINGERPRINTGUID
  2
{3F8EE252-4A01-453C-A5F5-5678F9528411}
  9
$VERSIONGUID
  2
{8FE74C8C-20EB-4A73-907C-E6ED692515F3}
  9
$EXTNAMES
290
     1
  9
$PSVPSCALE
 40
0.0
  9
$OLESTARTUP
290
     0
  0
ENDSEC
  0
SECTION
  2
CLASSES
  0
CLASS
  1
DICTIONARYVAR
  2
AcDbDictionaryVar
  3
ObjectDBX Classes
 90
        0
280
     0
281
     0
  0
CLASS
  1
ACDBDICTIONARYWDFLT
  2
AcDbDictionaryWithDefault
  3
ObjectDBX Classes
 90
        0
280
     0
281
     0
  0
CLASS
  1
ACDBPLACEHOLDER
  2
AcDbPlaceHolder
  3
ObjectDBX Classes
 90
        0
280
     0
281
     0
  0
CLASS
  1
LAYOUT
  2
AcDbLayout
  3
ObjectDBX Classes
 90
        0
280
     0
281
     0
  0
CLASS
  1
TABLESTYLE
  2
AcDbTableStyle
  3
ObjectDBX Classes
 90
     2047
280
     0
281
     0
  0
CLASS
  1
SORTENTSTABLE
  2
AcDbSortentsTable
  3
ObjectDBX Classes
 90
        0
280
     0
281
     0
  0
ENDSEC
  0
SECTION
  2
TABLES
  0
TABLE
  2
VPORT
  5
8
330
0
100
AcDbSymbolTable
 70
     2
  0
VPORT
  5
408D
330
8
100
AcDbSymbolTableRecord
100
AcDbViewportTableRecord
  2
*Active
 70
     0
 10
0.0
 20
0.0
 11
1.0
 21
1.0
 12
1.175741732719359
 22
7.808610691366942
 13
0.0
 23
0.0
 14
0.063
 24
0.063
 15
0.25
 25
0.25
 16
0.0
 26
0.0
 36
1.0
 17
0.0
 27
0.0
 37
0.0
 40
20.99117377770584
 41
1.760162601626016
 42
50.0
 43
0.0
 44
0.0
 50
0.0
 51
0.0
 71
     0
 72
   100
 73
     1
 74
     0
 75
     0
 76
     0
 77
     0
 78
     0
281
     0
 65
     1
110
0.0
120
0.0
130
0.0
111
1.0
121
0.0
131
0.0
112
0.0
122
1.0
132
0.0
 79
     0
146
0.0
  0
ENDTAB
  0
TABLE
  2
LTYPE
  5
5
330
0
100
AcDbSymbolTable
 70
     3
  0
LTYPE
  5
11
330
5
100
AcDbSymbolTableRecord
100
AcDbLinetypeTableRecord
  2
BYBLOCK
 70
     0
  3

 72
    65
 73
     0
 40
0.0
  0
LTYPE
  5
12
330
5
100
AcDbSymbolTableRecord
100
AcDbLinetypeTableRecord
  2
BYLAYER
 70
     0
  3

 72
    65
 73
     0
 40
0.0
  0
LTYPE
  5
13
330
5
100
AcDbSymbolTableRecord
100
AcDbLinetypeTableRecord
  2
CONTINUOUS
 70
     0
  3
Solid line
 72
    65
 73
     0
 40
0.0
  0
LTYPE
  5
2B
330
5
100
AcDbSymbolTableRecord
100
AcDbLinetypeTableRecord
  2
HIDDEN
 70
     0
  3
_ _ _ _ _ _ _ _ _ _ _ _ _ _ _ _ _ _ _ _ _ _ _
 72
    65
 73
     2
 40
0.375
 49
0.25
 74
     0
 49
-0.125
 74
     0
  0
LTYPE
  5
343F
330
5
100
AcDbSymbolTableRecord
100
AcDbLinetypeTableRecord
  2
THD
 70
     0
  3
_ _ _ _ _ _ _ _ _ _ _ _ _ _ _ _ _ _ _ _ _ _ _ _
 72
    65
 73
     2
 40
0.15
 49
0.11
 74
     0
 49
-0.04
 74
     0
  0
ENDTAB
  0
TABLE
  2
LAYER
  5
2
102
{ACAD_XDICTIONARY
360
2ABF
102
}
330
0
100
AcDbSymbolTable
 70
     3
  0
LAYER
  5
E
330
2
100
AcDbSymbolTableRecord
100
AcDbLayerTableRecord
  2
0
 70
     0
 62
     7
  6
CONTINUOUS
370
    -3
390
47A
  0
LAYER
  5
37
330
2
100
AcDbSymbolTableRecord
100
AcDbLayerTableRecord
  2
DIM
 70
     0
 62
     5
  6
CONTINUOUS
370
    -3
390
47A
  0
LAYER
  5
2DFD
330
2
100
AcDbSymbolTableRecord
100
AcDbLayerTableRecord
  2
Defpoints
 70
     0
 62
     7
  6
CONTINUOUS
290
     0
370
    -3
390
47A
  0
ENDTAB
  0
TABLE
  2
STYLE
  5
3
330
0
100
AcDbSymbolTable
 70
     1
  0
STYLE
  5
F
330
3
100
AcDbSymbolTableRecord
100
AcDbTextStyleTableRecord
  2
STANDARD
 70
     0
 40
0.0
 41
1.0
 50
0.0
 71
     0
 42
0.36
  3
TXT
  4

  0
ENDTAB
  0
TABLE
  2
VIEW
  5
6
330
0
100
AcDbSymbolTable
 70
     0
  0
ENDTAB
  0
TABLE
  2
UCS
  5
7
330
0
100
AcDbSymbolTable
 70
     0
  0
ENDTAB
  0
TABLE
  2
APPID
  5
9
330
0
100
AcDbSymbolTable
 70
     5
  0
APPID
  5
10
330
9
100
AcDbSymbolTableRecord
100
AcDbRegAppTableRecord
  2
ACAD
 70
     0
  0
APPID
  5
DA7
330
9
100
AcDbSymbolTableRecord
100
AcDbRegAppTableRecord
  2
RAK
 70
     0
  0
APPID
  5
2C62
330
9
100
AcDbSymbolTableRecord
100
AcDbRegAppTableRecord
  2
ACAD_PSEXT
 70
     0
  0
APPID
  5
2C6B
330
9
100
AcDbSymbolTableRecord
100
AcDbRegAppTableRecord
  2
ACAD_DSTYLE_DIMTEXT_FILL
 70
     0
  0
APPID
  5
3435
330
9
100
AcDbSymbolTableRecord
100
AcDbRegAppTableRecord
  2
CONTENTBLOCKICON
 70
     0
  0
ENDTAB
  0
TABLE
  2
DIMSTYLE
  5
A
330
0
100
AcDbSymbolTable
 70
     1
100
AcDbDimStyleTable
 71
     1
340
465
  0
DIMSTYLE
105
465
330
A
100
AcDbSymbolTableRecord
100
AcDbDimStyleTableRecord
  2
STANDARD
 70
     0
340
F
  0
ENDTAB
  0
TABLE
  2
BLOCK_RECORD
  5
1
330
0
100
AcDbSymbolTable
 70
     0
  0
BLOCK_RECORD
  5
17
102
{ACAD_XDICTIONARY
360
7D0
102
}
330
1
100
AcDbSymbolTableRecord
100
AcDbBlockTableRecord
  2
*MODEL_SPACE
340
47D
  0
BLOCK_RECORD
  5
14
102
{ACAD_XDICTIONARY
360
7CE
102
}
330
1
100
AcDbSymbolTableRecord
100
AcDbBlockTableRecord
  2
*PAPER_SPACE
340
47E
  0
ENDTAB
  0
ENDSEC
  0
SECTION
  2
BLOCKS
  0
BLOCK
  5
47
330
17
100
AcDbEntity
  8
0
100
AcDbBlockBegin
  2
*MODEL_SPACE
 70
     0
 10
0.0
 20
0.0
 30
0.0
  3
*MODEL_SPACE
  1

  0
ENDBLK
  5
48
330
17
100
AcDbEntity
  8
0
100
AcDbBlockEnd
  0
BLOCK
  5
45
330
14
100
AcDbEntity
 67
     1
  8
0
100
AcDbBlockBegin
  2
*PAPER_SPACE
 70
     0
 10
0.0
 20
0.0
 30
0.0
  3
*PAPER_SPACE
  1

  0
ENDBLK
  5
46
330
14
100
AcDbEntity
 67
     1
  8
0
100
AcDbBlockEnd
  0
ENDSEC
  0
SECTION
  2
ENTITIES
  0
TEXT
  5
3A7
330
17
100
AcDbEntity
  8
DIM
100
AcDbText
 10
14.93846334400804
 20
21.0944638759405
 30
0.0
 40
0.36
  1
   
 50
359.9999999999988
 11
14.93846334400805
 21
21.2744638759405
 31
0.0
100
AcDbText
 73
     2
  0
TEXT
  5
400
330
17
100
AcDbEntity
  8
DIM
100
AcDbText
 10
13.55232669162668
 20
10.34149078419336
 30
0.0
 40
0.36
  1
   
 72
     1
 11
14.09232669162668
 21
10.52149078419336
 31
0.0
100
AcDbText
 73
     2
  0
LINE
  5
3764
330
17
100
AcDbEntity
  8
0
100
AcDbLine
 10
1.141134244009762
 20
0.3799231551662121
 30
0.0
 11
0.2623842440095601
 21
0.3799231551662121
 31
0.0
  0
LINE
  5
3765
330
17
100
AcDbEntity
  8
0
100
AcDbLine
 10
-0.3126157559904499
 20
0.3799231551662121
 30
0.0
 11
-1.191365755990304
 21
0.3799231551662121
 31
0.0
  0
LINE
  5
3766
330
17
100
AcDbEntity
  8
0
100
AcDbLine
 10
0.8061342440097547
 20
3.867223155166216
 30
0.0
 11
-0.8563657559903035
 21
3.867223155166216
 31
0.0
  0
LINE
  5
3767
330
17
100
AcDbEntity
  8
0
100
AcDbLine
 10
-1.056365755990299
 20
3.667223155166213
 30
0.0
 11
-1.056365755990299
 21
0.3799231551662121
 31
0.0
  0
ARC
  5
3768
330
17
100
AcDbEntity
  8
0
100
AcDbCircle
 10
-0.8563657559903035
 20
3.667223155166213
 30
0.0
 40
0.2
100
AcDbArc
 50
90.0
 51
180.0
  0
ARC
  5
3769
330
17
100
AcDbEntity
  8
0
100
AcDbCircle
 10
-0.8563657559903035
 20
3.667223155166213
 30
0.0
 40
0.335
100
AcDbArc
 50
90.0
 51
180.0
  0
LINE
  5
376A
330
17
100
AcDbEntity
  8
0
100
AcDbLine
 10
1.006134244009757
 20
3.667223155166221
 30
0.0
 11
1.006134244009757
 21
0.3799231551662121
 31
0.0
  0
ARC
  5
376B
330
17
100
AcDbEntity
  8
0
100
AcDbCircle
 10
0.8061342440097547
 20
3.667223155166221
 30
0.0
 40
0.2
100
AcDbArc
 50
0.0
 51
90.0
  0
ARC
  5
376C
330
17
100
AcDbEntity
  8
0
100
AcDbCircle
 10
0.8061342440097547
 20
3.667223155166221
 30
0.0
 40
0.335
100
AcDbArc
 50
0.0
 51
90.0
  0
ARC
  5
376D
330
17
100
AcDbEntity
  8
0
100
AcDbCircle
 10
-0.0251157559902851
 20
2.710973155166245
 30
0.0
 40
0.34375
100
AcDbArc
 50
0.0
 51
179.9999999999951
  0
ARC
  5
376E
330
17
100
AcDbEntity
  8
0
100
AcDbCircle
 10
-0.0251157559902851
 20
2.523473155166245
 30
0.0
 40
0.34375
100
AcDbArc
 50
179.9999999999951
 51
0.0
  0
LINE
  5
376F
330
17
100
AcDbEntity
  8
0
100
AcDbLine
 10
-0.3688657559902708
 20
2.523473155166273
 30
0.0
 11
-0.3688657559902566
 21
2.710973155166245
 31
0.0
  0
LINE
  5
3770
330
17
100
AcDbEntity
  8
0
100
AcDbLine
 10
0.3186342440097292
 20
2.523473155166216
 30
0.0
 11
0.3186342440097434
 21
2.710973155166216
 31
0.0
  0
LINE
  5
3771
330
17
100
AcDbEntity
  8
0
100
AcDbLine
 10
-0.3126157559904428
 20
0.3911731551662161
 30
0.0
 11
-0.3126157559904499
 21
0.3799231551662192
 31
0.0
  0
ARC
  5
3772
330
17
100
AcDbEntity
  8
0
100
AcDbCircle
 10
-0.2926157559904396
 20
0.3911731551662161
 30
0.0
 40
0.02
100
AcDbArc
 50
90.0
 51
180.0
  0
LINE
  5
3773
330
17
100
AcDbEntity
  8
0
100
AcDbLine
 10
0.2623842440095601
 20
0.3799231551662121
 30
0.0
 11
0.2623842440095672
 21
0.3911731551662161
 31
0.0
  0
ARC
  5
3774
330
17
100
AcDbEntity
  8
0
100
AcDbCircle
 10
0.242384244009564
 20
0.3911731551662161
 30
0.0
 40
0.02
100
AcDbArc
 50
0.0
 51
90.0
  0
LINE
  5
3775
330
17
100
AcDbEntity
  8
0
100
AcDbLine
 10
0.242384244009564
 20
0.4111731551662122
 30
0.0
 11
-0.2926157559904396
 21
0.4111731551662122
 31
0.0
  0
LINE
  5
3776
330
17
100
AcDbEntity
  8
0
100
AcDbLine
 10
0.8061342440097547
 20
4.002223155166221
 30
0.0
 11
-0.8563657559903106
 21
4.002223155166221
 31
0.0
  0
LINE
  5
3777
330
17
100
AcDbEntity
  8
0
100
AcDbLine
 10
-1.191365755990304
 20
3.667223155166213
 30
0.0
 11
-1.191365755990297
 21
0.3799231551662121
 31
0.0
  0
LINE
  5
3778
330
17
100
AcDbEntity
  8
0
100
AcDbLine
 10
1.141134244009762
 20
3.667223155166221
 30
0.0
 11
1.141134244009762
 21
0.3799231551662121
 31
0.0
  0
ARC
  5
3779
330
17
100
AcDbEntity
  8
0
100
AcDbCircle
 10
-1.025115755990299
 20
2.892223155166194
 30
0.0
 40
0.03125
100
AcDbArc
 50
180.0000000000227
 51
221.3954130506539
  0
ARC
  5
377A
330
17
100
AcDbEntity
  8
0
  6
THD
100
AcDbCircle
 10
-1.025115755990299
 20
2.892223155166194
 30
0.0
 40
0.16625
100
AcDbArc
 50
180.0000000000227
 51
221.3954130506539
  0
ARC
  5
377B
330
17
100
AcDbEntity
  8
0
  6
THD
100
AcDbCircle
 10
-1.212615755990213
 20
2.617223155166216
 30
0.0
 40
0.1562500000000203
100
AcDbArc
 50
318.6045869493546
 51
41.39541305064532
  0
ARC
  5
377C
330
17
100
AcDbEntity
  8
0
100
AcDbCircle
 10
-1.212615755990213
 20
2.617223155166216
 30
0.0
 40
0.2912500000000203
100
AcDbArc
 50
318.6045869493633
 51
41.39541305063764
  0
LINE
  5
377D
330
17
100
AcDbEntity
  8
0
100
AcDbLine
 10
-1.048558381306378
 20
2.871559036063532
 30
0.0
 11
-0.9941304880443055
 21
2.809812745203204
 31
0.0
  0
LINE
  5
377E
330
17
100
AcDbEntity
  8
0
  6
THD
100
AcDbLine
 10
-1.149830522671834
 20
2.782290041539939
 30
0.0
 11
-1.095402629409761
 21
2.720543750679611
 31
0.0
  0
ARC
  5
377F
330
17
100
AcDbEntity
  8
0
100
AcDbCircle
 10
-1.025115755990299
 20
2.342223155166211
 30
0.0
 40
0.03125
100
AcDbArc
 50
138.604586949346
 51
179.9999999999772
  0
ARC
  5
3780
330
17
100
AcDbEntity
  8
0
  6
THD
100
AcDbCircle
 10
-1.025115755990299
 20
2.342223155166211
 30
0.0
 40
0.16625
100
AcDbArc
 50
138.604586949346
 51
179.9999999999772
  0
LINE
  5
3781
330
17
100
AcDbEntity
  8
0
100
AcDbLine
 10
-1.048558381306378
 20
2.362887274268901
 30
0.0
 11
-0.9941304880443055
 21
2.4246335651292
 31
0.0
  0
LINE
  5
3782
330
17
100
AcDbEntity
  8
0
  6
THD
100
AcDbLine
 10
-1.149830522671834
 20
2.452156268792494
 30
0.0
 11
-1.095402629409761
 21
2.513902559652793
 31
0.0
  0
ARC
  5
3783
330
17
100
AcDbEntity
  8
0
100
AcDbCircle
 10
0.9748842440097291
 20
2.892223155166194
 30
0.0
 40
0.03125
100
AcDbArc
 50
318.604586949346
 51
359.9999999999772
  0
ARC
  5
3784
330
17
100
AcDbEntity
  8
0
  6
THD
100
AcDbCircle
 10
0.9748842440097291
 20
2.892223155166194
 30
0.0
 40
0.16625
100
AcDbArc
 50
318.604586949346
 51
359.9999999999772
  0
ARC
  5
3785
330
17
100
AcDbEntity
  8
0
  6
THD
100
AcDbCircle
 10
1.162384244009643
 20
2.617223155166216
 30
0.0
 40
0.1562500000000203
100
AcDbArc
 50
138.6045869493547
 51
221.3954130506453
  0
ARC
  5
3786
330
17
100
AcDbEntity
  8
0
100
AcDbCircle
 10
1.162384244009643
 20
2.617223155166216
 30
0.0
 40
0.2912500000000203
100
AcDbArc
 50
138.6045869493623
 51
221.3954130506367
  0
LINE
  5
3787
330
17
100
AcDbEntity
  8
0
100
AcDbLine
 10
0.9983268693258082
 20
2.871559036063532
 30
0.0
 11
0.9438989760637355
 21
2.809812745203204
 31
0.0
  0
LINE
  5
3788
330
17
100
AcDbEntity
  8
0
  6
THD
100
AcDbLine
 10
1.099599010691264
 20
2.782290041539939
 30
0.0
 11
1.045171117429191
 21
2.720543750679611
 31
0.0
  0
ARC
  5
3789
330
17
100
AcDbEntity
  8
0
100
AcDbCircle
 10
0.9748842440097291
 20
2.342223155166211
 30
0.0
 40
0.03125
100
AcDbArc
 50
0.0000000000227982
 51
41.39541305065399
  0
ARC
  5
378A
330
17
100
AcDbEntity
  8
0
  6
THD
100
AcDbCircle
 10
0.9748842440097291
 20
2.342223155166211
 30
0.0
 40
0.16625
100
AcDbArc
 50
0.0000000000227982
 51
41.39541305065399
  0
LINE
  5
378B
330
17
100
AcDbEntity
  8
0
100
AcDbLine
 10
0.9983268693258082
 20
2.362887274268901
 30
0.0
 11
0.9438989760637355
 21
2.4246335651292
 31
0.0
  0
LINE
  5
378C
330
17
100
AcDbEntity
  8
0
  6
THD
100
AcDbLine
 10
1.099599010691264
 20
2.452156268792494
 30
0.0
 11
1.045171117429191
 21
2.513902559652793
 31
0.0
  0
LINE
  5
3965
330
17
100
AcDbEntity
  8
0
100
AcDbLine
 10
-0.9309846016901275
 20
1.572223155166208
 30
0.0
 11
0.880753237718423
 21
1.572223155166208
 31
0.0
  0
LINE
  5
3966
330
17
100
AcDbEntity
  8
0
100
AcDbLine
 10
-0.9309846016901346
 20
1.806486507320174
 30
0.0
 11
0.880753237718423
 21
1.806486507320174
 31
0.0
  0
LINE
  5
3967
330
17
100
AcDbEntity
  8
0
100
AcDbLine
 10
-0.8823022936327333
 20
3.432223155166164
 30
0.0
 11
0.8808519603528139
 21
3.432223155166164
 31
0.0
  0
LINE
  5
3970
330
17
100
AcDbEntity
  8
0
100
AcDbLine
 10
0.974884244009921
 20
3.130711603466219
 30
0.0
 11
0.9748842392912813
 21
2.844964300057997
 31
0.0
  0
LINE
  5
3971
330
17
100
AcDbEntity
  8
0
100
AcDbLine
 10
0.9748842317697636
 20
2.389482018807301
 30
0.0
 11
0.9748842277005955
 21
2.143064298059501
 31
0.0
  0
LINE
  5
3972
330
17
100
AcDbEntity
  8
0
100
AcDbLine
 10
-0.8874602846079255
 20
3.666759775266216
 30
0.0
 11
0.8808519603528139
 21
3.669723155166218
 31
0.0
  0
LINE
  5
3973
330
17
100
AcDbEntity
  8
0
100
AcDbLine
 10
-1.025115755990135
 20
2.071234608266211
 30
0.0
 11
-1.025115755990139
 21
2.38948200492174
 31
0.0
  0
LINE
  5
3974
330
17
100
AcDbEntity
  8
0
100
AcDbLine
 10
-1.025115755990139
 20
2.844964305410693
 30
0.0
 11
-1.025115755990135
 21
3.170711794866216
 31
0.0
  0
LINE
  5
3975
330
17
100
AcDbEntity
  8
0
100
AcDbLine
 10
-1.025115755990139
 20
2.844964305410693
 30
0.0
 11
-1.025115755990139
 21
2.389482004921726
 31
0.0
  0
LINE
  5
3976
330
17
100
AcDbEntity
  8
0
100
AcDbLine
 10
0.9748842392912813
 20
2.844964300057997
 30
0.0
 11
0.9748842317697636
 21
2.389482018807301
 31
0.0
  0
CIRCLE
  5
3F4E
330
17
100
AcDbEntity
  8
0
100
AcDbCircle
 10
-0.0251157559902922
 20
2.617223155166231
 30
0.0
 40
0.34375
  0
LINE
  5
3FBA
330
17
100
AcDbEntity
  8
0
100
AcDbLine
 10
0.9748843920184242
 20
2.071234593266206
 30
0.0
 11
0.97486851851842
 21
1.991208885166203
 31
0.0
  0
LINE
  5
3FBB
330
17
100
AcDbEntity
  8
0
100
AcDbLine
 10
0.97486851851842
 20
1.991208885166203
 30
0.0
 11
0.9746420988184283
 21
1.913649757066211
 31
0.0
  0
LINE
  5
3FBC
330
17
100
AcDbEntity
  8
0
100
AcDbLine
 10
0.9746420988184283
 20
1.913649757066211
 30
0.0
 11
0.9737195612184237
 21
1.841174127466205
 31
0.0
  0
LINE
  5
3FBD
330
17
100
AcDbEntity
  8
0
100
AcDbLine
 10
0.9737195612184237
 20
1.841174127466205
 30
0.0
 11
0.971402060418427
 21
1.775182957466208
 31
0.0
  0
LINE
  5
3FBE
330
17
100
AcDbEntity
  8
0
100
AcDbLine
 10
0.971402060418427
 20
1.775182957466208
 30
0.0
 11
0.9667642549184236
 21
1.715925112566205
 31
0.0
  0
LINE
  5
3FBF
330
17
100
AcDbEntity
  8
0
100
AcDbLine
 10
0.9667642549184236
 20
1.715925112566205
 30
0.0
 11
0.9588897091184236
 21
1.665545686566206
 31
0.0
  0
LINE
  5
3FC0
330
17
100
AcDbEntity
  8
0
100
AcDbLine
 10
0.9588897091184236
 20
1.665545686566206
 30
0.0
 11
0.9470444814184233
 21
1.625562763766213
 31
0.0
  0
LINE
  5
3FC1
330
17
100
AcDbEntity
  8
0
100
AcDbLine
 10
0.9470444814184233
 20
1.625562763766213
 30
0.0
 11
0.9302928610184224
 21
1.596101375866213
 31
0.0
  0
LINE
  5
3FC2
330
17
100
AcDbEntity
  8
0
100
AcDbLine
 10
0.9302928610184224
 20
1.596101375866213
 30
0.0
 11
0.9081238000184228
 21
1.578149916166205
 31
0.0
  0
LINE
  5
3FC3
330
17
100
AcDbEntity
  8
0
100
AcDbLine
 10
0.9081238000184228
 20
1.578149916166205
 30
0.0
 11
0.880753237718423
 21
1.572223155166208
 31
0.0
  0
LINE
  5
3FC4
330
17
100
AcDbEntity
  8
0
100
AcDbLine
 10
0.97486851851842
 20
2.015979372320176
 30
0.0
 11
0.9746420988184283
 21
1.977199808320174
 31
0.0
  0
LINE
  5
3FC5
330
17
100
AcDbEntity
  8
0
100
AcDbLine
 10
0.9746420988184283
 20
1.977199808320174
 30
0.0
 11
0.9737195612184237
 21
1.94096199352017
 31
0.0
  0
LINE
  5
3FC6
330
17
100
AcDbEntity
  8
0
100
AcDbLine
 10
0.9737195612184237
 20
1.94096199352017
 30
0.0
 11
0.971402060418427
 21
1.907966408420174
 31
0.0
  0
LINE
  5
3FC7
330
17
100
AcDbEntity
  8
0
100
AcDbLine
 10
0.971402060418427
 20
1.907966408420174
 30
0.0
 11
0.9667642549184236
 21
1.878337486020173
 31
0.0
  0
LINE
  5
3FC8
330
17
100
AcDbEntity
  8
0
100
AcDbLine
 10
0.9667642549184236
 20
1.878337486020173
 30
0.0
 11
0.9588897091184236
 21
1.853147773020177
 31
0.0
  0
LINE
  5
3FC9
330
17
100
AcDbEntity
  8
0
100
AcDbLine
 10
0.9588897091184236
 20
1.853147773020177
 30
0.0
 11
0.9470444814184233
 21
1.833156311620173
 31
0.0
  0
LINE
  5
3FCA
330
17
100
AcDbEntity
  8
0
100
AcDbLine
 10
0.9470444814184233
 20
1.833156311620173
 30
0.0
 11
0.9302928610184224
 21
1.818425617720174
 31
0.0
  0
LINE
  5
3FCB
330
17
100
AcDbEntity
  8
0
100
AcDbLine
 10
0.9302928610184224
 20
1.818425617720174
 30
0.0
 11
0.9081238000184228
 21
1.809449887820173
 31
0.0
  0
LINE
  5
3FCC
330
17
100
AcDbEntity
  8
0
100
AcDbLine
 10
0.9081238000184228
 20
1.809449887820173
 30
0.0
 11
0.880753237718423
 21
1.806486507320174
 31
0.0
  0
LINE
  5
3FCD
330
17
100
AcDbEntity
  8
0
100
AcDbLine
 10
0.8808519603528139
 20
3.432223155166164
 30
0.0
 11
0.9082225261528122
 21
3.429259773866165
 31
0.0
  0
LINE
  5
3FCE
330
17
100
AcDbEntity
  8
0
100
AcDbLine
 10
0.9082225261528122
 20
3.429259773866165
 30
0.0
 11
0.9303915891528191
 21
3.420284041466162
 31
0.0
  0
LINE
  5
3FCF
330
17
100
AcDbEntity
  8
0
100
AcDbLine
 10
0.9303915891528191
 20
3.420284041466162
 30
0.0
 11
0.9471432100528147
 21
3.405553343466168
 31
0.0
  0
LINE
  5
3FD0
330
17
100
AcDbEntity
  8
0
100
AcDbLine
 10
0.9471432100528147
 20
3.405553343466168
 30
0.0
 11
0.9589884372528132
 21
3.385561876666161
 31
0.0
  0
LINE
  5
3FD1
330
17
100
AcDbEntity
  8
0
100
AcDbLine
 10
0.9589884372528132
 20
3.385561876666161
 30
0.0
 11
0.9668629818528131
 21
3.360372157066167
 31
0.0
  0
LINE
  5
3FD2
330
17
100
AcDbEntity
  8
0
100
AcDbLine
 10
0.9668629818528131
 20
3.360372157066167
 30
0.0
 11
0.9715007858528181
 21
3.330743227466159
 31
0.0
  0
LINE
  5
3FD3
330
17
100
AcDbEntity
  8
0
100
AcDbLine
 10
0.9715007858528181
 20
3.330743227466159
 30
0.0
 11
0.9738182852528183
 21
3.297747634766169
 31
0.0
  0
LINE
  5
3FD4
330
17
100
AcDbEntity
  8
0
100
AcDbLine
 10
0.9738182852528183
 20
3.297747634766169
 30
0.0
 11
0.9747408220528157
 21
3.261509811766162
 31
0.0
  0
LINE
  5
3FD5
330
17
100
AcDbEntity
  8
0
100
AcDbLine
 10
0.9747408220528157
 20
3.261509811766162
 30
0.0
 11
0.9749672411528109
 21
3.222730239966169
 31
0.0
  0
LINE
  5
3FD6
330
17
100
AcDbEntity
  8
0
100
AcDbLine
 10
0.8808519603528139
 20
3.669723155166218
 30
0.0
 11
0.9082225261528122
 21
3.663796392566213
 31
0.0
  0
LINE
  5
3FD7
330
17
100
AcDbEntity
  8
0
100
AcDbLine
 10
0.9082225261528122
 20
3.663796392566213
 30
0.0
 11
0.9303915891528191
 21
3.645844927766214
 31
0.0
  0
LINE
  5
3FD8
330
17
100
AcDbEntity
  8
0
100
AcDbLine
 10
0.9303915891528191
 20
3.645844927766214
 30
0.0
 11
0.9471432100528147
 21
3.616383531866214
 31
0.0
  0
LINE
  5
3FD9
330
17
100
AcDbEntity
  8
0
100
AcDbLine
 10
0.9471432100528147
 20
3.616383531866214
 30
0.0
 11
0.9589884372528132
 21
3.576400598166218
 31
0.0
  0
LINE
  5
3FDA
330
17
100
AcDbEntity
  8
0
100
AcDbLine
 10
0.9589884372528132
 20
3.576400598166218
 30
0.0
 11
0.9668629818528131
 21
3.526021158966218
 31
0.0
  0
LINE
  5
3FDB
330
17
100
AcDbEntity
  8
0
100
AcDbLine
 10
0.9668629818528131
 20
3.526021158966218
 30
0.0
 11
0.9715007858528181
 21
3.466763299666213
 31
0.0
  0
LINE
  5
3FDC
330
17
100
AcDbEntity
  8
0
100
AcDbLine
 10
0.9715007858528181
 20
3.466763299666213
 30
0.0
 11
0.9738182852528183
 21
3.400772114266212
 31
0.0
  0
LINE
  5
3FDD
330
17
100
AcDbEntity
  8
0
100
AcDbLine
 10
0.9738182852528183
 20
3.400772114266212
 30
0.0
 11
0.9747408220528157
 21
3.32829646836622
 31
0.0
  0
LINE
  5
3FDE
330
17
100
AcDbEntity
  8
0
100
AcDbLine
 10
0.9747408220528157
 20
3.32829646836622
 30
0.0
 11
0.9749672411528109
 21
3.250737324666213
 31
0.0
  0
LINE
  5
3FDF
330
17
100
AcDbEntity
  8
0
100
AcDbLine
 10
0.9749672411528109
 20
3.250737324666213
 30
0.0
 11
0.9749831146528151
 21
3.170711603466218
 31
0.0
  0
LINE
  5
3FE0
330
17
100
AcDbEntity
  8
0
100
AcDbLine
 10
-0.9309846016901346
 20
1.572223155166208
 30
0.0
 11
-0.9583551644901362
 21
1.578149916366209
 31
0.0
  0
LINE
  5
3FE1
330
17
100
AcDbEntity
  8
0
100
AcDbLine
 10
-0.9583551644901362
 20
1.578149916366209
 30
0.0
 11
-0.980524225790134
 21
1.596101376766208
 31
0.0
  0
LINE
  5
3FE2
330
17
100
AcDbEntity
  8
0
100
AcDbLine
 10
-0.980524225790134
 20
1.596101376766208
 30
0.0
 11
-0.997275846190142
 21
1.625562765766206
 31
0.0
  0
LINE
  5
3FE3
330
17
100
AcDbEntity
  8
0
100
AcDbLine
 10
-0.997275846190142
 20
1.625562765766206
 30
0.0
 11
-1.009121073790133
 21
1.66554568996621
 31
0.0
  0
LINE
  5
3FE4
330
17
100
AcDbEntity
  8
0
100
AcDbLine
 10
-1.009121073790133
 20
1.66554568996621
 30
0.0
 11
-1.016995619390137
 21
1.715925117766206
 31
0.0
  0
LINE
  5
3FE5
330
17
100
AcDbEntity
  8
0
100
AcDbLine
 10
-1.016995619390137
 20
1.715925117766206
 30
0.0
 11
-1.021633424690136
 21
1.775182964466205
 31
0.0
  0
LINE
  5
3FE6
330
17
100
AcDbEntity
  8
0
100
AcDbLine
 10
-1.021633424690136
 20
1.775182964466205
 30
0.0
 11
-1.023950925290137
 21
1.841174136566211
 31
0.0
  0
LINE
  5
3FE7
330
17
100
AcDbEntity
  8
0
100
AcDbLine
 10
-1.023950925290137
 20
1.841174136566211
 30
0.0
 11
-1.024873462890134
 21
1.913649768366214
 31
0.0
  0
LINE
  5
3FE8
330
17
100
AcDbEntity
  8
0
100
AcDbLine
 10
-1.024873462890134
 20
1.913649768366214
 30
0.0
 11
-1.025099882490138
 21
1.991208898466206
 31
0.0
  0
LINE
  5
3FE9
330
17
100
AcDbEntity
  8
0
100
AcDbLine
 10
-1.025099882490138
 20
1.991208898466206
 30
0.0
 11
-1.025115755990135
 21
2.071234608266211
 31
0.0
  0
LINE
  5
3FEA
330
17
100
AcDbEntity
  8
0
100
AcDbLine
 10
-0.9309846016901346
 20
1.806486507320174
 30
0.0
 11
-0.9583551644901362
 21
1.809449887920175
 31
0.0
  0
LINE
  5
3FEB
330
17
100
AcDbEntity
  8
0
100
AcDbLine
 10
-0.9583551644901362
 20
1.809449887920175
 30
0.0
 11
-0.980524225790134
 21
1.818425618120175
 31
0.0
  0
LINE
  5
3FEC
330
17
100
AcDbEntity
  8
0
100
AcDbLine
 10
-0.980524225790134
 20
1.818425618120175
 30
0.0
 11
-0.997275846190142
 21
1.83315631262017
 31
0.0
  0
LINE
  5
3FED
330
17
100
AcDbEntity
  8
0
100
AcDbLine
 10
-0.997275846190142
 20
1.83315631262017
 30
0.0
 11
-1.009121073790133
 21
1.853147774720172
 31
0.0
  0
LINE
  5
3FEE
330
17
100
AcDbEntity
  8
0
100
AcDbLine
 10
-1.009121073790133
 20
1.853147774720172
 30
0.0
 11
-1.016995619390137
 21
1.878337488620177
 31
0.0
  0
LINE
  5
3FEF
330
17
100
AcDbEntity
  8
0
100
AcDbLine
 10
-1.016995619390137
 20
1.878337488620177
 30
0.0
 11
-1.021633424690136
 21
1.907966412020174
 31
0.0
  0
LINE
  5
3FF0
330
17
100
AcDbEntity
  8
0
100
AcDbLine
 10
-1.021633424690136
 20
1.907966412020174
 30
0.0
 11
-1.023950925290137
 21
1.940961998020172
 31
0.0
  0
LINE
  5
3FF1
330
17
100
AcDbEntity
  8
0
100
AcDbLine
 10
-1.023950925290137
 20
1.940961998020172
 30
0.0
 11
-1.024873462890134
 21
1.977199813920174
 31
0.0
  0
LINE
  5
3FF2
330
17
100
AcDbEntity
  8
0
100
AcDbLine
 10
-1.024873462890134
 20
1.977199813920174
 30
0.0
 11
-1.025099882490138
 21
2.015979379020174
 31
0.0
  0
LINE
  5
3FF3
330
17
100
AcDbEntity
  8
0
100
AcDbLine
 10
-1.025115755990135
 20
3.170711794866216
 30
0.0
 11
-1.025099882390136
 21
3.250737493966214
 31
0.0
  0
LINE
  5
3FF4
330
17
100
AcDbEntity
  8
0
100
AcDbLine
 10
-1.025099882390136
 20
3.250737493966214
 30
0.0
 11
-1.024873462490134
 21
3.328296611366214
 31
0.0
  0
LINE
  5
3FF5
330
17
100
AcDbEntity
  8
0
100
AcDbLine
 10
-1.024873462490134
 20
3.328296611366214
 30
0.0
 11
-1.023950924090136
 21
3.40077222976622
 31
0.0
  0
LINE
  5
3FF6
330
17
100
AcDbEntity
  8
0
100
AcDbLine
 10
-1.023950924090136
 20
3.40077222976622
 30
0.0
 11
-1.021633422390138
 21
3.466763389366223
 31
0.0
  0
LINE
  5
3FF7
330
17
100
AcDbEntity
  8
0
100
AcDbLine
 10
-1.021633422390138
 20
3.466763389366223
 30
0.0
 11
-1.016995615890138
 21
3.526021224366219
 31
0.0
  0
LINE
  5
3FF8
330
17
100
AcDbEntity
  8
0
100
AcDbLine
 10
-1.016995615890138
 20
3.526021224366219
 30
0.0
 11
-1.009121069290138
 21
3.57640064126622
 31
0.0
  0
LINE
  5
3FF9
330
17
100
AcDbEntity
  8
0
100
AcDbLine
 10
-1.009121069290138
 20
3.57640064126622
 30
0.0
 11
-0.9972758412901399
 21
3.616383556666223
 31
0.0
  0
LINE
  5
3FFA
330
17
100
AcDbEntity
  8
0
100
AcDbLine
 10
-0.9972758412901399
 20
3.616383556666223
 30
0.0
 11
-0.980524221290139
 21
3.645844939066217
 31
0.0
  0
LINE
  5
3FFB
330
17
100
AcDbEntity
  8
0
100
AcDbLine
 10
-0.980524221290139
 20
3.645844939066217
 30
0.0
 11
-0.9583551615901413
 21
3.663796395366221
 31
0.0
  0
LINE
  5
3FFC
330
17
100
AcDbEntity
  8
0
100
AcDbLine
 10
-0.9583551615901413
 20
3.663796395366221
 30
0.0
 11
-0.9309846016901346
 21
3.669723155166218
 31
0.0
  0
LINE
  5
3FFD
330
17
100
AcDbEntity
  8
0
100
AcDbLine
 10
-1.025099882390136
 20
3.222730324566166
 30
0.0
 11
-1.024873462490134
 21
3.261509883266166
 31
0.0
  0
LINE
  5
3FFE
330
17
100
AcDbEntity
  8
0
100
AcDbLine
 10
-1.024873462490134
 20
3.261509883266166
 30
0.0
 11
-1.023950924090136
 21
3.297747692466169
 31
0.0
  0
LINE
  5
3FFF
330
17
100
AcDbEntity
  8
0
100
AcDbLine
 10
-1.023950924090136
 20
3.297747692466169
 30
0.0
 11
-1.021633422390138
 21
3.330743272266163
 31
0.0
  0
LINE
  5
4000
330
17
100
AcDbEntity
  8
0
100
AcDbLine
 10
-1.021633422390138
 20
3.330743272266163
 30
0.0
 11
-1.016995615890138
 21
3.360372189766168
 31
0.0
  0
LINE
  5
4001
330
17
100
AcDbEntity
  8
0
100
AcDbLine
 10
-1.016995615890138
 20
3.360372189766168
 30
0.0
 11
-1.009121069290138
 21
3.385561898266162
 31
0.0
  0
LINE
  5
4002
330
17
100
AcDbEntity
  8
0
100
AcDbLine
 10
-1.009121069290138
 20
3.385561898266162
 30
0.0
 11
-0.9972758412901399
 21
3.405553355966164
 31
0.0
  0
LINE
  5
4003
330
17
100
AcDbEntity
  8
0
100
AcDbLine
 10
-0.9972758412901399
 20
3.405553355966164
 30
0.0
 11
-0.980524221290139
 21
3.420284047166164
 31
0.0
  0
LINE
  5
4004
330
17
100
AcDbEntity
  8
0
100
AcDbLine
 10
-0.980524221290139
 20
3.420284047166164
 30
0.0
 11
-0.9583551615901413
 21
3.429259775266162
 31
0.0
  0
LINE
  5
4005
330
17
100
AcDbEntity
  8
0
100
AcDbLine
 10
-0.9583551615901413
 20
3.429259775266162
 30
0.0
 11
-0.9309846016901346
 21
3.432223155166164
 31
0.0
  0
LINE
  5
4006
330
17
100
AcDbEntity
  8
0
100
AcDbLine
 10
-0.3384871046878075
 20
1.129923155166212
 30
0.0
 11
-0.3565126337878226
 21
1.026127927266204
 31
0.0
  0
LINE
  5
4007
330
17
100
AcDbEntity
  8
0
100
AcDbLine
 10
-0.3565126337878226
 20
1.026127927266204
 30
0.0
 11
-0.4098468198878109
 21
0.9301088420662058
 31
0.0
  0
LINE
  5
4008
330
17
100
AcDbEntity
  8
0
100
AcDbLine
 10
-0.4098468198878109
 20
0.9301088420662058
 30
0.0
 11
-0.4926961615878227
 21
0.8576249285661976
 31
0.0
  0
LINE
  5
4009
330
17
100
AcDbEntity
  8
0
100
AcDbLine
 10
-0.4926961615878227
 20
0.8576249285661976
 30
0.0
 11
-0.5941891210878154
 21
0.8177286563662011
 31
0.0
  0
LINE
  5
400A
330
17
100
AcDbEntity
  8
0
100
AcDbLine
 10
-0.5941891210878154
 20
0.8177286563662011
 30
0.0
 11
-0.6985480897878134
 21
0.8177286563662011
 31
0.0
  0
LINE
  5
400B
330
17
100
AcDbEntity
  8
0
100
AcDbLine
 10
-0.6985480897878134
 20
0.8177286563662011
 30
0.0
 11
-0.7912394877878129
 21
0.8576249285661976
 31
0.0
  0
LINE
  5
400C
330
17
100
AcDbEntity
  8
0
100
AcDbLine
 10
-0.7912394877878129
 20
0.8576249285661976
 30
0.0
 11
-0.8611132328878241
 21
0.9301088420662058
 31
0.0
  0
LINE
  5
400D
330
17
100
AcDbEntity
  8
0
100
AcDbLine
 10
-0.8611132328878241
 20
0.9301088420662058
 30
0.0
 11
-0.9035299032878256
 21
1.026127927266204
 31
0.0
  0
LINE
  5
400E
330
17
100
AcDbEntity
  8
0
100
AcDbLine
 10
-0.9035299032878256
 20
1.026127927266204
 30
0.0
 11
-0.9174290765878154
 21
1.129923155166212
 31
0.0
  0
LINE
  5
400F
330
17
100
AcDbEntity
  8
0
100
AcDbLine
 10
-0.7689644282878092
 20
1.129923155166212
 30
0.0
 11
-0.7576840390878133
 21
1.060020936666207
 31
0.0
  0
LINE
  5
4010
330
17
100
AcDbEntity
  8
0
100
AcDbLine
 10
-0.7576840390878133
 20
1.060020936666207
 30
0.0
 11
-0.7253645427878226
 21
1.000095920866217
 31
0.0
  0
LINE
  5
4011
330
17
100
AcDbEntity
  8
0
100
AcDbLine
 10
-0.7253645427878226
 20
1.000095920866217
 30
0.0
 11
-0.6749095711878184
 21
0.9598839252662134
 31
0.0
  0
LINE
  5
4012
330
17
100
AcDbEntity
  8
0
100
AcDbLine
 10
-0.6749095711878184
 20
0.9598839252662134
 30
0.0
 11
-0.6134229503878217
 21
0.945423155166198
 31
0.0
  0
LINE
  5
4013
330
17
100
AcDbEntity
  8
0
100
AcDbLine
 10
-0.6134229503878217
 20
0.945423155166198
 30
0.0
 11
-0.5501090455878242
 21
0.9598839252662134
 31
0.0
  0
LINE
  5
4014
330
17
100
AcDbEntity
  8
0
100
AcDbLine
 10
-0.5501090455878242
 20
0.9598839252662134
 30
0.0
 11
-0.4952600866878143
 21
1.000095920866217
 31
0.0
  0
LINE
  5
4015
330
17
100
AcDbEntity
  8
0
100
AcDbLine
 10
-0.4952600866878143
 20
1.000095920866217
 30
0.0
 11
-0.4586387001878123
 21
1.060020936666207
 31
0.0
  0
LINE
  5
4016
330
17
100
AcDbEntity
  8
0
100
AcDbLine
 10
-0.4586387001878123
 20
1.060020936666207
 30
0.0
 11
-0.4455670759878175
 21
1.129923155166212
 31
0.0
  0
LINE
  5
4017
330
17
100
AcDbEntity
  8
0
100
AcDbLine
 10
-0.7136640760878166
 20
1.129923155166212
 30
0.0
 11
-0.7043166495878169
 21
1.072148520866194
 31
0.0
  0
LINE
  5
4018
330
17
100
AcDbEntity
  8
0
100
AcDbLine
 10
-0.7043166495878169
 20
1.072148520866194
 30
0.0
 11
-0.6780376852878263
 21
1.0234067005662
 31
0.0
  0
LINE
  5
4019
330
17
100
AcDbEntity
  8
0
100
AcDbLine
 10
-0.6780376852878263
 20
1.0234067005662
 30
0.0
 11
-0.6379851447878125
 21
0.9912991378662088
 31
0.0
  0
LINE
  5
401A
330
17
100
AcDbEntity
  8
0
100
AcDbLine
 10
-0.6379851447878125
 20
0.9912991378662088
 30
0.0
 11
-0.5902111169878097
 21
0.9799231551662064
 31
0.0
  0
LINE
  5
401B
330
17
100
AcDbEntity
  8
0
100
AcDbLine
 10
-0.5902111169878097
 20
0.9799231551662064
 30
0.0
 11
-0.5413046420878161
 21
0.9912991378662088
 31
0.0
  0
LINE
  5
401C
330
17
100
AcDbEntity
  8
0
100
AcDbLine
 10
-0.5413046420878161
 20
0.9912991378662088
 30
0.0
 11
-0.4984743058878181
 21
1.0234067005662
 31
0.0
  0
LINE
  5
401D
330
17
100
AcDbEntity
  8
0
100
AcDbLine
 10
-0.4984743058878181
 20
1.0234067005662
 30
0.0
 11
-0.4694067215878093
 21
1.072148520866194
 31
0.0
  0
LINE
  5
401E
330
17
100
AcDbEntity
  8
0
100
AcDbLine
 10
-0.4694067215878093
 20
1.072148520866194
 30
0.0
 11
-0.4588741743878089
 21
1.129923155166212
 31
0.0
  0
LINE
  5
401F
330
17
100
AcDbEntity
  8
0
100
AcDbLine
 10
-0.7136640760878166
 20
1.129923155166212
 30
0.0
 11
-0.7043166495878169
 21
1.1876977894662
 31
0.0
  0
LINE
  5
4020
330
17
100
AcDbEntity
  8
0
100
AcDbLine
 10
-0.7043166495878169
 20
1.1876977894662
 30
0.0
 11
-0.6780376852878263
 21
1.236439609766195
 31
0.0
  0
LINE
  5
4021
330
17
100
AcDbEntity
  8
0
100
AcDbLine
 10
-0.6780376852878263
 20
1.236439609766195
 30
0.0
 11
-0.6379851447878125
 21
1.268547172366199
 31
0.0
  0
LINE
  5
4022
330
17
100
AcDbEntity
  8
0
100
AcDbLine
 10
-0.6379851447878125
 20
1.268547172366199
 30
0.0
 11
-0.5902111169878097
 21
1.279923155166217
 31
0.0
  0
LINE
  5
4023
330
17
100
AcDbEntity
  8
0
100
AcDbLine
 10
-0.5902111169878097
 20
1.279923155166217
 30
0.0
 11
-0.5413046420878161
 21
1.268547172366199
 31
0.0
  0
LINE
  5
4024
330
17
100
AcDbEntity
  8
0
100
AcDbLine
 10
-0.5413046420878161
 20
1.268547172366199
 30
0.0
 11
-0.4984743058878181
 21
1.236439609766195
 31
0.0
  0
LINE
  5
4025
330
17
100
AcDbEntity
  8
0
100
AcDbLine
 10
-0.4984743058878181
 20
1.236439609766195
 30
0.0
 11
-0.4694067215878093
 21
1.1876977894662
 31
0.0
  0
LINE
  5
4026
330
17
100
AcDbEntity
  8
0
100
AcDbLine
 10
-0.4694067215878093
 20
1.1876977894662
 30
0.0
 11
-0.4588741743878089
 21
1.129923155166212
 31
0.0
  0
LINE
  5
4027
330
17
100
AcDbEntity
  8
0
100
AcDbLine
 10
-0.7689644282878092
 20
1.129923155166212
 30
0.0
 11
-0.7576840390878133
 21
1.199825373666216
 31
0.0
  0
LINE
  5
4028
330
17
100
AcDbEntity
  8
0
100
AcDbLine
 10
-0.7576840390878133
 20
1.199825373666216
 30
0.0
 11
-0.7253645427878226
 21
1.259750389366219
 31
0.0
  0
LINE
  5
4029
330
17
100
AcDbEntity
  8
0
100
AcDbLine
 10
-0.7253645427878226
 20
1.259750389366219
 30
0.0
 11
-0.6749095711878184
 21
1.299962384966194
 31
0.0
  0
LINE
  5
402A
330
17
100
AcDbEntity
  8
0
100
AcDbLine
 10
-0.6749095711878184
 20
1.299962384966194
 30
0.0
 11
-0.6134229503878217
 21
1.314423155166197
 31
0.0
  0
LINE
  5
402B
330
17
100
AcDbEntity
  8
0
100
AcDbLine
 10
-0.6134229503878217
 20
1.314423155166197
 30
0.0
 11
-0.5501090455878242
 21
1.299962384966194
 31
0.0
  0
LINE
  5
402C
330
17
100
AcDbEntity
  8
0
100
AcDbLine
 10
-0.5501090455878242
 20
1.299962384966194
 30
0.0
 11
-0.4952600866878143
 21
1.259750389366219
 31
0.0
  0
LINE
  5
402D
330
17
100
AcDbEntity
  8
0
100
AcDbLine
 10
-0.4952600866878143
 20
1.259750389366219
 30
0.0
 11
-0.4586387001878123
 21
1.199825373666216
 31
0.0
  0
LINE
  5
402E
330
17
100
AcDbEntity
  8
0
100
AcDbLine
 10
-0.4586387001878123
 20
1.199825373666216
 30
0.0
 11
-0.4455670759878175
 21
1.129923155166212
 31
0.0
  0
LINE
  5
402F
330
17
100
AcDbEntity
  8
0
100
AcDbLine
 10
-0.9174290765878154
 20
1.129923155166212
 30
0.0
 11
-0.9035299032878256
 21
1.23371838306622
 31
0.0
  0
LINE
  5
4030
330
17
100
AcDbEntity
  8
0
100
AcDbLine
 10
-0.9035299032878256
 20
1.23371838306622
 30
0.0
 11
-0.8611132328878241
 21
1.329737468166202
 31
0.0
  0
LINE
  5
4031
330
17
100
AcDbEntity
  8
0
100
AcDbLine
 10
-0.8611132328878241
 20
1.329737468166202
 30
0.0
 11
-0.7912394877878129
 21
1.40222138166621
 31
0.0
  0
LINE
  5
4032
330
17
100
AcDbEntity
  8
0
100
AcDbLine
 10
-0.7912394877878129
 20
1.40222138166621
 30
0.0
 11
-0.6985480897878134
 21
1.442117653866207
 31
0.0
  0
LINE
  5
4033
330
17
100
AcDbEntity
  8
0
100
AcDbLine
 10
-0.6985480897878134
 20
1.442117653866207
 30
0.0
 11
-0.5941891210878154
 21
1.442117653866207
 31
0.0
  0
LINE
  5
4034
330
17
100
AcDbEntity
  8
0
100
AcDbLine
 10
-0.5941891210878154
 20
1.442117653866207
 30
0.0
 11
-0.4926961615878227
 21
1.40222138166621
 31
0.0
  0
LINE
  5
4035
330
17
100
AcDbEntity
  8
0
100
AcDbLine
 10
-0.4926961615878227
 20
1.40222138166621
 30
0.0
 11
-0.4098468198878109
 21
1.329737468166202
 31
0.0
  0
LINE
  5
4036
330
17
100
AcDbEntity
  8
0
100
AcDbLine
 10
-0.4098468198878109
 20
1.329737468166202
 30
0.0
 11
-0.3565126337878226
 21
1.23371838306622
 31
0.0
  0
LINE
  5
4037
330
17
100
AcDbEntity
  8
0
100
AcDbLine
 10
-0.3565126337878226
 20
1.23371838306622
 30
0.0
 11
-0.3384871046878075
 21
1.129923155166212
 31
0.0
  0
LINE
  5
4038
330
17
100
AcDbEntity
  8
0
100
AcDbLine
 10
0.2882555927072374
 20
1.129923155166212
 30
0.0
 11
0.3062811218072525
 21
1.026127927266204
 31
0.0
  0
LINE
  5
4039
330
17
100
AcDbEntity
  8
0
100
AcDbLine
 10
0.3062811218072525
 20
1.026127927266204
 30
0.0
 11
0.3596153079072408
 21
0.9301088420662058
 31
0.0
  0
LINE
  5
403A
330
17
100
AcDbEntity
  8
0
100
AcDbLine
 10
0.3596153079072408
 20
0.9301088420662058
 30
0.0
 11
0.4424646496072527
 21
0.8576249285661976
 31
0.0
  0
LINE
  5
403B
330
17
100
AcDbEntity
  8
0
100
AcDbLine
 10
0.4424646496072527
 20
0.8576249285661976
 30
0.0
 11
0.5439576091072454
 21
0.8177286563662011
 31
0.0
  0
LINE
  5
403C
330
17
100
AcDbEntity
  8
0
100
AcDbLine
 10
0.5439576091072454
 20
0.8177286563662011
 30
0.0
 11
0.6483165778072433
 21
0.8177286563662011
 31
0.0
  0
LINE
  5
403D
330
17
100
AcDbEntity
  8
0
100
AcDbLine
 10
0.6483165778072433
 20
0.8177286563662011
 30
0.0
 11
0.7410079758072428
 21
0.8576249285661976
 31
0.0
  0
LINE
  5
403E
330
17
100
AcDbEntity
  8
0
100
AcDbLine
 10
0.7410079758072428
 20
0.8576249285661976
 30
0.0
 11
0.810881720907254
 21
0.9301088420662058
 31
0.0
  0
LINE
  5
403F
330
17
100
AcDbEntity
  8
0
100
AcDbLine
 10
0.810881720907254
 20
0.9301088420662058
 30
0.0
 11
0.8532983913072555
 21
1.026127927266204
 31
0.0
  0
LINE
  5
4040
330
17
100
AcDbEntity
  8
0
100
AcDbLine
 10
0.8532983913072555
 20
1.026127927266204
 30
0.0
 11
0.8671975646072453
 21
1.129923155166212
 31
0.0
  0
LINE
  5
4041
330
17
100
AcDbEntity
  8
0
100
AcDbLine
 10
0.7187329163072392
 20
1.129923155166212
 30
0.0
 11
0.7074525271072432
 21
1.060020936666207
 31
0.0
  0
LINE
  5
4042
330
17
100
AcDbEntity
  8
0
100
AcDbLine
 10
0.7074525271072432
 20
1.060020936666207
 30
0.0
 11
0.6751330308072525
 21
1.000095920866217
 31
0.0
  0
LINE
  5
4043
330
17
100
AcDbEntity
  8
0
100
AcDbLine
 10
0.6751330308072525
 20
1.000095920866217
 30
0.0
 11
0.6246780592072483
 21
0.9598839252662134
 31
0.0
  0
LINE
  5
4044
330
17
100
AcDbEntity
  8
0
100
AcDbLine
 10
0.6246780592072483
 20
0.9598839252662134
 30
0.0
 11
0.5631914384072516
 21
0.945423155166198
 31
0.0
  0
LINE
  5
4045
330
17
100
AcDbEntity
  8
0
100
AcDbLine
 10
0.5631914384072516
 20
0.945423155166198
 30
0.0
 11
0.4998775336072541
 21
0.9598839252662134
 31
0.0
  0
LINE
  5
4046
330
17
100
AcDbEntity
  8
0
100
AcDbLine
 10
0.4998775336072541
 20
0.9598839252662134
 30
0.0
 11
0.4450285747072443
 21
1.000095920866217
 31
0.0
  0
LINE
  5
4047
330
17
100
AcDbEntity
  8
0
100
AcDbLine
 10
0.4450285747072443
 20
1.000095920866217
 30
0.0
 11
0.4084071882072422
 21
1.060020936666207
 31
0.0
  0
LINE
  5
4048
330
17
100
AcDbEntity
  8
0
100
AcDbLine
 10
0.4084071882072422
 20
1.060020936666207
 30
0.0
 11
0.3953355640072473
 21
1.129923155166212
 31
0.0
  0
LINE
  5
4049
330
17
100
AcDbEntity
  8
0
100
AcDbLine
 10
0.6634325641072465
 20
1.129923155166212
 30
0.0
 11
0.6540851376072468
 21
1.072148520866194
 31
0.0
  0
LINE
  5
404A
330
17
100
AcDbEntity
  8
0
100
AcDbLine
 10
0.6540851376072468
 20
1.072148520866194
 30
0.0
 11
0.6278061733072562
 21
1.0234067005662
 31
0.0
  0
LINE
  5
404B
330
17
100
AcDbEntity
  8
0
100
AcDbLine
 10
0.6278061733072562
 20
1.0234067005662
 30
0.0
 11
0.5877536328072424
 21
0.9912991378662088
 31
0.0
  0
LINE
  5
404C
330
17
100
AcDbEntity
  8
0
100
AcDbLine
 10
0.5877536328072424
 20
0.9912991378662088
 30
0.0
 11
0.5399796050072397
 21
0.9799231551662064
 31
0.0
  0
LINE
  5
404D
330
17
100
AcDbEntity
  8
0
100
AcDbLine
 10
0.5399796050072397
 20
0.9799231551662064
 30
0.0
 11
0.491073130107246
 21
0.9912991378662088
 31
0.0
  0
LINE
  5
404E
330
17
100
AcDbEntity
  8
0
100
AcDbLine
 10
0.491073130107246
 20
0.9912991378662088
 30
0.0
 11
0.448242793907248
 21
1.0234067005662
 31
0.0
  0
LINE
  5
404F
330
17
100
AcDbEntity
  8
0
100
AcDbLine
 10
0.448242793907248
 20
1.0234067005662
 30
0.0
 11
0.4191752096072392
 21
1.072148520866194
 31
0.0
  0
LINE
  5
4050
330
17
100
AcDbEntity
  8
0
100
AcDbLine
 10
0.4191752096072392
 20
1.072148520866194
 30
0.0
 11
0.4086426624072388
 21
1.129923155166212
 31
0.0
  0
LINE
  5
4051
330
17
100
AcDbEntity
  8
0
100
AcDbLine
 10
0.6634325641072465
 20
1.129923155166212
 30
0.0
 11
0.6540851376072468
 21
1.1876977894662
 31
0.0
  0
LINE
  5
4052
330
17
100
AcDbEntity
  8
0
100
AcDbLine
 10
0.6540851376072468
 20
1.1876977894662
 30
0.0
 11
0.6278061733072562
 21
1.236439609766195
 31
0.0
  0
LINE
  5
4053
330
17
100
AcDbEntity
  8
0
100
AcDbLine
 10
0.6278061733072562
 20
1.236439609766195
 30
0.0
 11
0.5877536328072424
 21
1.268547172366199
 31
0.0
  0
LINE
  5
4054
330
17
100
AcDbEntity
  8
0
100
AcDbLine
 10
0.5877536328072424
 20
1.268547172366199
 30
0.0
 11
0.5399796050072397
 21
1.279923155166217
 31
0.0
  0
LINE
  5
4055
330
17
100
AcDbEntity
  8
0
100
AcDbLine
 10
0.5399796050072397
 20
1.279923155166217
 30
0.0
 11
0.491073130107246
 21
1.268547172366199
 31
0.0
  0
LINE
  5
4056
330
17
100
AcDbEntity
  8
0
100
AcDbLine
 10
0.491073130107246
 20
1.268547172366199
 30
0.0
 11
0.448242793907248
 21
1.236439609766195
 31
0.0
  0
LINE
  5
4057
330
17
100
AcDbEntity
  8
0
100
AcDbLine
 10
0.448242793907248
 20
1.236439609766195
 30
0.0
 11
0.4191752096072392
 21
1.1876977894662
 31
0.0
  0
LINE
  5
4058
330
17
100
AcDbEntity
  8
0
100
AcDbLine
 10
0.4191752096072392
 20
1.1876977894662
 30
0.0
 11
0.4086426624072388
 21
1.129923155166212
 31
0.0
  0
LINE
  5
4059
330
17
100
AcDbEntity
  8
0
100
AcDbLine
 10
0.7187329163072392
 20
1.129923155166212
 30
0.0
 11
0.7074525271072432
 21
1.199825373666216
 31
0.0
  0
LINE
  5
405A
330
17
100
AcDbEntity
  8
0
100
AcDbLine
 10
0.7074525271072432
 20
1.199825373666216
 30
0.0
 11
0.6751330308072525
 21
1.259750389366219
 31
0.0
  0
LINE
  5
405B
330
17
100
AcDbEntity
  8
0
100
AcDbLine
 10
0.6751330308072525
 20
1.259750389366219
 30
0.0
 11
0.6246780592072483
 21
1.299962384966194
 31
0.0
  0
LINE
  5
405C
330
17
100
AcDbEntity
  8
0
100
AcDbLine
 10
0.6246780592072483
 20
1.299962384966194
 30
0.0
 11
0.5631914384072516
 21
1.314423155166197
 31
0.0
  0
LINE
  5
405D
330
17
100
AcDbEntity
  8
0
100
AcDbLine
 10
0.5631914384072516
 20
1.314423155166197
 30
0.0
 11
0.4998775336072541
 21
1.299962384966194
 31
0.0
  0
LINE
  5
405E
330
17
100
AcDbEntity
  8
0
100
AcDbLine
 10
0.4998775336072541
 20
1.299962384966194
 30
0.0
 11
0.4450285747072443
 21
1.259750389366219
 31
0.0
  0
LINE
  5
405F
330
17
100
AcDbEntity
  8
0
100
AcDbLine
 10
0.4450285747072443
 20
1.259750389366219
 30
0.0
 11
0.4084071882072422
 21
1.199825373666216
 31
0.0
  0
LINE
  5
4060
330
17
100
AcDbEntity
  8
0
100
AcDbLine
 10
0.4084071882072422
 20
1.199825373666216
 30
0.0
 11
0.3953355640072473
 21
1.129923155166212
 31
0.0
  0
LINE
  5
4061
330
17
100
AcDbEntity
  8
0
100
AcDbLine
 10
0.8671975646072453
 20
1.129923155166212
 30
0.0
 11
0.8532983913072555
 21
1.23371838306622
 31
0.0
  0
LINE
  5
4062
330
17
100
AcDbEntity
  8
0
100
AcDbLine
 10
0.8532983913072555
 20
1.23371838306622
 30
0.0
 11
0.810881720907254
 21
1.329737468166202
 31
0.0
  0
LINE
  5
4063
330
17
100
AcDbEntity
  8
0
100
AcDbLine
 10
0.810881720907254
 20
1.329737468166202
 30
0.0
 11
0.7410079758072428
 21
1.40222138166621
 31
0.0
  0
LINE
  5
4064
330
17
100
AcDbEntity
  8
0
100
AcDbLine
 10
0.7410079758072428
 20
1.40222138166621
 30
0.0
 11
0.6483165778072433
 21
1.442117653866207
 31
0.0
  0
LINE
  5
4065
330
17
100
AcDbEntity
  8
0
100
AcDbLine
 10
0.6483165778072433
 20
1.442117653866207
 30
0.0
 11
0.5439576091072454
 21
1.442117653866207
 31
0.0
  0
LINE
  5
4066
330
17
100
AcDbEntity
  8
0
100
AcDbLine
 10
0.5439576091072454
 20
1.442117653866207
 30
0.0
 11
0.4424646496072527
 21
1.40222138166621
 31
0.0
  0
LINE
  5
4067
330
17
100
AcDbEntity
  8
0
100
AcDbLine
 10
0.4424646496072527
 20
1.40222138166621
 30
0.0
 11
0.3596153079072408
 21
1.329737468166202
 31
0.0
  0
LINE
  5
4068
330
17
100
AcDbEntity
  8
0
100
AcDbLine
 10
0.3596153079072408
 20
1.329737468166202
 30
0.0
 11
0.3062811218072525
 21
1.23371838306622
 31
0.0
  0
LINE
  5
4069
330
17
100
AcDbEntity
  8
0
100
AcDbLine
 10
0.3062811218072525
 20
1.23371838306622
 30
0.0
 11
0.2882555927072374
 21
1.129923155166212
 31
0.0
  0
ENDSEC
  0
SECTION
  2
OBJECTS
  0
DICTIONARY
  5
C
330
0
100
AcDbDictionary
281
     1
  3
ACAD_COLOR
350
28FA
  3
ACAD_GROUP
350
D
  3
ACAD_LAYOUT
350
47B
  3
ACAD_MATERIAL
350
28F9
  3
ACAD_MLINESTYLE
350
1A
  3
ACAD_PLOTSETTINGS
350
47C
  3
ACAD_PLOTSTYLENAME
350
479
  3
ACAD_TABLESTYLE
350
28FB
  3
ACDBHEADERROUNDTRIPXREC
350
408E
  3
ACDBVARIABLEDICTIONARY
350
49
  0
DICTIONARY
  5
2ABF
330
2
100
AcDbDictionary
280
     1
281
     1
  3
ACAD_LAYERFILTERS
360
2F66
  3
ACAD_LAYERSTATES
360
2C63
  3
ACLYDICTIONARY
360
2F65
  0
DICTIONARY
  5
7D0
330
17
100
AcDbDictionary
280
     1
281
     1
  3
ACAD_LAYOUTSELFREF
360
1071
  3
ACAD_SORTENTS
360
2D11
  0
DICTIONARY
  5
7CE
330
14
100
AcDbDictionary
280
     1
281
     1
  3
ACAD_LAYOUTSELFREF
360
1070
  0
DICTIONARY
  5
28FA
102
{ACAD_REACTORS
330
C
102
}
330
C
100
AcDbDictionary
281
     1
  0
DICTIONARY
  5
D
102
{ACAD_REACTORS
330
C
102
}
330
C
100
AcDbDictionary
281
     1
  0
DICTIONARY
  5
47B
102
{ACAD_REACTORS
330
C
102
}
330
C
100
AcDbDictionary
281
     1
  3
Layout1
350
47E
  3
Model
350
47D
  0
DICTIONARY
  5
28F9
102
{ACAD_REACTORS
330
C
102
}
330
C
100
AcDbDictionary
281
     1
  0
DICTIONARY
  5
1A
102
{ACAD_REACTORS
330
C
102
}
330
C
100
AcDbDictionary
281
     1
  3
STANDARD
350
1B
  0
DICTIONARY
  5
47C
102
{ACAD_REACTORS
330
C
102
}
330
C
100
AcDbDictionary
281
     1
  0
ACDBDICTIONARYWDFLT
  5
479
102
{ACAD_REACTORS
330
C
102
}
330
C
100
AcDbDictionary
281
     1
  3
Normal
350
47A
100
AcDbDictionaryWithDefault
340
47A
  0
DICTIONARY
  5
28FB
102
{ACAD_REACTORS
330
C
102
}
330
C
100
AcDbDictionary
281
     1
  3
Standard
350
28FC
  0
DICTIONARY
  5
408E
102
{ACAD_REACTORS
330
C
102
}
330
C
100
AcDbDictionary
281
     1
  0
DICTIONARY
  5
49
102
{ACAD_REACTORS
330
C
102
}
330
C
100
AcDbDictionary
281
     1
  3
CTABLESTYLE
350
2AA3
  3
DIMADEC
350
4A
  3
DIMASSOC
350
708
  3
PROJECTNAME
350
2F3C
  0
DICTIONARY
  5
2F66
102
{ACAD_REACTORS
330
2ABF
102
}
330
2ABF
100
AcDbDictionary
281
     1
  0
DICTIONARY
  5
2C63
102
{ACAD_REACTORS
330
2ABF
102
}
330
2ABF
100
AcDbDictionary
281
     1
  0
DICTIONARY
  5
2F65
102
{ACAD_REACTORS
330
2ABF
102
}
330
2ABF
100
AcDbDictionary
281
     1
1001
ACAD
1000
<All
  0
XRECORD
  5
1071
102
{ACAD_REACTORS
330
7D0
102
}
330
7D0
100
AcDbXrecord
280
     1
340
17
  0
SORTENTSTABLE
  5
2D11
102
{ACAD_REACTORS
330
7D0
102
}
330
7D0
100
AcDbSortentsTable
330
17
331
4059
  5
3976
331
3FE3
  5
3F9C
331
401A
  5
3ABF
331
4061
  5
3965
331
3FEB
  5
3F91
331
4022
  5
3AB7
331
3765
  5
3765
331
3974
  5
3FDA
331
4069
  5
3975
331
3FF3
  5
3AE1
331
402A
  5
3AAF
331
376D
  5
376D
331
4032
  5
3AA6
331
3FBC
  5
3FCE
331
3FFB
  5
3F8E
331
403A
  5
3A9C
331
3FC4
  5
3FC3
331
3775
  5
3775
331
4003
  5
3ADE
331
4042
  5
3A93
331
3FCC
  5
3FCB
331
377D
  5
377D
331
400B
  5
3AD1
331
404A
  5
3A8B
331
3FD4
  5
3FC1
331
3785
  5
3785
331
4052
  5
3A83
331
3FDC
  5
3FA9
331
4013
  5
3AC8
331
400
  5
400
331
405A
  5
3977
331
3FE4
  5
3F9D
331
401B
  5
3AC0
331
3965
  5
3AD5
331
4062
  5
3966
331
3FEC
  5
3F92
331
4023
  5
3AB8
331
3766
  5
3766
331
3975
  5
3FDB
331
3FF4
  5
3F4E
331
402B
  5
3AB0
331
376E
  5
376E
331
4033
  5
3AA7
331
3FBD
  5
3FCF
331
3FC5
  5
3FC4
331
3776
  5
3776
331
3FFC
  5
3F8F
331
403B
  5
3A9D
331
3FCD
  5
3FBA
331
377E
  5
377E
331
4004
  5
3ADF
331
4043
  5
3A94
331
3FD5
  5
3FC2
331
3786
  5
3786
331
400C
  5
3AD2
331
404B
  5
3A8C
331
4053
  5
3A84
331
3FDD
  5
3FAA
331
4014
  5
3AC9
331
405B
  5
3978
331
3966
  5
3AD6
331
3FE5
  5
3F9E
331
401C
  5
3AC1
331
4063
  5
3967
331
3767
  5
3767
331
3976
  5
3FDC
331
3FED
  5
3F93
331
4024
  5
3AB9
331
3F4E
  5
4044
331
376F
  5
376F
331
3FF5
  5
3F88
331
402C
  5
3AB1
331
4034
  5
3AA8
331
3FBE
  5
3FD0
331
3FFD
  5
3AD8
331
403C
  5
3A9E
331
3777
  5
3777
331
3FC6
  5
3FC5
331
4005
  5
3AE0
331
4044
  5
3A95
331
377F
  5
377F
331
3FCE
  5
3FBB
331
400D
  5
3AD3
331
404C
  5
3A8D
331
3787
  5
3787
331
3FD6
  5
3FA3
331
4054
  5
3A85
331
3FDE
  5
3FAB
331
4015
  5
3ACA
331
405C
  5
3979
331
3967
  5
3AD7
331
3FE6
  5
3F9F
331
401D
  5
3AC2
331
4064
  5
3970
331
3768
  5
3768
331
3FEE
  5
3F94
331
4025
  5
3ABA
331
3FF6
  5
3F89
331
402D
  5
3AB2
331
4035
  5
3AA9
331
3FBF
  5
3FD1
331
3770
  5
3770
331
3FFE
  5
3AD9
331
403D
  5
3A9F
331
3778
  5
3778
331
3FC7
  5
3FC6
331
4006
  5
3ACC
331
4045
  5
3A96
331
3780
  5
3780
331
3FCF
  5
3FBC
331
400E
  5
3AD4
331
404D
  5
3A8E
331
3788
  5
3788
331
3FD7
  5
3FA4
331
4055
  5
3A86
331
3FDF
  5
3FAD
331
4016
  5
3ACB
331
405D
  5
397A
331
3970
  5
3FD6
331
3FE7
  5
3FA0
331
401E
  5
3AC3
331
4065
  5
3971
331
3769
  5
3769
331
3FEF
  5
3F95
331
4026
  5
3ABB
331
3FF7
  5
3F8A
331
402E
  5
3AB3
331
4036
  5
3AAA
331
3771
  5
3771
331
3FC0
  5
3FD2
331
3FFF
  5
3ADA
331
403E
  5
3AA0
331
3FC8
  5
3FC7
331
3779
  5
3779
331
4007
  5
3ACD
331
4046
  5
3A97
331
3FD0
  5
3FBD
331
3781
  5
3781
331
3FD8
  5
3FA5
331
400F
  5
3AC4
331
404E
  5
3A8F
331
3789
  5
3789
331
4056
  5
3A87
331
4017
  5
3ABC
331
3FE0
  5
3F99
331
405E
  5
3A7F
331
3FE8
  5
3FA1
331
401F
  5
3AB4
331
3971
  5
3FD7
331
4066
  5
3972
331
3FF0
  5
3F96
331
4027
  5
3AAC
331
376A
  5
376A
331
402F
  5
3AA3
331
4037
  5
3AAB
331
3FF8
  5
3F8B
331
3FC1
  5
3FD3
331
3772
  5
3772
331
4000
  5
3ADB
331
403F
  5
3AA1
331
3FC9
  5
3FC8
331
377A
  5
377A
331
4008
  5
3ACE
331
4047
  5
3A98
331
3FD1
  5
3FBE
331
3782
  5
3782
331
3FD9
  5
3FA6
331
4010
  5
3AC5
331
404F
  5
3A90
331
378A
  5
378A
331
4057
  5
3A88
331
3FE1
  5
3F9A
331
4018
  5
3ABD
331
405F
  5
3A80
331
3FE9
  5
3FA2
331
4020
  5
3AB5
331
3972
  5
3FD8
331
4067
  5
3973
331
3FF1
  5
3F97
331
4028
  5
3AAD
331
376B
  5
376B
331
4030
  5
3AA4
331
3FBA
  5
3FCC
331
3FF9
  5
3F8C
331
4038
  5
3A9A
331
3FC2
  5
3FD4
331
3773
  5
3773
331
4001
  5
3ADC
331
4040
  5
3AA2
331
3FCA
  5
3FC9
331
377B
  5
377B
331
4009
  5
3ACF
331
4048
  5
3A99
331
3FD2
  5
3FBF
331
3783
  5
3783
331
4050
  5
3A91
331
3FDA
  5
3FA7
331
4011
  5
3AC6
331
378B
  5
378B
331
4058
  5
3A89
331
3FE2
  5
3F9B
331
4019
  5
3ABE
331
4060
  5
3A81
331
3FEA
  5
3F90
331
4021
  5
3AB6
331
3973
  5
3FD9
331
3764
  5
3764
331
4068
  5
3974
331
3FF2
  5
3F98
331
4029
  5
3AAE
331
376C
  5
376C
331
4031
  5
3AA5
331
3FBB
  5
3FCD
331
3FFA
  5
3F8D
331
4039
  5
3A9B
331
3FC3
  5
3FD5
331
3774
  5
3774
331
4002
  5
3ADD
331
4041
  5
3A92
331
3FCB
  5
3FCA
331
377C
  5
377C
331
400A
  5
3AD0
331
4049
  5
3A8A
331
3FD3
  5
3FC0
331
3784
  5
3784
331
4051
  5
3A82
331
3FDB
  5
3FA8
331
4012
  5
3AC7
331
378C
  5
378C
331
3A7
  5
3A7
  0
XRECORD
  5
1070
102
{ACAD_REACTORS
330
7CE
102
}
330
7CE
100
AcDbXrecord
280
     1
340
14
  0
LAYOUT
  5
47E
102
{ACAD_XDICTIONARY
360
4091
102
}
102
{ACAD_REACTORS
330
47B
102
}
330
47B
100
AcDbPlotSettings
  1

  2
hp psc 2100 series
  4

  6

 40
0.0
 41
0.0
 42
0.0
 43
0.0
 44
0.0
 45
0.0
 46
0.0
 47
0.0
 48
0.0
 49
0.0
140
0.0
141
0.0
142
1.0
143
1.0
 70
   688
 72
     0
 73
     0
 74
     5
  7
monochrome.ctb
 75
    16
147
1.0
148
0.0
149
0.0
100
AcDbLayout
  1
Layout1
 70
     0
 71
     1
 10
0.0
 20
0.0
 11
12.0
 21
9.0
 12
0.0
 22
0.0
 32
0.0
 14
1.000000000000000E+20
 24
1.000000000000000E+20
 34
1.000000000000000E+20
 15
-1.000000000000000E+20
 25
-1.000000000000000E+20
 35
-1.000000000000000E+20
146
0.0
 13
0.0
 23
0.0
 33
0.0
 16
1.0
 26
0.0
 36
0.0
 17
0.0
 27
1.0
 37
0.0
 76
     0
330
14
  0
LAYOUT
  5
47D
102
{ACAD_XDICTIONARY
360
408F
102
}
102
{ACAD_REACTORS
330
47B
102
}
330
47B
100
AcDbPlotSettings
  1

  2
HP LaserJet 2100 Series PS
  4
Letter
  6

 40
5.365749835968017
 41
5.408073902130126
 42
5.132904052734375
 43
5.090576171875
 44
215.8999938964844
 45
279.3999938964844
 46
0.0
 47
0.0
 48
0.0
 49
0.0
140
0.0
141
0.0
142
1.0
143
3.967254253308121
 70
 11952
 72
     0
 73
     0
 74
     2
  7
monochrome.ctb
 75
     0
147
0.2520635018958373
148
0.0
149
0.0
100
AcDbLayout
  1
Model
 70
     1
 71
     0
 10
0.0
 20
0.0
 11
12.0
 21
9.0
 12
0.0
 22
0.0
 32
0.0
 14
0.0
 24
0.0
 34
0.0
 15
0.0
 25
0.0
 35
0.0
146
0.0
 13
0.0
 23
0.0
 33
0.0
 16
1.0
 26
0.0
 36
0.0
 17
0.0
 27
1.0
 37
0.0
 76
     0
330
17
1001
ACAD_PSEXT
1000
HP LaserJet 2100 Series PS
1000
HP LaserJet 2100 Series PS
1000
LPT1:
1000

1070
     0
  0
MLINESTYLE
  5
1B
102
{ACAD_REACTORS
330
1A
102
}
330
1A
100
AcDbMlineStyle
  2
STANDARD
 70
     0
  3

 62
   256
 51
90.0
 52
90.0
 71
     2
 49
0.5
 62
   256
  6
BYLAYER
 49
-0.5
 62
   256
  6
BYLAYER
  0
ACDBPLACEHOLDER
  5
47A
102
{ACAD_REACTORS
330
479
102
}
330
479
  0
TABLESTYLE
  5
28FC
102
{ACAD_REACTORS
330
28FB
102
}
330
28FB
100
AcDbTableStyle
  3
Standard
 70
     0
 71
     0
 40
0.06
 41
0.06
280
     0
281
     0
  7
STANDARD
140
0.18
170
     2
 62
     0
 63
     7
283
     0
274
    -2
284
     1
 64
     0
275
    -2
285
     1
 65
     0
276
    -2
286
     1
 66
     0
277
    -2
287
     1
 67
     0
278
    -2
288
     1
 68
     0
279
    -2
289
     1
 69
     0
  7
STANDARD
140
0.25
170
     5
 62
     0
 63
     7
283
     0
274
    -2
284
     1
 64
     0
275
    -2
285
     1
 65
     0
276
    -2
286
     1
 66
     0
277
    -2
287
     1
 67
     0
278
    -2
288
     1
 68
     0
279
    -2
289
     1
 69
     0
  7
STANDARD
140
0.18
170
     5
 62
     0
 63
     7
283
     0
274
    -2
284
     1
 64
     0
275
    -2
285
     1
 65
     0
276
    -2
286
     1
 66
     0
277
    -2
287
     1
 67
     0
278
    -2
288
     1
 68
     0
279
    -2
289
     1
 69
     0
  0
DICTIONARYVAR
  5
2AA3
102
{ACAD_REACTORS
330
49
102
}
330
49
100
DictionaryVariables
280
     0
  1
STANDARD
  0
DICTIONARYVAR
  5
4A
102
{ACAD_REACTORS
330
49
102
}
330
49
100
DictionaryVariables
280
     0
  1
0
  0
DICTIONARYVAR
  5
708
102
{ACAD_REACTORS
330
49
102
}
330
49
100
DictionaryVariables
280
     0
  1
0
  0
DICTIONARYVAR
  5
2F3C
102
{ACAD_REACTORS
330
49
102
}
330
49
100
DictionaryVariables
280
     0
  1

  0
DICTIONARY
  5
4091
330
47E
100
AcDbDictionary
280
     1
281
     1
  3
ACAD_XREC_ROUNDTRIP
360
4092
  0
DICTIONARY
  5
408F
330
47D
100
AcDbDictionary
280
     1
281
     1
  3
ACAD_XREC_ROUNDTRIP
360
4090
  0
XRECORD
  5
4092
102
{ACAD_REACTORS
330
4091
102
}
330
4091
100
AcDbXrecord
280
     1
102
SHADEPLOT
 70
     0
102
SHADEPLOTRESLEVEL
 70
     2
102
SHADEPLOTCUSTOMDPI
 70
   300
  0
XRECORD
  5
4090
102
{ACAD_REACTORS
330
408F
102
}
330
408F
100
AcDbXrecord
280
     1
102
SHADEPLOT
 70
     0
102
SHADEPLOTRESLEVEL
 70
     2
102
SHADEPLOTCUSTOMDPI
 70
   300
  0
ENDSEC
  0
EOF
