  0
SECTION
  2
HEADER
  9
$ACADVER
  1
AC1015
  9
$ACADMAINTVER
 70
    20
  9
$DWGCODEPAGE
  3
ANSI_1252
  9
$INSBASE
 10
0.0
 20
0.0
 30
0.0
  9
$EXTMIN
 10
-9.075780418242533
 20
-0.0693807716975334
 30
0.0
  9
$EXTMAX
 10
9.075780418242533
 20
14.00913693229751
 30
0.0
  9
$LIMMIN
 10
0.0
 20
0.0
  9
$LIMMAX
 10
32.0
 20
42.0
  9
$ORTHOMODE
 70
     1
  9
$REGENMODE
 70
     1
  9
$FILLMODE
 70
     1
  9
$QTEXTMODE
 70
     0
  9
$MIRRTEXT
 70
     0
  9
$LTSCALE
 40
0.5
  9
$ATTMODE
 70
     1
  9
$TEXTSIZE
 40
0.36
  9
$TRACEWID
 40
0.05
  9
$TEXTSTYLE
  7
STANDARD
  9
$CLAYER
  8
0
  9
$CELTYPE
  6
BYLAYER
  9
$CECOLOR
 62
   256
  9
$CELTSCALE
 40
1.0
  9
$DISPSILH
 70
     0
  9
$DIMSCALE
 40
4.0
  9
$DIMASZ
 40
0.1
  9
$DIMEXO
 40
0.062
  9
$DIMDLI
 40
0.375
  9
$DIMRND
 40
0.0
  9
$DIMDLE
 40
0.0
  9
$DIMEXE
 40
0.08
  9
$DIMTP
 40
0.0
  9
$DIMTM
 40
0.0
  9
$DIMTXT
 40
0.075
  9
$DIMCEN
 40
-0.0078125
  9
$DIMTSZ
 40
0.0
  9
$DIMTOL
 70
     0
  9
$DIMLIM
 70
     0
  9
$DIMTIH
 70
     1
  9
$DIMTOH
 70
     1
  9
$DIMSE1
 70
     0
  9
$DIMSE2
 70
     0
  9
$DIMTAD
 70
     0
  9
$DIMZIN
 70
     0
  9
$DIMBLK
  1

  9
$DIMASO
 70
     0
  9
$DIMSHO
 70
     0
  9
$DIMPOST
  1

  9
$DIMAPOST
  1

  9
$DIMALT
 70
     0
  9
$DIMALTD
 70
     2
  9
$DIMALTF
 40
25.4
  9
$DIMLFAC
 40
1.0
  9
$DIMTOFL
 70
     0
  9
$DIMTVP
 40
0.0
  9
$DIMTIX
 70
     0
  9
$DIMSOXD
 70
     0
  9
$DIMSAH
 70
     0
  9
$DIMBLK1
  1

  9
$DIMBLK2
  1

  9
$DIMSTYLE
  2
STANDARD
  9
$DIMCLRD
 70
     0
  9
$DIMCLRE
 70
     0
  9
$DIMCLRT
 70
     0
  9
$DIMTFAC
 40
1.0
  9
$DIMGAP
 40
0.09
  9
$DIMJUST
 70
     0
  9
$DIMSD1
 70
     0
  9
$DIMSD2
 70
     0
  9
$DIMTOLJ
 70
     1
  9
$DIMTZIN
 70
     0
  9
$DIMALTZ
 70
     0
  9
$DIMALTTZ
 70
     0
  9
$DIMUPT
 70
     0
  9
$DIMDEC
 70
     5
  9
$DIMTDEC
 70
     5
  9
$DIMALTU
 70
     2
  9
$DIMALTTD
 70
     2
  9
$DIMTXSTY
  7
STANDARD
  9
$DIMAUNIT
 70
     0
  9
$DIMADEC
 70
     0
  9
$DIMALTRND
 40
0.0
  9
$DIMAZIN
 70
     0
  9
$DIMDSEP
 70
    46
  9
$DIMATFIT
 70
     3
  9
$DIMFRAC
 70
     2
  9
$DIMLDRBLK
  1

  9
$DIMLUNIT
 70
     5
  9
$DIMLWD
 70
    -2
  9
$DIMLWE
 70
    -2
  9
$DIMTMOVE
 70
     2
  9
$LUNITS
 70
     2
  9
$LUPREC
 70
     4
  9
$SKETCHINC
 40
0.1
  9
$FILLETRAD
 40
0.0
  9
$AUNITS
 70
     0
  9
$AUPREC
 70
     0
  9
$MENU
  1
qa
  9
$ELEVATION
 40
0.0
  9
$PELEVATION
 40
0.0
  9
$THICKNESS
 40
0.0
  9
$LIMCHECK
 70
     0
  9
$CHAMFERA
 40
0.4375
  9
$CHAMFERB
 40
0.4375
  9
$CHAMFERC
 40
0.0
  9
$CHAMFERD
 40
0.0
  9
$SKPOLY
 70
     0
  9
$TDCREATE
 40
2452872.401862616
  9
$TDUCREATE
 40
2452872.693529283
  9
$TDUPDATE
 40
2454579.502063310
  9
$TDUUPDATE
 40
2454579.793729977
  9
$TDINDWG
 40
0.6913358796
  9
$TDUSRTIMER
 40
0.6913358796
  9
$USRTIMER
 70
     1
  9
$ANGBASE
 50
0.0
  9
$ANGDIR
 70
     0
  9
$PDMODE
 70
     0
  9
$PDSIZE
 40
0.0
  9
$PLINEWID
 40
0.0
  9
$SPLFRAME
 70
     0
  9
$SPLINETYPE
 70
     6
  9
$SPLINESEGS
 70
     8
  9
$HANDSEED
  5
4084
  9
$SURFTAB1
 70
     6
  9
$SURFTAB2
 70
     6
  9
$SURFTYPE
 70
     6
  9
$SURFU
 70
     6
  9
$SURFV
 70
     6
  9
$UCSBASE
  2

  9
$UCSNAME
  2

  9
$UCSORG
 10
0.0
 20
0.0
 30
0.0
  9
$UCSXDIR
 10
1.0
 20
0.0
 30
0.0
  9
$UCSYDIR
 10
0.0
 20
1.0
 30
0.0
  9
$UCSORTHOREF
  2

  9
$UCSORTHOVIEW
 70
     0
  9
$UCSORGTOP
 10
0.0
 20
0.0
 30
0.0
  9
$UCSORGBOTTOM
 10
0.0
 20
0.0
 30
0.0
  9
$UCSORGLEFT
 10
0.0
 20
0.0
 30
0.0
  9
$UCSORGRIGHT
 10
0.0
 20
0.0
 30
0.0
  9
$UCSORGFRONT
 10
0.0
 20
0.0
 30
0.0
  9
$UCSORGBACK
 10
0.0
 20
0.0
 30
0.0
  9
$PUCSBASE
  2

  9
$PUCSNAME
  2

  9
$PUCSORG
 10
0.0
 20
0.0
 30
0.0
  9
$PUCSXDIR
 10
1.0
 20
0.0
 30
0.0
  9
$PUCSYDIR
 10
0.0
 20
1.0
 30
0.0
  9
$PUCSORTHOREF
  2

  9
$PUCSORTHOVIEW
 70
     0
  9
$PUCSORGTOP
 10
0.0
 20
0.0
 30
0.0
  9
$PUCSORGBOTTOM
 10
0.0
 20
0.0
 30
0.0
  9
$PUCSORGLEFT
 10
0.0
 20
0.0
 30
0.0
  9
$PUCSORGRIGHT
 10
0.0
 20
0.0
 30
0.0
  9
$PUCSORGFRONT
 10
0.0
 20
0.0
 30
0.0
  9
$PUCSORGBACK
 10
0.0
 20
0.0
 30
0.0
  9
$USERI1
 70
     0
  9
$USERI2
 70
     0
  9
$USERI3
 70
     0
  9
$USERI4
 70
     0
  9
$USERI5
 70
     0
  9
$USERR1
 40
0.0
  9
$USERR2
 40
0.0
  9
$USERR3
 40
0.0
  9
$USERR4
 40
0.0
  9
$USERR5
 40
0.0
  9
$WORLDVIEW
 70
     1
  9
$SHADEDGE
 70
     3
  9
$SHADEDIF
 70
    70
  9
$TILEMODE
 70
     1
  9
$MAXACTVP
 70
    16
  9
$PINSBASE
 10
0.0
 20
0.0
 30
0.0
  9
$PLIMCHECK
 70
     0
  9
$PEXTMIN
 10
1.000000000000000E+20
 20
1.000000000000000E+20
 30
1.000000000000000E+20
  9
$PEXTMAX
 10
-1.000000000000000E+20
 20
-1.000000000000000E+20
 30
-1.000000000000000E+20
  9
$PLIMMIN
 10
0.0
 20
0.0
  9
$PLIMMAX
 10
12.0
 20
9.0
  9
$UNITMODE
 70
     0
  9
$VISRETAIN
 70
     0
  9
$PLINEGEN
 70
     0
  9
$PSLTSCALE
 70
     0
  9
$TREEDEPTH
 70
  3020
  9
$CMLSTYLE
  2
STANDARD
  9
$CMLJUST
 70
     0
  9
$CMLSCALE
 40
1.0
  9
$PROXYGRAPHICS
 70
     1
  9
$MEASUREMENT
 70
     0
  9
$CELWEIGHT
370
    -1
  9
$ENDCAPS
280
     0
  9
$JOINSTYLE
280
     0
  9
$LWDISPLAY
290
     0
  9
$INSUNITS
 70
     0
  9
$HYPERLINKBASE
  1

  9
$STYLESHEET
  1
monochrome.ctb
  9
$XEDIT
290
     1
  9
$CEPSNTYPE
380
     0
  9
$PSTYLEMODE
290
     1
  9
$FINGERPRINTGUID
  2
{3F8EE252-4A01-453C-A5F5-5678F9528411}
  9
$VERSIONGUID
  2
{5F4456BB-6D2D-43C3-8608-AFA175D10727}
  9
$EXTNAMES
290
     1
  9
$PSVPSCALE
 40
0.0
  9
$OLESTARTUP
290
     0
  0
ENDSEC
  0
SECTION
  2
CLASSES
  0
CLASS
  1
DICTIONARYVAR
  2
AcDbDictionaryVar
  3
ObjectDBX Classes
 90
        0
280
     0
281
     0
  0
CLASS
  1
ACDBDICTIONARYWDFLT
  2
AcDbDictionaryWithDefault
  3
ObjectDBX Classes
 90
        0
280
     0
281
     0
  0
CLASS
  1
ACDBPLACEHOLDER
  2
AcDbPlaceHolder
  3
ObjectDBX Classes
 90
        0
280
     0
281
     0
  0
CLASS
  1
LAYOUT
  2
AcDbLayout
  3
ObjectDBX Classes
 90
        0
280
     0
281
     0
  0
CLASS
  1
TABLESTYLE
  2
AcDbTableStyle
  3
ObjectDBX Classes
 90
     2047
280
     0
281
     0
  0
CLASS
  1
SORTENTSTABLE
  2
AcDbSortentsTable
  3
ObjectDBX Classes
 90
        0
280
     0
281
     0
  0
ENDSEC
  0
SECTION
  2
TABLES
  0
TABLE
  2
VPORT
  5
8
330
0
100
AcDbSymbolTable
 70
     2
  0
VPORT
  5
407E
330
8
100
AcDbSymbolTableRecord
100
AcDbViewportTableRecord
  2
*Active
 70
     0
 10
0.0
 20
0.0
 11
1.0
 21
1.0
 12
1.175741732719359
 22
7.808610691366942
 13
0.0
 23
0.0
 14
0.063
 24
0.063
 15
0.25
 25
0.25
 16
0.0
 26
0.0
 36
1.0
 17
0.0
 27
0.0
 37
0.0
 40
20.99117377770584
 41
1.760162601626016
 42
50.0
 43
0.0
 44
0.0
 50
0.0
 51
0.0
 71
     0
 72
   100
 73
     1
 74
     0
 75
     0
 76
     0
 77
     0
 78
     0
281
     0
 65
     1
110
0.0
120
0.0
130
0.0
111
1.0
121
0.0
131
0.0
112
0.0
122
1.0
132
0.0
 79
     0
146
0.0
  0
ENDTAB
  0
TABLE
  2
LTYPE
  5
5
330
0
100
AcDbSymbolTable
 70
     3
  0
LTYPE
  5
11
330
5
100
AcDbSymbolTableRecord
100
AcDbLinetypeTableRecord
  2
BYBLOCK
 70
     0
  3

 72
    65
 73
     0
 40
0.0
  0
LTYPE
  5
12
330
5
100
AcDbSymbolTableRecord
100
AcDbLinetypeTableRecord
  2
BYLAYER
 70
     0
  3

 72
    65
 73
     0
 40
0.0
  0
LTYPE
  5
13
330
5
100
AcDbSymbolTableRecord
100
AcDbLinetypeTableRecord
  2
CONTINUOUS
 70
     0
  3
Solid line
 72
    65
 73
     0
 40
0.0
  0
LTYPE
  5
2B
330
5
100
AcDbSymbolTableRecord
100
AcDbLinetypeTableRecord
  2
HIDDEN
 70
     0
  3
_ _ _ _ _ _ _ _ _ _ _ _ _ _ _ _ _ _ _ _ _ _ _
 72
    65
 73
     2
 40
0.375
 49
0.25
 74
     0
 49
-0.125
 74
     0
  0
LTYPE
  5
343F
330
5
100
AcDbSymbolTableRecord
100
AcDbLinetypeTableRecord
  2
THD
 70
     0
  3
_ _ _ _ _ _ _ _ _ _ _ _ _ _ _ _ _ _ _ _ _ _ _ _
 72
    65
 73
     2
 40
0.15
 49
0.11
 74
     0
 49
-0.04
 74
     0
  0
ENDTAB
  0
TABLE
  2
LAYER
  5
2
102
{ACAD_XDICTIONARY
360
2ABF
102
}
330
0
100
AcDbSymbolTable
 70
     3
  0
LAYER
  5
E
330
2
100
AcDbSymbolTableRecord
100
AcDbLayerTableRecord
  2
0
 70
     0
 62
     7
  6
CONTINUOUS
370
    -3
390
47A
  0
LAYER
  5
37
330
2
100
AcDbSymbolTableRecord
100
AcDbLayerTableRecord
  2
DIM
 70
     0
 62
     5
  6
CONTINUOUS
370
    -3
390
47A
  0
LAYER
  5
2DFD
330
2
100
AcDbSymbolTableRecord
100
AcDbLayerTableRecord
  2
Defpoints
 70
     0
 62
     7
  6
CONTINUOUS
290
     0
370
    -3
390
47A
  0
ENDTAB
  0
TABLE
  2
STYLE
  5
3
330
0
100
AcDbSymbolTable
 70
     1
  0
STYLE
  5
F
330
3
100
AcDbSymbolTableRecord
100
AcDbTextStyleTableRecord
  2
STANDARD
 70
     0
 40
0.0
 41
1.0
 50
0.0
 71
     0
 42
0.36
  3
TXT
  4

  0
ENDTAB
  0
TABLE
  2
VIEW
  5
6
330
0
100
AcDbSymbolTable
 70
     0
  0
ENDTAB
  0
TABLE
  2
UCS
  5
7
330
0
100
AcDbSymbolTable
 70
     0
  0
ENDTAB
  0
TABLE
  2
APPID
  5
9
330
0
100
AcDbSymbolTable
 70
     5
  0
APPID
  5
10
330
9
100
AcDbSymbolTableRecord
100
AcDbRegAppTableRecord
  2
ACAD
 70
     0
  0
APPID
  5
DA7
330
9
100
AcDbSymbolTableRecord
100
AcDbRegAppTableRecord
  2
RAK
 70
     0
  0
APPID
  5
2C62
330
9
100
AcDbSymbolTableRecord
100
AcDbRegAppTableRecord
  2
ACAD_PSEXT
 70
     0
  0
APPID
  5
2C6B
330
9
100
AcDbSymbolTableRecord
100
AcDbRegAppTableRecord
  2
ACAD_DSTYLE_DIMTEXT_FILL
 70
     0
  0
APPID
  5
3435
330
9
100
AcDbSymbolTableRecord
100
AcDbRegAppTableRecord
  2
CONTENTBLOCKICON
 70
     0
  0
ENDTAB
  0
TABLE
  2
DIMSTYLE
  5
A
330
0
100
AcDbSymbolTable
 70
     1
100
AcDbDimStyleTable
 71
     1
340
465
  0
DIMSTYLE
105
465
330
A
100
AcDbSymbolTableRecord
100
AcDbDimStyleTableRecord
  2
STANDARD
 70
     0
340
F
  0
ENDTAB
  0
TABLE
  2
BLOCK_RECORD
  5
1
330
0
100
AcDbSymbolTable
 70
     0
  0
BLOCK_RECORD
  5
17
102
{ACAD_XDICTIONARY
360
7D0
102
}
330
1
100
AcDbSymbolTableRecord
100
AcDbBlockTableRecord
  2
*MODEL_SPACE
340
47D
  0
BLOCK_RECORD
  5
14
102
{ACAD_XDICTIONARY
360
7CE
102
}
330
1
100
AcDbSymbolTableRecord
100
AcDbBlockTableRecord
  2
*PAPER_SPACE
340
47E
  0
ENDTAB
  0
ENDSEC
  0
SECTION
  2
BLOCKS
  0
BLOCK
  5
47
330
17
100
AcDbEntity
  8
0
100
AcDbBlockBegin
  2
*MODEL_SPACE
 70
     0
 10
0.0
 20
0.0
 30
0.0
  3
*MODEL_SPACE
  1

  0
ENDBLK
  5
48
330
17
100
AcDbEntity
  8
0
100
AcDbBlockEnd
  0
BLOCK
  5
45
330
14
100
AcDbEntity
 67
     1
  8
0
100
AcDbBlockBegin
  2
*PAPER_SPACE
 70
     0
 10
0.0
 20
0.0
 30
0.0
  3
*PAPER_SPACE
  1

  0
ENDBLK
  5
46
330
14
100
AcDbEntity
 67
     1
  8
0
100
AcDbBlockEnd
  0
ENDSEC
  0
SECTION
  2
ENTITIES
  0
TEXT
  5
3A7
330
17
100
AcDbEntity
  8
DIM
100
AcDbText
 10
14.93846334400804
 20
21.0944638759405
 30
0.0
 40
0.36
  1
   
 50
359.9999999999988
 11
14.93846334400805
 21
21.2744638759405
 31
0.0
100
AcDbText
 73
     2
  0
TEXT
  5
400
330
17
100
AcDbEntity
  8
DIM
100
AcDbText
 10
13.55232669162668
 20
10.34149078419336
 30
0.0
 40
0.36
  1
   
 72
     1
 11
14.09232669162668
 21
10.52149078419336
 31
0.0
100
AcDbText
 73
     2
  0
LINE
  5
1ACD
330
17
100
AcDbEntity
  8
0
100
AcDbLine
 10
5.384099646544939
 20
0.0624999999999805
 30
0.0
 11
5.384099646544953
 21
1.231468916432016
 31
0.0
  0
LINE
  5
25D0
330
17
100
AcDbEntity
  8
0
100
AcDbLine
 10
5.384099646544811
 20
0.0624999999999663
 30
0.0
 11
5.384099646544811
 21
1.562499999999966
 31
0.0
  0
LINE
  5
25E9
330
17
100
AcDbEntity
  8
0
100
AcDbLine
 10
6.385149646544363
 20
0.1349999999999145
 30
0.0
 11
6.010149646544363
 21
0.1349999999999145
 31
0.0
  0
LINE
  5
29D5
330
17
100
AcDbEntity
  8
0
  6
HIDDEN
100
AcDbLine
 10
8.871399646545043
 20
7.937499999999959
 30
0.0
 11
8.871399646545039
 21
0.33499999999996
 31
0.0
  0
LINE
  5
29DC
330
17
100
AcDbEntity
  8
0
100
AcDbLine
 10
9.006399646545037
 20
7.937499999999959
 30
0.0
 11
9.006399646545041
 21
0.33499999999996
 31
0.0
  0
LINE
  5
29DD
330
17
100
AcDbEntity
  8
0
100
AcDbLine
 10
6.672078158773416
 20
5.276718267560577
 30
0.0
 11
6.808899646545043
 21
7.937499999999937
 31
0.0
  0
LINE
  5
29DE
330
17
100
AcDbEntity
  8
0
100
AcDbLine
 10
5.414253336152
 20
1.777448226669301
 30
0.0
 11
6.644663521482243
 21
5.157972427531612
 31
0.0
  0
LINE
  5
2A0E
330
17
100
AcDbEntity
  8
0
100
AcDbLine
 10
7.058899646545043
 20
0.0009854827999707
 30
0.0
 11
7.058899646545043
 21
0.1349999999999714
 31
0.0
  0
LINE
  5
2A0F
330
17
100
AcDbEntity
  8
0
100
AcDbLine
 10
8.183899646545043
 20
0.0009863608999954
 30
0.0
 11
8.183899646545043
 21
0.1349999999999714
 31
0.0
  0
ARC
  5
2A10
330
17
100
AcDbEntity
  8
0
100
AcDbCircle
 10
8.67139964654504
 20
0.33499999999996
 30
0.0
 40
0.2
100
AcDbArc
 50
269.9999999999996
 51
0.0
  0
ARC
  5
2A11
330
17
100
AcDbEntity
  8
0
100
AcDbCircle
 10
8.67139964654504
 20
0.33499999999996
 30
0.0
 40
0.335
100
AcDbArc
 50
270.0
 51
0.0
  0
LINE
  5
2A12
330
17
100
AcDbEntity
  8
0
100
AcDbLine
 10
5.384099646544925
 20
0.0000000000000089
 30
0.0
 11
5.384099646544939
 21
1.606438155006467
 31
0.0
  0
LINE
  5
2A13
330
17
100
AcDbEntity
  8
0
100
AcDbLine
 10
8.67139964654504
 20
-0.0000000000000195
 30
0.0
 11
5.384099646544925
 21
0.0000000000000089
 31
0.0
  0
LINE
  5
2A15
330
17
100
AcDbEntity
  8
0
100
AcDbLine
 10
8.67139964654504
 20
0.1349999999999714
 30
0.0
 11
5.384099646544925
 21
0.1349999999999998
 31
0.0
  0
ARC
  5
2A16
330
17
100
AcDbEntity
  8
0
100
AcDbCircle
 10
6.134099646544981
 20
0.3983782343962137
 30
0.0
 40
0.1875
100
AcDbArc
 50
197.0312484582281
 51
342.9687515417718
  0
ARC
  5
2A17
330
17
100
AcDbEntity
  8
0
100
AcDbCircle
 10
6.134099646544981
 20
0.2885432773411285
 30
0.0
 40
0.1875
100
AcDbArc
 50
17.03124845822949
 51
162.9687515417705
  0
ARC
  5
2A18
330
17
100
AcDbEntity
  8
0
100
AcDbCircle
 10
6.134099646544981
 20
0.561664663682203
 30
0.0
 40
0.3225
100
AcDbArc
 50
193.454784686899
 51
346.545215313101
  0
ARC
  5
2A19
330
17
100
AcDbEntity
  8
0
100
AcDbCircle
 10
6.134099646544981
 20
0.4115873926375944
 30
0.0
 40
0.3225
100
AcDbArc
 50
13.45478468689983
 51
166.5452153131001
  0
ARC
  5
2A21
330
17
100
AcDbEntity
  8
0
100
AcDbCircle
 10
5.884099646544939
 20
1.60643815500641
 30
0.0
 40
0.5
100
AcDbArc
 50
159.999999999993
 51
179.9999999999935
  0
CIRCLE
  5
2A22
330
17
100
AcDbEntity
  8
0
100
AcDbCircle
 10
7.621399646545043
 20
1.363746052584653
 30
0.0
 40
0.3225
  0
CIRCLE
  5
2A23
330
17
100
AcDbEntity
  8
0
100
AcDbCircle
 10
7.621399646545043
 20
1.363746052584653
 30
0.0
 40
0.1875
  0
LINE
  5
2A24
330
17
100
AcDbEntity
  8
0
100
AcDbLine
 10
8.871399646545043
 20
0.3849999999999714
 30
0.0
 11
9.006399646545034
 21
0.3849999999999714
 31
0.0
  0
ARC
  5
2A79
330
17
100
AcDbEntity
  8
0
100
AcDbCircle
 10
6.174817211089361
 20
5.328982499194419
 30
0.0
 40
0.4999999999999222
100
AcDbArc
 50
339.9999999999999
 51
353.9999999999974
  0
LINE
  5
2A8E
330
17
100
AcDbEntity
  8
0
100
AcDbLine
 10
7.058899646545043
 20
1.166249999999971
 30
0.0
 11
8.183899646545043
 21
1.166249999999971
 31
0.0
  0
LINE
  5
2A8F
330
17
100
AcDbEntity
  8
0
100
AcDbLine
 10
7.058899646545043
 20
0.9312499999999577
 30
0.0
 11
8.183899646545043
 21
0.9312499999999577
 31
0.0
  0
LINE
  5
2A90
330
17
100
AcDbEntity
  8
0
100
AcDbLine
 10
7.152649646545043
 20
0.9312499999999577
 30
0.0
 11
7.152649646545043
 21
1.166249999999971
 31
0.0
  0
LINE
  5
2A91
330
17
100
AcDbEntity
  8
0
100
AcDbLine
 10
6.808899646545043
 20
0.6812499999999578
 30
0.0
 11
6.808899646545043
 21
0.1349999999999714
 31
0.0
  0
LINE
  5
2A92
330
17
100
AcDbEntity
  8
0
100
AcDbLine
 10
6.573899646545029
 20
0.6812499999999578
 30
0.0
 11
6.573899646545029
 21
0.1349999999999714
 31
0.0
  0
ARC
  5
2A94
330
17
100
AcDbEntity
  8
0
100
AcDbCircle
 10
7.058899646545043
 20
0.6812499999999578
 30
0.0
 40
0.25
100
AcDbArc
 50
90.0
 51
180.0
  0
ARC
  5
2A95
330
17
100
AcDbEntity
  8
0
100
AcDbCircle
 10
7.058899646545043
 20
0.6812499999999578
 30
0.0
 40
0.485
100
AcDbArc
 50
90.11217710590043
 51
180.0
  0
LINE
  5
2A96
330
17
100
AcDbEntity
  8
0
100
AcDbLine
 10
8.668899646545057
 20
0.6812499999999578
 30
0.0
 11
8.668899646545
 21
0.1349999999999714
 31
0.0
  0
LINE
  5
2A97
330
17
100
AcDbEntity
  8
0
100
AcDbLine
 10
8.433899646545043
 20
0.6812499999999578
 30
0.0
 11
8.433899646544986
 21
0.1349999999999714
 31
0.0
  0
LINE
  5
2A99
330
17
100
AcDbEntity
  8
0
100
AcDbLine
 10
8.090149646545043
 20
0.9312499999999577
 30
0.0
 11
8.090149646545043
 21
1.166249999999971
 31
0.0
  0
ARC
  5
2A9A
330
17
100
AcDbEntity
  8
0
100
AcDbCircle
 10
8.183899646545043
 20
0.6812499999999578
 30
0.0
 40
0.25
100
AcDbArc
 50
0.0
 51
90.0
  0
ARC
  5
2A9B
330
17
100
AcDbEntity
  8
0
100
AcDbCircle
 10
8.183899646545043
 20
0.6812499999999578
 30
0.0
 40
0.485
100
AcDbArc
 50
0.0
 51
89.8878142035007
  0
LINE
  5
3370
330
17
100
AcDbEntity
  8
0
100
AcDbLine
 10
9.006399646544902
 20
7.937499999999952
 30
0.0
 11
6.808899646545043
 21
7.937499999999937
 31
0.0
  0
CIRCLE
  5
3373
330
17
100
AcDbEntity
  8
0
100
AcDbCircle
 10
7.871399646544908
 20
5.43749999999998
 30
0.0
 40
0.3435
  0
LINE
  5
3764
330
17
100
AcDbEntity
  8
0
100
AcDbLine
 10
1.166250000000061
 20
10.31745616060001
 30
0.0
 11
0.2874999999998593
 21
10.31745616060001
 31
0.0
  0
LINE
  5
3765
330
17
100
AcDbEntity
  8
0
100
AcDbLine
 10
-0.2875000000001506
 20
10.31745616060001
 30
0.0
 11
-1.166250000000005
 21
10.31745616060001
 31
0.0
  0
LINE
  5
3766
330
17
100
AcDbEntity
  8
0
100
AcDbLine
 10
0.831250000000054
 20
13.80475616060002
 30
0.0
 11
-0.8312500000000042
 21
13.80475616060002
 31
0.0
  0
LINE
  5
3767
330
17
100
AcDbEntity
  8
0
100
AcDbLine
 10
-1.03125
 20
13.60475616060001
 30
0.0
 11
-1.03125
 21
10.31745616060001
 31
0.0
  0
ARC
  5
3768
330
17
100
AcDbEntity
  8
0
100
AcDbCircle
 10
-0.8312500000000042
 20
13.60475616060001
 30
0.0
 40
0.2
100
AcDbArc
 50
90.0
 51
180.0
  0
ARC
  5
3769
330
17
100
AcDbEntity
  8
0
100
AcDbCircle
 10
-0.8312500000000042
 20
13.60475616060001
 30
0.0
 40
0.335
100
AcDbArc
 50
90.0
 51
180.0
  0
LINE
  5
376A
330
17
100
AcDbEntity
  8
0
100
AcDbLine
 10
1.031250000000056
 20
13.60475616060002
 30
0.0
 11
1.031250000000056
 21
10.31745616060001
 31
0.0
  0
ARC
  5
376B
330
17
100
AcDbEntity
  8
0
100
AcDbCircle
 10
0.831250000000054
 20
13.60475616060002
 30
0.0
 40
0.2
100
AcDbArc
 50
0.0
 51
90.0
  0
ARC
  5
376C
330
17
100
AcDbEntity
  8
0
100
AcDbCircle
 10
0.831250000000054
 20
13.60475616060002
 30
0.0
 40
0.335
100
AcDbArc
 50
0.0
 51
90.0
  0
ARC
  5
376D
330
17
100
AcDbEntity
  8
0
100
AcDbCircle
 10
0.0000000000000142
 20
12.64850616060004
 30
0.0
 40
0.34375
100
AcDbArc
 50
0.0
 51
179.9999999999951
  0
ARC
  5
376E
330
17
100
AcDbEntity
  8
0
100
AcDbCircle
 10
0.0000000000000142
 20
12.46100616060004
 30
0.0
 40
0.34375
100
AcDbArc
 50
179.9999999999951
 51
0.0
  0
LINE
  5
376F
330
17
100
AcDbEntity
  8
0
100
AcDbLine
 10
-0.3437499999999716
 20
12.46100616060007
 30
0.0
 11
-0.3437499999999574
 21
12.64850616060004
 31
0.0
  0
LINE
  5
3770
330
17
100
AcDbEntity
  8
0
100
AcDbLine
 10
0.3437500000000284
 20
12.46100616060001
 30
0.0
 11
0.3437500000000426
 21
12.64850616060001
 31
0.0
  0
LINE
  5
3771
330
17
100
AcDbEntity
  8
0
100
AcDbLine
 10
-0.2875000000001435
 20
10.32870616060001
 30
0.0
 11
-0.2875000000001506
 21
10.31745616060002
 31
0.0
  0
ARC
  5
3772
330
17
100
AcDbEntity
  8
0
100
AcDbCircle
 10
-0.2675000000001404
 20
10.32870616060001
 30
0.0
 40
0.02
100
AcDbArc
 50
90.0
 51
180.0
  0
LINE
  5
3773
330
17
100
AcDbEntity
  8
0
100
AcDbLine
 10
0.2874999999998593
 20
10.31745616060001
 30
0.0
 11
0.2874999999998664
 21
10.32870616060001
 31
0.0
  0
ARC
  5
3774
330
17
100
AcDbEntity
  8
0
100
AcDbCircle
 10
0.2674999999998633
 20
10.32870616060001
 30
0.0
 40
0.02
100
AcDbArc
 50
0.0
 51
90.0
  0
LINE
  5
3775
330
17
100
AcDbEntity
  8
0
100
AcDbLine
 10
0.2674999999998633
 20
10.34870616060001
 30
0.0
 11
-0.2675000000001404
 21
10.34870616060001
 31
0.0
  0
LINE
  5
3776
330
17
100
AcDbEntity
  8
0
100
AcDbLine
 10
0.831250000000054
 20
13.93975616060002
 30
0.0
 11
-0.8312500000000113
 21
13.93975616060002
 31
0.0
  0
LINE
  5
3777
330
17
100
AcDbEntity
  8
0
100
AcDbLine
 10
-1.166250000000005
 20
13.60475616060001
 30
0.0
 11
-1.166249999999998
 21
10.31745616060001
 31
0.0
  0
LINE
  5
3778
330
17
100
AcDbEntity
  8
0
100
AcDbLine
 10
1.166250000000061
 20
13.60475616060002
 30
0.0
 11
1.166250000000061
 21
10.31745616060001
 31
0.0
  0
ARC
  5
3779
330
17
100
AcDbEntity
  8
0
100
AcDbCircle
 10
-1.0
 20
12.82975616059999
 30
0.0
 40
0.03125
100
AcDbArc
 50
180.0000000000227
 51
221.3954130506539
  0
ARC
  5
377A
330
17
100
AcDbEntity
  8
0
  6
THD
100
AcDbCircle
 10
-1.0
 20
12.82975616059999
 30
0.0
 40
0.16625
100
AcDbArc
 50
180.0000000000227
 51
221.3954130506539
  0
ARC
  5
377B
330
17
100
AcDbEntity
  8
0
  6
THD
100
AcDbCircle
 10
-1.187499999999914
 20
12.55475616060002
 30
0.0
 40
0.1562500000000203
100
AcDbArc
 50
318.6045869493546
 51
41.39541305064532
  0
ARC
  5
377C
330
17
100
AcDbEntity
  8
0
100
AcDbCircle
 10
-1.187499999999914
 20
12.55475616060002
 30
0.0
 40
0.2912500000000203
100
AcDbArc
 50
318.6045869493633
 51
41.39541305063764
  0
LINE
  5
377D
330
17
100
AcDbEntity
  8
0
100
AcDbLine
 10
-1.023442625316079
 20
12.80909204149733
 30
0.0
 11
-0.9690147320540063
 21
12.747345750637
 31
0.0
  0
LINE
  5
377E
330
17
100
AcDbEntity
  8
0
  6
THD
100
AcDbLine
 10
-1.124714766681535
 20
12.71982304697374
 30
0.0
 11
-1.070286873419462
 21
12.65807675611341
 31
0.0
  0
ARC
  5
377F
330
17
100
AcDbEntity
  8
0
100
AcDbCircle
 10
-1.0
 20
12.27975616060001
 30
0.0
 40
0.03125
100
AcDbArc
 50
138.604586949346
 51
179.9999999999772
  0
ARC
  5
3780
330
17
100
AcDbEntity
  8
0
  6
THD
100
AcDbCircle
 10
-1.0
 20
12.27975616060001
 30
0.0
 40
0.16625
100
AcDbArc
 50
138.604586949346
 51
179.9999999999772
  0
LINE
  5
3781
330
17
100
AcDbEntity
  8
0
100
AcDbLine
 10
-1.023442625316079
 20
12.3004202797027
 30
0.0
 11
-0.9690147320540063
 21
12.362166570563
 31
0.0
  0
LINE
  5
3782
330
17
100
AcDbEntity
  8
0
  6
THD
100
AcDbLine
 10
-1.124714766681535
 20
12.38968927422629
 30
0.0
 11
-1.070286873419462
 21
12.45143556508659
 31
0.0
  0
ARC
  5
3783
330
17
100
AcDbEntity
  8
0
100
AcDbCircle
 10
1.000000000000028
 20
12.82975616059999
 30
0.0
 40
0.03125
100
AcDbArc
 50
318.604586949346
 51
359.9999999999772
  0
ARC
  5
3784
330
17
100
AcDbEntity
  8
0
  6
THD
100
AcDbCircle
 10
1.000000000000028
 20
12.82975616059999
 30
0.0
 40
0.16625
100
AcDbArc
 50
318.604586949346
 51
359.9999999999772
  0
ARC
  5
3785
330
17
100
AcDbEntity
  8
0
  6
THD
100
AcDbCircle
 10
1.187499999999943
 20
12.55475616060002
 30
0.0
 40
0.1562500000000203
100
AcDbArc
 50
138.6045869493547
 51
221.3954130506453
  0
ARC
  5
3786
330
17
100
AcDbEntity
  8
0
100
AcDbCircle
 10
1.187499999999943
 20
12.55475616060002
 30
0.0
 40
0.2912500000000203
100
AcDbArc
 50
138.6045869493623
 51
221.3954130506367
  0
LINE
  5
3787
330
17
100
AcDbEntity
  8
0
100
AcDbLine
 10
1.023442625316107
 20
12.80909204149733
 30
0.0
 11
0.9690147320540347
 21
12.747345750637
 31
0.0
  0
LINE
  5
3788
330
17
100
AcDbEntity
  8
0
  6
THD
100
AcDbLine
 10
1.124714766681563
 20
12.71982304697374
 30
0.0
 11
1.07028687341949
 21
12.65807675611341
 31
0.0
  0
ARC
  5
3789
330
17
100
AcDbEntity
  8
0
100
AcDbCircle
 10
1.000000000000028
 20
12.27975616060001
 30
0.0
 40
0.03125
100
AcDbArc
 50
0.0000000000227982
 51
41.39541305065399
  0
ARC
  5
378A
330
17
100
AcDbEntity
  8
0
  6
THD
100
AcDbCircle
 10
1.000000000000028
 20
12.27975616060001
 30
0.0
 40
0.16625
100
AcDbArc
 50
0.0000000000227982
 51
41.39541305065399
  0
LINE
  5
378B
330
17
100
AcDbEntity
  8
0
100
AcDbLine
 10
1.023442625316107
 20
12.3004202797027
 30
0.0
 11
0.9690147320540347
 21
12.362166570563
 31
0.0
  0
LINE
  5
378C
330
17
100
AcDbEntity
  8
0
  6
THD
100
AcDbLine
 10
1.124714766681563
 20
12.38968927422629
 30
0.0
 11
1.07028687341949
 21
12.45143556508659
 31
0.0
  0
LINE
  5
3965
330
17
100
AcDbEntity
  8
0
100
AcDbLine
 10
-0.9058688456998282
 20
11.50975616060001
 30
0.0
 11
0.9058689937087223
 21
11.50975616060001
 31
0.0
  0
LINE
  5
3966
330
17
100
AcDbEntity
  8
0
100
AcDbLine
 10
-0.9058688456998353
 20
11.74401951275397
 30
0.0
 11
0.9058689937087223
 21
11.74401951275397
 31
0.0
  0
LINE
  5
3967
330
17
100
AcDbEntity
  8
0
100
AcDbLine
 10
-0.8571865376424341
 20
13.36975616059996
 30
0.0
 11
0.9059677163431132
 21
13.36975616059996
 31
0.0
  0
LINE
  5
3970
330
17
100
AcDbEntity
  8
0
100
AcDbLine
 10
1.00000000000022
 20
13.06824460890002
 30
0.0
 11
0.9999999952815805
 21
12.7824973054918
 31
0.0
  0
LINE
  5
3971
330
17
100
AcDbEntity
  8
0
100
AcDbLine
 10
0.9999999877600629
 20
12.3270150242411
 30
0.0
 11
0.9999999836908948
 21
12.0805973034933
 31
0.0
  0
LINE
  5
3972
330
17
100
AcDbEntity
  8
0
100
AcDbLine
 10
-0.8623445286176263
 20
13.60429278070001
 30
0.0
 11
0.9059677163431132
 21
13.60725616060002
 31
0.0
  0
LINE
  5
3973
330
17
100
AcDbEntity
  8
0
100
AcDbLine
 10
-0.9999999999998365
 20
12.00876761370001
 30
0.0
 11
-0.9999999999998401
 21
12.32701501035554
 31
0.0
  0
LINE
  5
3974
330
17
100
AcDbEntity
  8
0
100
AcDbLine
 10
-0.9999999999998401
 20
12.78249731084449
 30
0.0
 11
-0.9999999999998365
 21
13.10824480030001
 31
0.0
  0
LINE
  5
3975
330
17
100
AcDbEntity
  8
0
100
AcDbLine
 10
-0.9999999999998401
 20
12.78249731084449
 30
0.0
 11
-0.9999999999998401
 21
12.32701501035552
 31
0.0
  0
LINE
  5
3976
330
17
100
AcDbEntity
  8
0
100
AcDbLine
 10
0.9999999952815805
 20
12.7824973054918
 30
0.0
 11
0.9999999877600629
 21
12.3270150242411
 31
0.0
  0
LINE
  5
3977
330
17
100
AcDbEntity
  8
0
100
AcDbLine
 10
-1.03125
 20
1.166249999999971
 30
0.0
 11
1.03125
 21
1.166249999999971
 31
0.0
  0
LINE
  5
3978
330
17
100
AcDbEntity
  8
0
100
AcDbLine
 10
-0.971995370359366
 20
0.9312499999999861
 30
0.0
 11
0.971995370359366
 21
0.9312499999999861
 31
0.0
  0
LINE
  5
3979
330
17
100
AcDbEntity
  8
0
100
AcDbLine
 10
-0.46875
 20
0.9312499999999577
 30
0.0
 11
-0.46875
 21
1.166249999999971
 31
0.0
  0
LINE
  5
397A
330
17
100
AcDbEntity
  8
0
100
AcDbLine
 10
0.46875
 20
0.9312499999999577
 30
0.0
 11
0.46875
 21
1.166249999999971
 31
0.0
  0
LINE
  5
3A7F
330
17
100
AcDbEntity
  8
0
100
AcDbLine
 10
-1.031250000000007
 20
7.937499999999916
 30
0.0
 11
-1.03125
 21
1.166249999999999
 31
0.0
  0
LINE
  5
3A80
330
17
100
AcDbEntity
  8
0
100
AcDbLine
 10
-1.166250000000005
 20
7.937499999999916
 30
0.0
 11
-1.166249999999999
 21
1.166249999999999
 31
0.0
  0
LINE
  5
3A81
330
17
100
AcDbEntity
  8
0
100
AcDbLine
 10
1.031250000000056
 20
7.937499999999916
 30
0.0
 11
1.03125
 21
1.166249999999999
 31
0.0
  0
LINE
  5
3A82
330
17
100
AcDbEntity
  8
0
100
AcDbLine
 10
1.166250000000047
 20
7.937499999999916
 30
0.0
 11
1.166249999999999
 21
1.166249999999999
 31
0.0
  0
ARC
  5
3A83
330
17
100
AcDbEntity
  8
0
100
AcDbCircle
 10
0.0
 20
1.166249999999999
 30
0.0
 40
1.03125
100
AcDbArc
 50
180.0
 51
0.0
  0
ARC
  5
3A84
330
17
100
AcDbEntity
  8
0
100
AcDbCircle
 10
0.0
 20
1.166249999999999
 30
0.0
 40
0.3935499999999999
100
AcDbArc
 50
242.1521145270961
 51
269.9999999999992
  0
ARC
  5
3A85
330
17
100
AcDbEntity
  8
0
100
AcDbCircle
 10
0.0
 20
1.166249999999999
 30
0.0
 40
0.3935499999999999
100
AcDbArc
 50
269.9999999999992
 51
297.8478854729035
  0
ARC
  5
3A86
330
17
100
AcDbEntity
  8
0
100
AcDbCircle
 10
0.0
 20
1.166249999999999
 30
0.0
 40
0.6435500000000001
100
AcDbArc
 50
180.0
 51
225.3504016180178
  0
ARC
  5
3A87
330
17
100
AcDbEntity
  8
0
100
AcDbCircle
 10
-0.3644209472917055
 20
0.7973442184308955
 30
0.0
 40
0.125
100
AcDbArc
 50
225.3504016180177
 51
320.05209306109
  0
ARC
  5
3A88
330
17
100
AcDbEntity
  8
0
100
AcDbCircle
 10
0.0
 20
1.166249999999999
 30
0.0
 40
0.6435500000000001
100
AcDbArc
 50
268.2629752123441
 51
271.7370247876555
  0
ARC
  5
3A89
330
17
100
AcDbEntity
  8
0
100
AcDbCircle
 10
0.0189011460430919
 20
0.5429865330952186
 30
0.0
 40
0.02
100
AcDbArc
 50
271.7370247876531
 51
11.19790693890448
  0
ARC
  5
3A8A
330
17
100
AcDbEntity
  8
0
100
AcDbCircle
 10
-0.018901146043099
 20
0.5429865330952186
 30
0.0
 40
0.02
100
AcDbArc
 50
168.8020930610895
 51
268.262975212347
  0
ARC
  5
3A8B
330
17
100
AcDbEntity
  8
0
100
AcDbCircle
 10
0.0
 20
1.166249999999999
 30
0.0
 40
0.6435500000000001
100
AcDbArc
 50
314.6495983819816
 51
0.0
  0
ARC
  5
3A8C
330
17
100
AcDbEntity
  8
0
100
AcDbCircle
 10
0.0
 20
1.166249999999999
 30
0.0
 40
1.16625
100
AcDbArc
 50
180.0
 51
0.0
  0
LINE
  5
3A8D
330
17
100
AcDbEntity
  8
0
100
AcDbLine
 10
-0.4375
 20
7.937499999999916
 30
0.0
 11
-0.4375
 21
7.804903876505962
 31
0.0
  0
ARC
  5
3A8E
330
17
100
AcDbEntity
  8
0
100
AcDbCircle
 10
-0.3125
 20
7.804903876505955
 30
0.0
 40
0.125
100
AcDbArc
 50
179.9999999999967
 51
220.0000000000005
  0
LINE
  5
3A8F
330
17
100
AcDbEntity
  8
0
100
AcDbLine
 10
-0.4082555553898715
 20
7.724555425295138
 30
0.0
 11
0.2832555553898146
 21
6.900444574704751
 31
0.0
  0
ARC
  5
3A90
330
17
100
AcDbEntity
  8
0
100
AcDbCircle
 10
0.1874999999999574
 20
6.820096123493941
 30
0.0
 40
0.1249999999999837
100
AcDbArc
 50
359.9999999999935
 51
40.00000000000186
  0
LINE
  5
3A91
330
17
100
AcDbEntity
  8
0
100
AcDbLine
 10
0.3124999999999432
 20
6.820096123493927
 30
0.0
 11
0.3124999999999147
 21
6.554903876505905
 31
0.0
  0
ARC
  5
3A92
330
17
100
AcDbEntity
  8
0
100
AcDbCircle
 10
0.1874999999999431
 20
6.554903876505884
 30
0.0
 40
0.1249999999999716
100
AcDbArc
 50
320.0000000000147
 51
0.0000000000097707
  0
LINE
  5
3A93
330
17
100
AcDbEntity
  8
0
100
AcDbLine
 10
0.2832555553898146
 20
6.474555425295109
 30
0.0
 11
-0.4082555553898715
 21
5.650444574704694
 31
0.0
  0
ARC
  5
3A94
330
17
100
AcDbEntity
  8
0
100
AcDbCircle
 10
-0.3124999999999929
 20
5.57009612349387
 30
0.0
 40
0.1250000000000091
100
AcDbArc
 50
139.9999999999994
 51
180.0
  0
LINE
  5
3A95
330
17
100
AcDbEntity
  8
0
100
AcDbLine
 10
-0.4375
 20
5.57009612349387
 30
0.0
 11
-0.4375
 21
5.304903876506104
 31
0.0
  0
ARC
  5
3A96
330
17
100
AcDbEntity
  8
0
100
AcDbCircle
 10
-0.3124999999999858
 20
5.304903876506104
 30
0.0
 40
0.1250000000000142
100
AcDbArc
 50
180.0
 51
219.9999999999986
  0
LINE
  5
3A97
330
17
100
AcDbEntity
  8
0
100
AcDbLine
 10
-0.4082555553898715
 20
5.22455542529528
 30
0.0
 11
-0.1794777784405142
 21
4.951908687710131
 31
0.0
  0
ARC
  5
3A98
330
17
100
AcDbEntity
  8
0
100
AcDbCircle
 10
-0.5625000000000142
 20
4.630514882866856
 30
0.0
 40
0.5000000000000066
100
AcDbArc
 50
0.0000000000008142
 51
40.0
  0
LINE
  5
3A99
330
17
100
AcDbEntity
  8
0
100
AcDbLine
 10
-0.0625
 20
4.630514882866863
 30
0.0
 11
-0.0625000000000284
 21
3.367668339265323
 31
0.0
  0
ARC
  5
3A9A
330
17
100
AcDbEntity
  8
0
100
AcDbCircle
 10
-0.5625000000000427
 20
3.367668339265351
 30
0.0
 40
0.5000000000000142
100
AcDbArc
 50
339.9999999999951
 51
359.9999999999968
  0
LINE
  5
3A9B
330
17
100
AcDbEntity
  8
0
100
AcDbLine
 10
-0.09265368960709
 20
3.196658267602474
 30
0.0
 11
-0.613396310392858
 21
1.765929675646022
 31
0.0
  0
ARC
  5
3A9C
330
17
100
AcDbEntity
  8
0
100
AcDbCircle
 10
-0.143549999999891
 20
1.594919603983223
 30
0.0
 40
0.4999999999999999
100
AcDbArc
 50
160.0000000000043
 51
180.000000000004
  0
LINE
  5
3A9D
330
17
100
AcDbEntity
  8
0
100
AcDbLine
 10
-0.6435499999998911
 20
1.594919603983187
 30
0.0
 11
-0.6435499999998911
 21
1.166249999999999
 31
0.0
  0
CIRCLE
  5
3A9E
330
17
100
AcDbEntity
  8
0
100
AcDbCircle
 10
-0.0625000000000569
 20
6.687500000000001
 30
0.0
 40
0.125
  0
CIRCLE
  5
3A9F
330
17
100
AcDbEntity
  8
0
100
AcDbCircle
 10
-0.5625
 20
6.062499999999973
 30
0.0
 40
0.125
  0
CIRCLE
  5
3AA0
330
17
100
AcDbEntity
  8
0
100
AcDbCircle
 10
-0.5625
 20
7.312499999999973
 30
0.0
 40
0.125
  0
LINE
  5
3AA1
330
17
100
AcDbEntity
  8
0
100
AcDbLine
 10
0.6435499999999763
 20
1.166250000000085
 30
0.0
 11
0.6435499999999195
 21
1.594919603983287
 31
0.0
  0
ARC
  5
3AA2
330
17
100
AcDbEntity
  8
0
100
AcDbCircle
 10
0.1435499999999337
 20
1.594919603983194
 30
0.0
 40
0.4999999999999858
100
AcDbArc
 50
0.000000000010992
 51
20.00000000000524
  0
LINE
  5
3AA3
330
17
100
AcDbEntity
  8
0
100
AcDbLine
 10
0.613396310392858
 20
1.765929675646065
 30
0.0
 11
0.0926536896071468
 21
3.196658267602289
 31
0.0
  0
ARC
  5
3AA4
330
17
100
AcDbEntity
  8
0
100
AcDbCircle
 10
0.5625000000000853
 20
3.367668339265167
 30
0.0
 40
0.5
100
AcDbArc
 50
180.0000000000031
 51
200.0000000000052
  0
LINE
  5
3AA5
330
17
100
AcDbEntity
  8
0
100
AcDbLine
 10
0.0625000000000853
 20
3.367668339265138
 30
0.0
 11
0.0625000000001137
 21
4.630514882866878
 31
0.0
  0
ARC
  5
3AA6
330
17
100
AcDbEntity
  8
0
100
AcDbCircle
 10
-0.4374999999998579
 20
4.630514882866863
 30
0.0
 40
0.4999999999999645
100
AcDbArc
 50
0.0000000000020356
 51
39.99999999999731
  0
LINE
  5
3AA7
330
17
100
AcDbEntity
  8
0
100
AcDbLine
 10
-0.0544777784403721
 20
4.951908687710089
 30
0.0
 11
-0.2832555553897578
 21
5.224555425295351
 31
0.0
  0
ARC
  5
3AA8
330
17
100
AcDbEntity
  8
0
100
AcDbCircle
 10
-0.1874999999999147
 20
5.304903876506161
 30
0.0
 40
0.1249999999999705
100
AcDbArc
 50
180.0000000000049
 51
220.0000000000048
  0
LINE
  5
3AA9
330
17
100
AcDbEntity
  8
0
100
AcDbLine
 10
-0.3124999999998863
 20
5.304903876506147
 30
0.0
 11
-0.3124999999998295
 21
5.570096123493913
 31
0.0
  0
ARC
  5
3AAA
330
17
100
AcDbEntity
  8
0
100
AcDbCircle
 10
-0.1874999999998579
 20
5.570096123493934
 30
0.0
 40
0.1249999999999716
100
AcDbArc
 50
140.0000000000146
 51
180.0000000000096
  0
LINE
  5
3AAB
330
17
100
AcDbEntity
  8
0
100
AcDbLine
 10
-0.2832555553897293
 20
5.650444574704708
 30
0.0
 11
0.4082555553899283
 21
6.47455542529518
 31
0.0
  0
ARC
  5
3AAC
330
17
100
AcDbEntity
  8
0
100
AcDbCircle
 10
0.3125000000000853
 20
6.55490387650599
 30
0.0
 40
0.1249999999999705
100
AcDbArc
 50
319.999999999995
 51
359.9999999999951
  0
LINE
  5
3AAD
330
17
100
AcDbEntity
  8
0
100
AcDbLine
 10
0.4375000000000569
 20
6.554903876505976
 30
0.0
 11
0.4375000000000569
 21
6.82009612349397
 31
0.0
  0
ARC
  5
3AAE
330
17
100
AcDbEntity
  8
0
100
AcDbCircle
 10
0.3125000000000995
 20
6.820096123493962
 30
0.0
 40
0.1249999999999574
100
AcDbArc
 50
0.0000000000032569
 51
40.00000000000757
  0
LINE
  5
3AAF
330
17
100
AcDbEntity
  8
0
100
AcDbLine
 10
0.4082555553899283
 20
6.900444574704765
 30
0.0
 11
-0.2832555553897578
 21
7.72455542529518
 31
0.0
  0
ARC
  5
3AB0
330
17
100
AcDbEntity
  8
0
100
AcDbCircle
 10
-0.1874999999999289
 20
7.804903876506026
 30
0.0
 40
0.1249999999999847
100
AcDbArc
 50
180.0000000000162
 51
220.0000000000227
  0
LINE
  5
3AB1
330
17
100
AcDbEntity
  8
0
100
AcDbLine
 10
-0.3124999999999147
 20
7.80490387650599
 30
0.0
 11
-0.3124999999998579
 21
7.937499999999916
 31
0.0
  0
CIRCLE
  5
3AB2
330
17
100
AcDbEntity
  8
0
100
AcDbCircle
 10
0.5625000000000853
 20
6.06249999999993
 30
0.0
 40
0.125
  0
CIRCLE
  5
3AB3
330
17
100
AcDbEntity
  8
0
100
AcDbCircle
 10
0.0625000000001137
 20
5.437499999999987
 30
0.0
 40
0.125
  0
CIRCLE
  5
3AB4
330
17
100
AcDbEntity
  8
0
100
AcDbCircle
 10
0.5625000000000853
 20
7.31249999999993
 30
0.0
 40
0.125
  0
LINE
  5
3AB5
330
17
100
AcDbEntity
  8
0
100
AcDbLine
 10
-0.0385203910477401
 20
0.5468705034153505
 30
0.0
 11
0.0
 21
0.7726999999999951
 31
0.0
  0
LINE
  5
3AB6
330
17
100
AcDbEntity
  8
0
100
AcDbLine
 10
0.0385203910477472
 20
0.5468705034153505
 30
0.0
 11
0.0
 21
0.7726999999999951
 31
0.0
  0
ARC
  5
3AB7
330
17
100
AcDbEntity
  8
0
100
AcDbCircle
 10
-1.0
 20
1.670746052584371
 30
0.0
 40
0.03125
100
AcDbArc
 50
180.0000000000227
 51
221.3954130506539
  0
ARC
  5
3AB8
330
17
100
AcDbEntity
  8
0
100
AcDbCircle
 10
-1.0
 20
1.670746052584371
 30
0.0
 40
0.16625
100
AcDbArc
 50
180.0000000000227
 51
221.3954130506539
  0
ARC
  5
3AB9
330
17
100
AcDbEntity
  8
0
100
AcDbCircle
 10
-1.187499999999886
 20
1.395746052584394
 30
0.0
 40
0.1562500000000203
100
AcDbArc
 50
318.6045869493546
 51
41.39541305064532
  0
ARC
  5
3ABA
330
17
100
AcDbEntity
  8
0
100
AcDbCircle
 10
-1.187499999999886
 20
1.395746052584394
 30
0.0
 40
0.2912500000000203
100
AcDbArc
 50
318.6045869493633
 51
41.39541305063768
  0
LINE
  5
3ABB
330
17
100
AcDbEntity
  8
0
100
AcDbLine
 10
-1.023442625316079
 20
1.650081933481709
 30
0.0
 11
-0.9690147320540063
 21
1.588335642621382
 31
0.0
  0
LINE
  5
3ABC
330
17
100
AcDbEntity
  8
0
100
AcDbLine
 10
-1.124714766681563
 20
1.560812938958116
 30
0.0
 11
-1.070286873419433
 21
1.499066648097789
 31
0.0
  0
LINE
  5
3ABD
330
17
100
AcDbEntity
  8
0
100
AcDbLine
 10
-1.022457883693718
 20
1.142527322085394
 30
0.0
 11
-0.9690147320540063
 21
1.203156462547378
 31
0.0
  0
ARC
  5
3ABE
330
17
100
AcDbEntity
  8
0
100
AcDbCircle
 10
-0.9990152583776392
 20
1.121863202982696
 30
0.0
 40
0.03125
100
AcDbArc
 50
138.6045869493547
 51
182.1181302886497
  0
ARC
  5
3ABF
330
17
100
AcDbEntity
  8
0
100
AcDbCircle
 10
-0.9990182165562657
 20
1.121859847046126
 30
0.0
 40
0.16625
100
AcDbArc
 50
138.6045869493547
 51
182.1181302886497
  0
LINE
  5
3AC0
330
17
100
AcDbEntity
  8
0
100
AcDbLine
 10
-1.123732983237779
 20
1.231792960672402
 30
0.0
 11
-1.070286873419433
 21
1.292425457070971
 31
0.0
  0
ARC
  5
3AC1
330
17
100
AcDbEntity
  8
0
100
AcDbCircle
 10
1.0
 20
1.670746052584371
 30
0.0
 40
0.03125
100
AcDbArc
 50
318.604586949346
 51
359.9999999999771
  0
ARC
  5
3AC2
330
17
100
AcDbEntity
  8
0
100
AcDbCircle
 10
1.0
 20
1.670746052584371
 30
0.0
 40
0.16625
100
AcDbArc
 50
318.604586949346
 51
359.9999999999771
  0
ARC
  5
3AC3
330
17
100
AcDbEntity
  8
0
100
AcDbCircle
 10
1.187499999999886
 20
1.395746052584394
 30
0.0
 40
0.1562500000000203
100
AcDbArc
 50
138.6045869493547
 51
221.3954130506453
  0
ARC
  5
3AC4
330
17
100
AcDbEntity
  8
0
100
AcDbCircle
 10
1.187499999999886
 20
1.395746052584394
 30
0.0
 40
0.2912500000000203
100
AcDbArc
 50
138.6045869493623
 51
221.3954130506367
  0
LINE
  5
3AC5
330
17
100
AcDbEntity
  8
0
100
AcDbLine
 10
1.023442625316079
 20
1.650081933481709
 30
0.0
 11
0.9690147320540063
 21
1.588335642621382
 31
0.0
  0
LINE
  5
3AC6
330
17
100
AcDbEntity
  8
0
100
AcDbLine
 10
1.124714766681563
 20
1.560812938958116
 30
0.0
 11
1.070286873419433
 21
1.499066648097789
 31
0.0
  0
LINE
  5
3AC7
330
17
100
AcDbEntity
  8
0
100
AcDbLine
 10
1.022457883693718
 20
1.142527322085394
 30
0.0
 11
0.9690147320540063
 21
1.203156462547378
 31
0.0
  0
ARC
  5
3AC8
330
17
100
AcDbEntity
  8
0
100
AcDbCircle
 10
0.9990152583776392
 20
1.121863202982696
 30
0.0
 40
0.03125
100
AcDbArc
 50
357.8818697113501
 51
41.39541305064532
  0
ARC
  5
3AC9
330
17
100
AcDbEntity
  8
0
100
AcDbCircle
 10
0.9990182165562657
 20
1.121859847046126
 30
0.0
 40
0.16625
100
AcDbArc
 50
357.8818697113501
 51
41.39541305064532
  0
LINE
  5
3ACA
330
17
100
AcDbEntity
  8
0
100
AcDbLine
 10
1.123732983237772
 20
1.231792960672402
 30
0.0
 11
1.070286873419433
 21
1.292425457070971
 31
0.0
  0
LINE
  5
3ACB
330
17
100
AcDbEntity
  8
0
100
AcDbLine
 10
-0.2685923790444775
 20
0.7170828609312441
 30
0.0
 11
-0.1838373483687405
 21
0.8182766794066029
 31
0.0
  0
ARC
  5
3ACC
330
17
100
AcDbEntity
  8
0
100
AcDbCircle
 10
0.3644209472917055
 20
0.7973442184308955
 30
0.0
 40
0.125
100
AcDbArc
 50
219.9479069389097
 51
314.6495983819822
  0
LINE
  5
3ACD
330
17
100
AcDbEntity
  8
0
100
AcDbLine
 10
0.2685923790444775
 20
0.7170828609312441
 30
0.0
 11
0.1838373483687405
 21
0.8182766794066029
 31
0.0
  0
ARC
  5
3ACE
330
17
100
AcDbEntity
  8
0
100
AcDbCircle
 10
0.6398401472300677
 20
0.1911891565175896
 30
0.0
 40
0.3225
100
AcDbArc
 50
70.14299764187812
 51
176.4032023581195
  0
ARC
  5
3ACF
330
17
100
AcDbEntity
  8
0
100
AcDbCircle
 10
0.6398401472300677
 20
0.1911891565175896
 30
0.0
 40
0.1875
100
AcDbArc
 50
70.14299764187855
 51
176.4032023581195
  0
LINE
  5
3AD0
330
17
100
AcDbEntity
  8
0
100
AcDbLine
 10
0.317646869287671
 20
0.2061946653991402
 30
0.0
 11
0.3179753960111213
 21
0.2114211095315088
 31
0.0
  0
ARC
  5
3AD1
330
17
100
AcDbEntity
  8
0
100
AcDbCircle
 10
0.286458424402106
 20
0.2081551259625503
 30
0.0
 40
0.03125
100
AcDbArc
 50
286.5283566325569
 51
356.403202358053
  0
ARC
  5
3AD2
330
17
100
AcDbEntity
  8
0
100
AcDbCircle
 10
0.286458424402106
 20
0.2081551259625503
 30
0.0
 40
0.16625
100
AcDbArc
 50
286.5283566325569
 51
356.403202358053
  0
LINE
  5
3AD3
330
17
100
AcDbEntity
  8
0
100
AcDbLine
 10
0.7543103513909842
 20
0.4927355808164667
 30
0.0
 11
0.7493849525068157
 21
0.4945143708286981
 31
0.0
  0
LINE
  5
3AD4
330
17
100
AcDbEntity
  8
0
100
AcDbLine
 10
0.7543103513910126
 20
0.4927355808164311
 30
0.0
 11
0.749384952506766
 21
0.4945143708286768
 31
0.0
  0
ARC
  5
3AD5
330
17
100
AcDbEntity
  8
0
100
AcDbCircle
 10
0.7649251581038499
 20
0.5221275589473624
 30
0.0
 40
0.03125
100
AcDbArc
 50
250.1429976419444
 51
320.0178433674407
  0
ARC
  5
3AD6
330
17
100
AcDbEntity
  8
0
100
AcDbCircle
 10
0.7649251581038499
 20
0.5221275589473624
 30
0.0
 40
0.16625
100
AcDbArc
 50
250.1429976419444
 51
320.0178433674407
  0
ARC
  5
3AD7
330
17
100
AcDbEntity
  8
0
100
AcDbCircle
 10
-0.6398401472300535
 20
0.1911891565175825
 30
0.0
 40
0.3225
100
AcDbArc
 50
3.596797641880277
 51
109.8570023581214
  0
ARC
  5
3AD8
330
17
100
AcDbEntity
  8
0
100
AcDbCircle
 10
-0.6398401472300535
 20
0.1911891565175825
 30
0.0
 40
0.1875
100
AcDbArc
 50
3.596797641880277
 51
109.8570023581214
  0
LINE
  5
3AD9
330
17
100
AcDbEntity
  8
0
100
AcDbLine
 10
-0.3176468692876568
 20
0.2061946653991402
 30
0.0
 11
-0.3179753960111356
 21
0.2114211095315017
 31
0.0
  0
ARC
  5
3ADA
330
17
100
AcDbEntity
  8
0
100
AcDbCircle
 10
-0.2864584244020989
 20
0.2081551259625503
 30
0.0
 40
0.03125
100
AcDbArc
 50
183.5967976419468
 51
253.4716433674431
  0
ARC
  5
3ADB
330
17
100
AcDbEntity
  8
0
100
AcDbCircle
 10
-0.2864584244020989
 20
0.2081551259625503
 30
0.0
 40
0.16625
100
AcDbArc
 50
183.5967976419468
 51
253.4716433674431
  0
LINE
  5
3ADC
330
17
100
AcDbEntity
  8
0
100
AcDbLine
 10
-0.7543103513909913
 20
0.4927355808164667
 30
0.0
 11
-0.7493849525068015
 21
0.4945143708287052
 31
0.0
  0
LINE
  5
3ADD
330
17
100
AcDbEntity
  8
0
100
AcDbLine
 10
-0.7543103513910126
 20
0.4927355808164311
 30
0.0
 11
-0.7493849525067589
 21
0.4945143708286981
 31
0.0
  0
ARC
  5
3ADE
330
17
100
AcDbEntity
  8
0
100
AcDbCircle
 10
-0.7649251581038499
 20
0.5221275589473553
 30
0.0
 40
0.03125
100
AcDbArc
 50
219.9821566325593
 51
289.8570023580557
  0
ARC
  5
3ADF
330
17
100
AcDbEntity
  8
0
100
AcDbCircle
 10
-0.7649251581038499
 20
0.5221275589473553
 30
0.0
 40
0.16625
100
AcDbArc
 50
219.9821566325593
 51
289.8570023580557
  0
LINE
  5
3AE0
330
17
100
AcDbEntity
  8
0
100
AcDbLine
 10
-1.166250000000005
 20
7.937499999999916
 30
0.0
 11
-0.4375
 21
7.937499999999916
 31
0.0
  0
LINE
  5
3AE1
330
17
100
AcDbEntity
  8
0
100
AcDbLine
 10
-0.3124999999998721
 20
7.93749999999998
 30
0.0
 11
1.166250000000047
 21
7.937499999999923
 31
0.0
  0
CIRCLE
  5
3F4E
330
17
100
AcDbEntity
  8
0
100
AcDbCircle
 10
0.0000000000000071
 20
12.55475616060003
 30
0.0
 40
0.34375
  0
LINE
  5
3F88
330
17
100
AcDbEntity
  8
0
100
AcDbLine
 10
-5.384099646544939
 20
0.0624999999999805
 30
0.0
 11
-5.384099646544953
 21
1.231468916432016
 31
0.0
  0
LINE
  5
3F89
330
17
100
AcDbEntity
  8
0
100
AcDbLine
 10
-5.384099646544811
 20
0.0624999999999663
 30
0.0
 11
-5.384099646544811
 21
1.562499999999966
 31
0.0
  0
LINE
  5
3F8A
330
17
100
AcDbEntity
  8
0
100
AcDbLine
 10
-6.385149646544363
 20
0.1349999999999145
 30
0.0
 11
-6.010149646544363
 21
0.1349999999999145
 31
0.0
  0
LINE
  5
3F8B
330
17
100
AcDbEntity
  8
0
  6
HIDDEN
100
AcDbLine
 10
-8.871399646545043
 20
7.937499999999959
 30
0.0
 11
-8.871399646545039
 21
0.33499999999996
 31
0.0
  0
LINE
  5
3F8C
330
17
100
AcDbEntity
  8
0
100
AcDbLine
 10
-9.006399646545037
 20
7.937499999999959
 30
0.0
 11
-9.006399646545041
 21
0.33499999999996
 31
0.0
  0
LINE
  5
3F8D
330
17
100
AcDbEntity
  8
0
100
AcDbLine
 10
-6.672078158773416
 20
5.276718267560577
 30
0.0
 11
-6.808899646545043
 21
7.937499999999937
 31
0.0
  0
LINE
  5
3F8E
330
17
100
AcDbEntity
  8
0
100
AcDbLine
 10
-5.414253336152
 20
1.777448226669301
 30
0.0
 11
-6.644663521482243
 21
5.157972427531612
 31
0.0
  0
LINE
  5
3F8F
330
17
100
AcDbEntity
  8
0
100
AcDbLine
 10
-7.058899646545043
 20
0.0009854827999707
 30
0.0
 11
-7.058899646545043
 21
0.1349999999999714
 31
0.0
  0
LINE
  5
3F90
330
17
100
AcDbEntity
  8
0
100
AcDbLine
 10
-8.183899646545043
 20
0.0009863608999954
 30
0.0
 11
-8.183899646545043
 21
0.1349999999999714
 31
0.0
  0
ARC
  5
3F91
330
17
100
AcDbEntity
  8
0
100
AcDbCircle
 10
-8.67139964654504
 20
0.33499999999996
 30
0.0
 40
0.2
100
AcDbArc
 50
180.0
 51
270.0000000000004
  0
ARC
  5
3F92
330
17
100
AcDbEntity
  8
0
100
AcDbCircle
 10
-8.67139964654504
 20
0.33499999999996
 30
0.0
 40
0.335
100
AcDbArc
 50
180.0
 51
270.0
  0
LINE
  5
3F93
330
17
100
AcDbEntity
  8
0
100
AcDbLine
 10
-5.384099646544925
 20
0.0000000000000089
 30
0.0
 11
-5.384099646544939
 21
1.606438155006467
 31
0.0
  0
LINE
  5
3F94
330
17
100
AcDbEntity
  8
0
100
AcDbLine
 10
-8.67139964654504
 20
-0.0000000000000195
 30
0.0
 11
-5.384099646544925
 21
0.0000000000000089
 31
0.0
  0
LINE
  5
3F95
330
17
100
AcDbEntity
  8
0
100
AcDbLine
 10
-8.67139964654504
 20
0.1349999999999714
 30
0.0
 11
-5.384099646544925
 21
0.1349999999999998
 31
0.0
  0
ARC
  5
3F96
330
17
100
AcDbEntity
  8
0
100
AcDbCircle
 10
-6.134099646544981
 20
0.3983782343962137
 30
0.0
 40
0.1875
100
AcDbArc
 50
197.0312484582282
 51
342.9687515417719
  0
ARC
  5
3F97
330
17
100
AcDbEntity
  8
0
100
AcDbCircle
 10
-6.134099646544981
 20
0.2885432773411285
 30
0.0
 40
0.1875
100
AcDbArc
 50
17.03124845822947
 51
162.9687515417705
  0
ARC
  5
3F98
330
17
100
AcDbEntity
  8
0
100
AcDbCircle
 10
-6.134099646544981
 20
0.561664663682203
 30
0.0
 40
0.3225
100
AcDbArc
 50
193.454784686899
 51
346.545215313101
  0
ARC
  5
3F99
330
17
100
AcDbEntity
  8
0
100
AcDbCircle
 10
-6.134099646544981
 20
0.4115873926375944
 30
0.0
 40
0.3225
100
AcDbArc
 50
13.45478468689986
 51
166.5452153131001
  0
ARC
  5
3F9A
330
17
100
AcDbEntity
  8
0
100
AcDbCircle
 10
-5.884099646544939
 20
1.60643815500641
 30
0.0
 40
0.5
100
AcDbArc
 50
0.0000000000065208
 51
20.00000000000698
  0
CIRCLE
  5
3F9B
330
17
100
AcDbEntity
  8
0
100
AcDbCircle
 10
-7.621399646545043
 20
1.363746052584653
 30
0.0
 40
0.3225
  0
CIRCLE
  5
3F9C
330
17
100
AcDbEntity
  8
0
100
AcDbCircle
 10
-7.621399646545043
 20
1.363746052584653
 30
0.0
 40
0.1875
  0
LINE
  5
3F9D
330
17
100
AcDbEntity
  8
0
100
AcDbLine
 10
-8.871399646545043
 20
0.3849999999999714
 30
0.0
 11
-9.006399646545034
 21
0.3849999999999714
 31
0.0
  0
ARC
  5
3F9E
330
17
100
AcDbEntity
  8
0
100
AcDbCircle
 10
-6.174817211089361
 20
5.328982499194419
 30
0.0
 40
0.4999999999999222
100
AcDbArc
 50
186.0000000000026
 51
200.0
  0
LINE
  5
3F9F
330
17
100
AcDbEntity
  8
0
100
AcDbLine
 10
-7.058899646545043
 20
1.166249999999971
 30
0.0
 11
-8.183899646545043
 21
1.166249999999971
 31
0.0
  0
LINE
  5
3FA0
330
17
100
AcDbEntity
  8
0
100
AcDbLine
 10
-7.058899646545043
 20
0.9312499999999577
 30
0.0
 11
-8.183899646545043
 21
0.9312499999999577
 31
0.0
  0
LINE
  5
3FA1
330
17
100
AcDbEntity
  8
0
100
AcDbLine
 10
-7.152649646545043
 20
0.9312499999999577
 30
0.0
 11
-7.152649646545043
 21
1.166249999999971
 31
0.0
  0
LINE
  5
3FA2
330
17
100
AcDbEntity
  8
0
100
AcDbLine
 10
-6.808899646545043
 20
0.6812499999999578
 30
0.0
 11
-6.808899646545043
 21
0.1349999999999714
 31
0.0
  0
LINE
  5
3FA3
330
17
100
AcDbEntity
  8
0
100
AcDbLine
 10
-6.573899646545029
 20
0.6812499999999578
 30
0.0
 11
-6.573899646545029
 21
0.1349999999999714
 31
0.0
  0
ARC
  5
3FA4
330
17
100
AcDbEntity
  8
0
100
AcDbCircle
 10
-7.058899646545043
 20
0.6812499999999578
 30
0.0
 40
0.25
100
AcDbArc
 50
0.000000000000007
 51
90.0
  0
ARC
  5
3FA5
330
17
100
AcDbEntity
  8
0
100
AcDbCircle
 10
-7.058899646545043
 20
0.6812499999999578
 30
0.0
 40
0.485
100
AcDbArc
 50
0.000000000000007
 51
89.88782289409959
  0
LINE
  5
3FA6
330
17
100
AcDbEntity
  8
0
100
AcDbLine
 10
-8.668899646545057
 20
0.6812499999999578
 30
0.0
 11
-8.668899646545
 21
0.1349999999999714
 31
0.0
  0
LINE
  5
3FA7
330
17
100
AcDbEntity
  8
0
100
AcDbLine
 10
-8.433899646545043
 20
0.6812499999999578
 30
0.0
 11
-8.433899646544986
 21
0.1349999999999714
 31
0.0
  0
LINE
  5
3FA8
330
17
100
AcDbEntity
  8
0
100
AcDbLine
 10
-8.090149646545043
 20
0.9312499999999577
 30
0.0
 11
-8.090149646545043
 21
1.166249999999971
 31
0.0
  0
ARC
  5
3FA9
330
17
100
AcDbEntity
  8
0
100
AcDbCircle
 10
-8.183899646545043
 20
0.6812499999999578
 30
0.0
 40
0.25
100
AcDbArc
 50
90.0
 51
180.0
  0
ARC
  5
3FAA
330
17
100
AcDbEntity
  8
0
100
AcDbCircle
 10
-8.183899646545043
 20
0.6812499999999578
 30
0.0
 40
0.485
100
AcDbArc
 50
90.11218579649931
 51
180.0
  0
LINE
  5
3FAB
330
17
100
AcDbEntity
  8
0
100
AcDbLine
 10
-9.006399646544902
 20
7.937499999999952
 30
0.0
 11
-6.808899646545043
 21
7.937499999999937
 31
0.0
  0
CIRCLE
  5
3FAD
330
17
100
AcDbEntity
  8
0
100
AcDbCircle
 10
-7.871399646544908
 20
6.68824999999977
 30
0.0
 40
0.3435
  0
LINE
  5
3FBA
330
17
100
AcDbEntity
  8
0
100
AcDbLine
 10
1.000000148008723
 20
12.0087675987
 30
0.0
 11
0.9999842745087192
 21
11.9287418906
 31
0.0
  0
LINE
  5
3FBB
330
17
100
AcDbEntity
  8
0
100
AcDbLine
 10
0.9999842745087192
 20
11.9287418906
 30
0.0
 11
0.9997578548087275
 21
11.85118276250001
 31
0.0
  0
LINE
  5
3FBC
330
17
100
AcDbEntity
  8
0
100
AcDbLine
 10
0.9997578548087275
 20
11.85118276250001
 30
0.0
 11
0.9988353172087229
 21
11.7787071329
 31
0.0
  0
LINE
  5
3FBD
330
17
100
AcDbEntity
  8
0
100
AcDbLine
 10
0.9988353172087229
 20
11.7787071329
 30
0.0
 11
0.9965178164087262
 21
11.71271596290001
 31
0.0
  0
LINE
  5
3FBE
330
17
100
AcDbEntity
  8
0
100
AcDbLine
 10
0.9965178164087262
 20
11.71271596290001
 30
0.0
 11
0.9918800109087229
 21
11.653458118
 31
0.0
  0
LINE
  5
3FBF
330
17
100
AcDbEntity
  8
0
100
AcDbLine
 10
0.9918800109087229
 20
11.653458118
 30
0.0
 11
0.9840054651087228
 21
11.603078692
 31
0.0
  0
LINE
  5
3FC0
330
17
100
AcDbEntity
  8
0
100
AcDbLine
 10
0.9840054651087228
 20
11.603078692
 30
0.0
 11
0.9721602374087225
 21
11.56309576920001
 31
0.0
  0
LINE
  5
3FC1
330
17
100
AcDbEntity
  8
0
100
AcDbLine
 10
0.9721602374087225
 20
11.56309576920001
 30
0.0
 11
0.9554086170087217
 21
11.53363438130001
 31
0.0
  0
LINE
  5
3FC2
330
17
100
AcDbEntity
  8
0
100
AcDbLine
 10
0.9554086170087217
 20
11.53363438130001
 30
0.0
 11
0.9332395560087221
 21
11.5156829216
 31
0.0
  0
LINE
  5
3FC3
330
17
100
AcDbEntity
  8
0
100
AcDbLine
 10
0.9332395560087221
 20
11.5156829216
 30
0.0
 11
0.9058689937087223
 21
11.50975616060001
 31
0.0
  0
LINE
  5
3FC4
330
17
100
AcDbEntity
  8
0
100
AcDbLine
 10
0.9999842745087192
 20
11.95351237775397
 30
0.0
 11
0.9997578548087275
 21
11.91473281375397
 31
0.0
  0
LINE
  5
3FC5
330
17
100
AcDbEntity
  8
0
100
AcDbLine
 10
0.9997578548087275
 20
11.91473281375397
 30
0.0
 11
0.9988353172087229
 21
11.87849499895397
 31
0.0
  0
LINE
  5
3FC6
330
17
100
AcDbEntity
  8
0
100
AcDbLine
 10
0.9988353172087229
 20
11.87849499895397
 30
0.0
 11
0.9965178164087262
 21
11.84549941385397
 31
0.0
  0
LINE
  5
3FC7
330
17
100
AcDbEntity
  8
0
100
AcDbLine
 10
0.9965178164087262
 20
11.84549941385397
 30
0.0
 11
0.9918800109087229
 21
11.81587049145397
 31
0.0
  0
LINE
  5
3FC8
330
17
100
AcDbEntity
  8
0
100
AcDbLine
 10
0.9918800109087229
 20
11.81587049145397
 30
0.0
 11
0.9840054651087228
 21
11.79068077845397
 31
0.0
  0
LINE
  5
3FC9
330
17
100
AcDbEntity
  8
0
100
AcDbLine
 10
0.9840054651087228
 20
11.79068077845397
 30
0.0
 11
0.9721602374087225
 21
11.77068931705397
 31
0.0
  0
LINE
  5
3FCA
330
17
100
AcDbEntity
  8
0
100
AcDbLine
 10
0.9721602374087225
 20
11.77068931705397
 30
0.0
 11
0.9554086170087217
 21
11.75595862315397
 31
0.0
  0
LINE
  5
3FCB
330
17
100
AcDbEntity
  8
0
100
AcDbLine
 10
0.9554086170087217
 20
11.75595862315397
 30
0.0
 11
0.9332395560087221
 21
11.74698289325397
 31
0.0
  0
LINE
  5
3FCC
330
17
100
AcDbEntity
  8
0
100
AcDbLine
 10
0.9332395560087221
 20
11.74698289325397
 30
0.0
 11
0.9058689937087223
 21
11.74401951275397
 31
0.0
  0
LINE
  5
3FCD
330
17
100
AcDbEntity
  8
0
100
AcDbLine
 10
0.9059677163431132
 20
13.36975616059996
 30
0.0
 11
0.9333382821431115
 21
13.36679277929996
 31
0.0
  0
LINE
  5
3FCE
330
17
100
AcDbEntity
  8
0
100
AcDbLine
 10
0.9333382821431115
 20
13.36679277929996
 30
0.0
 11
0.9555073451431184
 21
13.35781704689996
 31
0.0
  0
LINE
  5
3FCF
330
17
100
AcDbEntity
  8
0
100
AcDbLine
 10
0.9555073451431184
 20
13.35781704689996
 30
0.0
 11
0.972258966043114
 21
13.34308634889997
 31
0.0
  0
LINE
  5
3FD0
330
17
100
AcDbEntity
  8
0
100
AcDbLine
 10
0.972258966043114
 20
13.34308634889997
 30
0.0
 11
0.9841041932431124
 21
13.32309488209996
 31
0.0
  0
LINE
  5
3FD1
330
17
100
AcDbEntity
  8
0
100
AcDbLine
 10
0.9841041932431124
 20
13.32309488209996
 30
0.0
 11
0.9919787378431124
 21
13.29790516249997
 31
0.0
  0
LINE
  5
3FD2
330
17
100
AcDbEntity
  8
0
100
AcDbLine
 10
0.9919787378431124
 20
13.29790516249997
 30
0.0
 11
0.9966165418431174
 21
13.26827623289996
 31
0.0
  0
LINE
  5
3FD3
330
17
100
AcDbEntity
  8
0
100
AcDbLine
 10
0.9966165418431174
 20
13.26827623289996
 30
0.0
 11
0.9989340412431175
 21
13.23528064019997
 31
0.0
  0
LINE
  5
3FD4
330
17
100
AcDbEntity
  8
0
100
AcDbLine
 10
0.9989340412431175
 20
13.23528064019997
 30
0.0
 11
0.999856578043115
 21
13.19904281719996
 31
0.0
  0
LINE
  5
3FD5
330
17
100
AcDbEntity
  8
0
100
AcDbLine
 10
0.999856578043115
 20
13.19904281719996
 30
0.0
 11
1.00008299714311
 21
13.16026324539997
 31
0.0
  0
LINE
  5
3FD6
330
17
100
AcDbEntity
  8
0
100
AcDbLine
 10
0.9059677163431132
 20
13.60725616060002
 30
0.0
 11
0.9333382821431115
 21
13.60132939800001
 31
0.0
  0
LINE
  5
3FD7
330
17
100
AcDbEntity
  8
0
100
AcDbLine
 10
0.9333382821431115
 20
13.60132939800001
 30
0.0
 11
0.9555073451431184
 21
13.58337793320001
 31
0.0
  0
LINE
  5
3FD8
330
17
100
AcDbEntity
  8
0
100
AcDbLine
 10
0.9555073451431184
 20
13.58337793320001
 30
0.0
 11
0.972258966043114
 21
13.55391653730001
 31
0.0
  0
LINE
  5
3FD9
330
17
100
AcDbEntity
  8
0
100
AcDbLine
 10
0.972258966043114
 20
13.55391653730001
 30
0.0
 11
0.9841041932431124
 21
13.51393360360002
 31
0.0
  0
LINE
  5
3FDA
330
17
100
AcDbEntity
  8
0
100
AcDbLine
 10
0.9841041932431124
 20
13.51393360360002
 30
0.0
 11
0.9919787378431124
 21
13.46355416440002
 31
0.0
  0
LINE
  5
3FDB
330
17
100
AcDbEntity
  8
0
100
AcDbLine
 10
0.9919787378431124
 20
13.46355416440002
 30
0.0
 11
0.9966165418431174
 21
13.40429630510001
 31
0.0
  0
LINE
  5
3FDC
330
17
100
AcDbEntity
  8
0
100
AcDbLine
 10
0.9966165418431174
 20
13.40429630510001
 30
0.0
 11
0.9989340412431175
 21
13.33830511970001
 31
0.0
  0
LINE
  5
3FDD
330
17
100
AcDbEntity
  8
0
100
AcDbLine
 10
0.9989340412431175
 20
13.33830511970001
 30
0.0
 11
0.999856578043115
 21
13.26582947380002
 31
0.0
  0
LINE
  5
3FDE
330
17
100
AcDbEntity
  8
0
100
AcDbLine
 10
0.999856578043115
 20
13.26582947380002
 30
0.0
 11
1.00008299714311
 21
13.18827033010001
 31
0.0
  0
LINE
  5
3FDF
330
17
100
AcDbEntity
  8
0
100
AcDbLine
 10
1.00008299714311
 20
13.18827033010001
 30
0.0
 11
1.000098870643114
 21
13.10824460890002
 31
0.0
  0
LINE
  5
3FE0
330
17
100
AcDbEntity
  8
0
100
AcDbLine
 10
-0.9058688456998353
 20
11.50975616060001
 30
0.0
 11
-0.9332394084998369
 21
11.51568292180001
 31
0.0
  0
LINE
  5
3FE1
330
17
100
AcDbEntity
  8
0
100
AcDbLine
 10
-0.9332394084998369
 20
11.51568292180001
 30
0.0
 11
-0.9554084697998348
 21
11.53363438220001
 31
0.0
  0
LINE
  5
3FE2
330
17
100
AcDbEntity
  8
0
100
AcDbLine
 10
-0.9554084697998348
 20
11.53363438220001
 30
0.0
 11
-0.9721600901998428
 21
11.5630957712
 31
0.0
  0
LINE
  5
3FE3
330
17
100
AcDbEntity
  8
0
100
AcDbLine
 10
-0.9721600901998428
 20
11.5630957712
 30
0.0
 11
-0.9840053177998342
 21
11.60307869540001
 31
0.0
  0
LINE
  5
3FE4
330
17
100
AcDbEntity
  8
0
100
AcDbLine
 10
-0.9840053177998342
 20
11.60307869540001
 30
0.0
 11
-0.9918798633998378
 21
11.6534581232
 31
0.0
  0
LINE
  5
3FE5
330
17
100
AcDbEntity
  8
0
100
AcDbLine
 10
-0.9918798633998378
 20
11.6534581232
 30
0.0
 11
-0.9965176686998375
 21
11.7127159699
 31
0.0
  0
LINE
  5
3FE6
330
17
100
AcDbEntity
  8
0
100
AcDbLine
 10
-0.9965176686998375
 20
11.7127159699
 30
0.0
 11
-0.9988351692998378
 21
11.77870714200001
 31
0.0
  0
LINE
  5
3FE7
330
17
100
AcDbEntity
  8
0
100
AcDbLine
 10
-0.9988351692998378
 20
11.77870714200001
 30
0.0
 11
-0.9997577068998353
 21
11.85118277380001
 31
0.0
  0
LINE
  5
3FE8
330
17
100
AcDbEntity
  8
0
100
AcDbLine
 10
-0.9997577068998353
 20
11.85118277380001
 30
0.0
 11
-0.9999841264998394
 21
11.9287419039
 31
0.0
  0
LINE
  5
3FE9
330
17
100
AcDbEntity
  8
0
100
AcDbLine
 10
-0.9999841264998394
 20
11.9287419039
 30
0.0
 11
-0.9999999999998365
 21
12.00876761370001
 31
0.0
  0
LINE
  5
3FEA
330
17
100
AcDbEntity
  8
0
100
AcDbLine
 10
-0.9058688456998353
 20
11.74401951275397
 30
0.0
 11
-0.9332394084998369
 21
11.74698289335397
 31
0.0
  0
LINE
  5
3FEB
330
17
100
AcDbEntity
  8
0
100
AcDbLine
 10
-0.9332394084998369
 20
11.74698289335397
 30
0.0
 11
-0.9554084697998348
 21
11.75595862355397
 31
0.0
  0
LINE
  5
3FEC
330
17
100
AcDbEntity
  8
0
100
AcDbLine
 10
-0.9554084697998348
 20
11.75595862355397
 30
0.0
 11
-0.9721600901998428
 21
11.77068931805397
 31
0.0
  0
LINE
  5
3FED
330
17
100
AcDbEntity
  8
0
100
AcDbLine
 10
-0.9721600901998428
 20
11.77068931805397
 30
0.0
 11
-0.9840053177998342
 21
11.79068078015397
 31
0.0
  0
LINE
  5
3FEE
330
17
100
AcDbEntity
  8
0
100
AcDbLine
 10
-0.9840053177998342
 20
11.79068078015397
 30
0.0
 11
-0.9918798633998378
 21
11.81587049405397
 31
0.0
  0
LINE
  5
3FEF
330
17
100
AcDbEntity
  8
0
100
AcDbLine
 10
-0.9918798633998378
 20
11.81587049405397
 30
0.0
 11
-0.9965176686998375
 21
11.84549941745397
 31
0.0
  0
LINE
  5
3FF0
330
17
100
AcDbEntity
  8
0
100
AcDbLine
 10
-0.9965176686998375
 20
11.84549941745397
 30
0.0
 11
-0.9988351692998378
 21
11.87849500345397
 31
0.0
  0
LINE
  5
3FF1
330
17
100
AcDbEntity
  8
0
100
AcDbLine
 10
-0.9988351692998378
 20
11.87849500345397
 30
0.0
 11
-0.9997577068998353
 21
11.91473281935397
 31
0.0
  0
LINE
  5
3FF2
330
17
100
AcDbEntity
  8
0
100
AcDbLine
 10
-0.9997577068998353
 20
11.91473281935397
 30
0.0
 11
-0.9999841264998394
 21
11.95351238445397
 31
0.0
  0
LINE
  5
3FF3
330
17
100
AcDbEntity
  8
0
100
AcDbLine
 10
-0.9999999999998365
 20
13.10824480030001
 30
0.0
 11
-0.9999841263998376
 21
13.18827049940001
 31
0.0
  0
LINE
  5
3FF4
330
17
100
AcDbEntity
  8
0
100
AcDbLine
 10
-0.9999841263998376
 20
13.18827049940001
 30
0.0
 11
-0.9997577064998353
 21
13.26582961680001
 31
0.0
  0
LINE
  5
3FF5
330
17
100
AcDbEntity
  8
0
100
AcDbLine
 10
-0.9997577064998353
 20
13.26582961680001
 30
0.0
 11
-0.9988351680998377
 21
13.33830523520002
 31
0.0
  0
LINE
  5
3FF6
330
17
100
AcDbEntity
  8
0
100
AcDbLine
 10
-0.9988351680998377
 20
13.33830523520002
 30
0.0
 11
-0.9965176663998391
 21
13.40429639480002
 31
0.0
  0
LINE
  5
3FF7
330
17
100
AcDbEntity
  8
0
100
AcDbLine
 10
-0.9965176663998391
 20
13.40429639480002
 30
0.0
 11
-0.9918798598998392
 21
13.46355422980002
 31
0.0
  0
LINE
  5
3FF8
330
17
100
AcDbEntity
  8
0
100
AcDbLine
 10
-0.9918798598998392
 20
13.46355422980002
 30
0.0
 11
-0.9840053132998392
 21
13.51393364670002
 31
0.0
  0
LINE
  5
3FF9
330
17
100
AcDbEntity
  8
0
100
AcDbLine
 10
-0.9840053132998392
 20
13.51393364670002
 30
0.0
 11
-0.9721600852998406
 21
13.55391656210002
 31
0.0
  0
LINE
  5
3FFA
330
17
100
AcDbEntity
  8
0
100
AcDbLine
 10
-0.9721600852998406
 20
13.55391656210002
 30
0.0
 11
-0.9554084652998398
 21
13.58337794450001
 31
0.0
  0
LINE
  5
3FFB
330
17
100
AcDbEntity
  8
0
100
AcDbLine
 10
-0.9554084652998398
 20
13.58337794450001
 30
0.0
 11
-0.933239405599842
 21
13.60132940080002
 31
0.0
  0
LINE
  5
3FFC
330
17
100
AcDbEntity
  8
0
100
AcDbLine
 10
-0.933239405599842
 20
13.60132940080002
 30
0.0
 11
-0.9058688456998353
 21
13.60725616060002
 31
0.0
  0
LINE
  5
3FFD
330
17
100
AcDbEntity
  8
0
100
AcDbLine
 10
-0.9999841263998376
 20
13.16026332999996
 30
0.0
 11
-0.9997577064998353
 21
13.19904288869996
 31
0.0
  0
LINE
  5
3FFE
330
17
100
AcDbEntity
  8
0
100
AcDbLine
 10
-0.9997577064998353
 20
13.19904288869996
 30
0.0
 11
-0.9988351680998377
 21
13.23528069789997
 31
0.0
  0
LINE
  5
3FFF
330
17
100
AcDbEntity
  8
0
100
AcDbLine
 10
-0.9988351680998377
 20
13.23528069789997
 30
0.0
 11
-0.9965176663998391
 21
13.26827627769996
 31
0.0
  0
LINE
  5
4000
330
17
100
AcDbEntity
  8
0
100
AcDbLine
 10
-0.9965176663998391
 20
13.26827627769996
 30
0.0
 11
-0.9918798598998392
 21
13.29790519519997
 31
0.0
  0
LINE
  5
4001
330
17
100
AcDbEntity
  8
0
100
AcDbLine
 10
-0.9918798598998392
 20
13.29790519519997
 30
0.0
 11
-0.9840053132998392
 21
13.32309490369996
 31
0.0
  0
LINE
  5
4002
330
17
100
AcDbEntity
  8
0
100
AcDbLine
 10
-0.9840053132998392
 20
13.32309490369996
 30
0.0
 11
-0.9721600852998406
 21
13.34308636139996
 31
0.0
  0
LINE
  5
4003
330
17
100
AcDbEntity
  8
0
100
AcDbLine
 10
-0.9721600852998406
 20
13.34308636139996
 30
0.0
 11
-0.9554084652998398
 21
13.35781705259996
 31
0.0
  0
LINE
  5
4004
330
17
100
AcDbEntity
  8
0
100
AcDbLine
 10
-0.9554084652998398
 20
13.35781705259996
 30
0.0
 11
-0.933239405599842
 21
13.36679278069996
 31
0.0
  0
LINE
  5
4005
330
17
100
AcDbEntity
  8
0
100
AcDbLine
 10
-0.933239405599842
 20
13.36679278069996
 30
0.0
 11
-0.9058688456998353
 21
13.36975616059996
 31
0.0
  0
LINE
  5
4006
330
17
100
AcDbEntity
  8
0
100
AcDbLine
 10
-0.3133713486975083
 20
11.06745616060001
 30
0.0
 11
-0.3313968777975234
 21
10.9636609327
 31
0.0
  0
LINE
  5
4007
330
17
100
AcDbEntity
  8
0
100
AcDbLine
 10
-0.3313968777975234
 20
10.9636609327
 30
0.0
 11
-0.3847310638975116
 21
10.8676418475
 31
0.0
  0
LINE
  5
4008
330
17
100
AcDbEntity
  8
0
100
AcDbLine
 10
-0.3847310638975116
 20
10.8676418475
 30
0.0
 11
-0.4675804055975235
 21
10.79515793399999
 31
0.0
  0
LINE
  5
4009
330
17
100
AcDbEntity
  8
0
100
AcDbLine
 10
-0.4675804055975235
 20
10.79515793399999
 30
0.0
 11
-0.5690733650975162
 21
10.7552616618
 31
0.0
  0
LINE
  5
400A
330
17
100
AcDbEntity
  8
0
100
AcDbLine
 10
-0.5690733650975162
 20
10.7552616618
 30
0.0
 11
-0.6734323337975141
 21
10.7552616618
 31
0.0
  0
LINE
  5
400B
330
17
100
AcDbEntity
  8
0
100
AcDbLine
 10
-0.6734323337975141
 20
10.7552616618
 30
0.0
 11
-0.7661237317975136
 21
10.79515793399999
 31
0.0
  0
LINE
  5
400C
330
17
100
AcDbEntity
  8
0
100
AcDbLine
 10
-0.7661237317975136
 20
10.79515793399999
 30
0.0
 11
-0.8359974768975249
 21
10.8676418475
 31
0.0
  0
LINE
  5
400D
330
17
100
AcDbEntity
  8
0
100
AcDbLine
 10
-0.8359974768975249
 20
10.8676418475
 30
0.0
 11
-0.8784141472975264
 21
10.9636609327
 31
0.0
  0
LINE
  5
400E
330
17
100
AcDbEntity
  8
0
100
AcDbLine
 10
-0.8784141472975264
 20
10.9636609327
 30
0.0
 11
-0.8923133205975162
 21
11.06745616060001
 31
0.0
  0
LINE
  5
400F
330
17
100
AcDbEntity
  8
0
100
AcDbLine
 10
-0.74384867229751
 20
11.06745616060001
 30
0.0
 11
-0.732568283097514
 21
10.9975539421
 31
0.0
  0
LINE
  5
4010
330
17
100
AcDbEntity
  8
0
100
AcDbLine
 10
-0.732568283097514
 20
10.9975539421
 30
0.0
 11
-0.7002487867975234
 21
10.93762892630001
 31
0.0
  0
LINE
  5
4011
330
17
100
AcDbEntity
  8
0
100
AcDbLine
 10
-0.7002487867975234
 20
10.93762892630001
 30
0.0
 11
-0.6497938151975191
 21
10.89741693070001
 31
0.0
  0
LINE
  5
4012
330
17
100
AcDbEntity
  8
0
100
AcDbLine
 10
-0.6497938151975191
 20
10.89741693070001
 30
0.0
 11
-0.5883071943975225
 21
10.88295616059999
 31
0.0
  0
LINE
  5
4013
330
17
100
AcDbEntity
  8
0
100
AcDbLine
 10
-0.5883071943975225
 20
10.88295616059999
 30
0.0
 11
-0.5249932895975249
 21
10.89741693070001
 31
0.0
  0
LINE
  5
4014
330
17
100
AcDbEntity
  8
0
100
AcDbLine
 10
-0.5249932895975249
 20
10.89741693070001
 30
0.0
 11
-0.4701443306975151
 21
10.93762892630001
 31
0.0
  0
LINE
  5
4015
330
17
100
AcDbEntity
  8
0
100
AcDbLine
 10
-0.4701443306975151
 20
10.93762892630001
 30
0.0
 11
-0.4335229441975131
 21
10.9975539421
 31
0.0
  0
LINE
  5
4016
330
17
100
AcDbEntity
  8
0
100
AcDbLine
 10
-0.4335229441975131
 20
10.9975539421
 30
0.0
 11
-0.4204513199975182
 21
11.06745616060001
 31
0.0
  0
LINE
  5
4017
330
17
100
AcDbEntity
  8
0
100
AcDbLine
 10
-0.6885483200975174
 20
11.06745616060001
 30
0.0
 11
-0.6792008935975176
 21
11.00968152629999
 31
0.0
  0
LINE
  5
4018
330
17
100
AcDbEntity
  8
0
100
AcDbLine
 10
-0.6792008935975176
 20
11.00968152629999
 30
0.0
 11
-0.6529219292975271
 21
10.960939706
 31
0.0
  0
LINE
  5
4019
330
17
100
AcDbEntity
  8
0
100
AcDbLine
 10
-0.6529219292975271
 20
10.960939706
 30
0.0
 11
-0.6128693887975132
 21
10.92883214330001
 31
0.0
  0
LINE
  5
401A
330
17
100
AcDbEntity
  8
0
100
AcDbLine
 10
-0.6128693887975132
 20
10.92883214330001
 30
0.0
 11
-0.5650953609975105
 21
10.9174561606
 31
0.0
  0
LINE
  5
401B
330
17
100
AcDbEntity
  8
0
100
AcDbLine
 10
-0.5650953609975105
 20
10.9174561606
 30
0.0
 11
-0.5161888860975168
 21
10.92883214330001
 31
0.0
  0
LINE
  5
401C
330
17
100
AcDbEntity
  8
0
100
AcDbLine
 10
-0.5161888860975168
 20
10.92883214330001
 30
0.0
 11
-0.4733585498975188
 21
10.960939706
 31
0.0
  0
LINE
  5
401D
330
17
100
AcDbEntity
  8
0
100
AcDbLine
 10
-0.4733585498975188
 20
10.960939706
 30
0.0
 11
-0.4442909655975101
 21
11.00968152629999
 31
0.0
  0
LINE
  5
401E
330
17
100
AcDbEntity
  8
0
100
AcDbLine
 10
-0.4442909655975101
 20
11.00968152629999
 30
0.0
 11
-0.4337584183975097
 21
11.06745616060001
 31
0.0
  0
LINE
  5
401F
330
17
100
AcDbEntity
  8
0
100
AcDbLine
 10
-0.6885483200975174
 20
11.06745616060001
 30
0.0
 11
-0.6792008935975176
 21
11.1252307949
 31
0.0
  0
LINE
  5
4020
330
17
100
AcDbEntity
  8
0
100
AcDbLine
 10
-0.6792008935975176
 20
11.1252307949
 30
0.0
 11
-0.6529219292975271
 21
11.17397261519999
 31
0.0
  0
LINE
  5
4021
330
17
100
AcDbEntity
  8
0
100
AcDbLine
 10
-0.6529219292975271
 20
11.17397261519999
 30
0.0
 11
-0.6128693887975132
 21
11.2060801778
 31
0.0
  0
LINE
  5
4022
330
17
100
AcDbEntity
  8
0
100
AcDbLine
 10
-0.6128693887975132
 20
11.2060801778
 30
0.0
 11
-0.5650953609975105
 21
11.21745616060001
 31
0.0
  0
LINE
  5
4023
330
17
100
AcDbEntity
  8
0
100
AcDbLine
 10
-0.5650953609975105
 20
11.21745616060001
 30
0.0
 11
-0.5161888860975168
 21
11.2060801778
 31
0.0
  0
LINE
  5
4024
330
17
100
AcDbEntity
  8
0
100
AcDbLine
 10
-0.5161888860975168
 20
11.2060801778
 30
0.0
 11
-0.4733585498975188
 21
11.17397261519999
 31
0.0
  0
LINE
  5
4025
330
17
100
AcDbEntity
  8
0
100
AcDbLine
 10
-0.4733585498975188
 20
11.17397261519999
 30
0.0
 11
-0.4442909655975101
 21
11.1252307949
 31
0.0
  0
LINE
  5
4026
330
17
100
AcDbEntity
  8
0
100
AcDbLine
 10
-0.4442909655975101
 20
11.1252307949
 30
0.0
 11
-0.4337584183975097
 21
11.06745616060001
 31
0.0
  0
LINE
  5
4027
330
17
100
AcDbEntity
  8
0
100
AcDbLine
 10
-0.74384867229751
 20
11.06745616060001
 30
0.0
 11
-0.732568283097514
 21
11.13735837910001
 31
0.0
  0
LINE
  5
4028
330
17
100
AcDbEntity
  8
0
100
AcDbLine
 10
-0.732568283097514
 20
11.13735837910001
 30
0.0
 11
-0.7002487867975234
 21
11.19728339480002
 31
0.0
  0
LINE
  5
4029
330
17
100
AcDbEntity
  8
0
100
AcDbLine
 10
-0.7002487867975234
 20
11.19728339480002
 30
0.0
 11
-0.6497938151975191
 21
11.23749539039999
 31
0.0
  0
LINE
  5
402A
330
17
100
AcDbEntity
  8
0
100
AcDbLine
 10
-0.6497938151975191
 20
11.23749539039999
 30
0.0
 11
-0.5883071943975225
 21
11.2519561606
 31
0.0
  0
LINE
  5
402B
330
17
100
AcDbEntity
  8
0
100
AcDbLine
 10
-0.5883071943975225
 20
11.2519561606
 30
0.0
 11
-0.5249932895975249
 21
11.23749539039999
 31
0.0
  0
LINE
  5
402C
330
17
100
AcDbEntity
  8
0
100
AcDbLine
 10
-0.5249932895975249
 20
11.23749539039999
 30
0.0
 11
-0.4701443306975151
 21
11.19728339480002
 31
0.0
  0
LINE
  5
402D
330
17
100
AcDbEntity
  8
0
100
AcDbLine
 10
-0.4701443306975151
 20
11.19728339480002
 30
0.0
 11
-0.4335229441975131
 21
11.13735837910001
 31
0.0
  0
LINE
  5
402E
330
17
100
AcDbEntity
  8
0
100
AcDbLine
 10
-0.4335229441975131
 20
11.13735837910001
 30
0.0
 11
-0.4204513199975182
 21
11.06745616060001
 31
0.0
  0
LINE
  5
402F
330
17
100
AcDbEntity
  8
0
100
AcDbLine
 10
-0.8923133205975162
 20
11.06745616060001
 30
0.0
 11
-0.8784141472975264
 21
11.17125138850002
 31
0.0
  0
LINE
  5
4030
330
17
100
AcDbEntity
  8
0
100
AcDbLine
 10
-0.8784141472975264
 20
11.17125138850002
 30
0.0
 11
-0.8359974768975249
 21
11.2672704736
 31
0.0
  0
LINE
  5
4031
330
17
100
AcDbEntity
  8
0
100
AcDbLine
 10
-0.8359974768975249
 20
11.2672704736
 30
0.0
 11
-0.7661237317975136
 21
11.33975438710001
 31
0.0
  0
LINE
  5
4032
330
17
100
AcDbEntity
  8
0
100
AcDbLine
 10
-0.7661237317975136
 20
11.33975438710001
 30
0.0
 11
-0.6734323337975141
 21
11.3796506593
 31
0.0
  0
LINE
  5
4033
330
17
100
AcDbEntity
  8
0
100
AcDbLine
 10
-0.6734323337975141
 20
11.3796506593
 30
0.0
 11
-0.5690733650975162
 21
11.3796506593
 31
0.0
  0
LINE
  5
4034
330
17
100
AcDbEntity
  8
0
100
AcDbLine
 10
-0.5690733650975162
 20
11.3796506593
 30
0.0
 11
-0.4675804055975235
 21
11.33975438710001
 31
0.0
  0
LINE
  5
4035
330
17
100
AcDbEntity
  8
0
100
AcDbLine
 10
-0.4675804055975235
 20
11.33975438710001
 30
0.0
 11
-0.3847310638975116
 21
11.2672704736
 31
0.0
  0
LINE
  5
4036
330
17
100
AcDbEntity
  8
0
100
AcDbLine
 10
-0.3847310638975116
 20
11.2672704736
 30
0.0
 11
-0.3313968777975234
 21
11.17125138850002
 31
0.0
  0
LINE
  5
4037
330
17
100
AcDbEntity
  8
0
100
AcDbLine
 10
-0.3313968777975234
 20
11.17125138850002
 30
0.0
 11
-0.3133713486975083
 21
11.06745616060001
 31
0.0
  0
LINE
  5
4038
330
17
100
AcDbEntity
  8
0
100
AcDbLine
 10
0.3133713486975367
 20
11.06745616060001
 30
0.0
 11
0.3313968777975518
 21
10.9636609327
 31
0.0
  0
LINE
  5
4039
330
17
100
AcDbEntity
  8
0
100
AcDbLine
 10
0.3313968777975518
 20
10.9636609327
 30
0.0
 11
0.3847310638975401
 21
10.8676418475
 31
0.0
  0
LINE
  5
403A
330
17
100
AcDbEntity
  8
0
100
AcDbLine
 10
0.3847310638975401
 20
10.8676418475
 30
0.0
 11
0.4675804055975519
 21
10.79515793399999
 31
0.0
  0
LINE
  5
403B
330
17
100
AcDbEntity
  8
0
100
AcDbLine
 10
0.4675804055975519
 20
10.79515793399999
 30
0.0
 11
0.5690733650975446
 21
10.7552616618
 31
0.0
  0
LINE
  5
403C
330
17
100
AcDbEntity
  8
0
100
AcDbLine
 10
0.5690733650975446
 20
10.7552616618
 30
0.0
 11
0.6734323337975426
 21
10.7552616618
 31
0.0
  0
LINE
  5
403D
330
17
100
AcDbEntity
  8
0
100
AcDbLine
 10
0.6734323337975426
 20
10.7552616618
 30
0.0
 11
0.766123731797542
 21
10.79515793399999
 31
0.0
  0
LINE
  5
403E
330
17
100
AcDbEntity
  8
0
100
AcDbLine
 10
0.766123731797542
 20
10.79515793399999
 30
0.0
 11
0.8359974768975533
 21
10.8676418475
 31
0.0
  0
LINE
  5
403F
330
17
100
AcDbEntity
  8
0
100
AcDbLine
 10
0.8359974768975533
 20
10.8676418475
 30
0.0
 11
0.8784141472975548
 21
10.9636609327
 31
0.0
  0
LINE
  5
4040
330
17
100
AcDbEntity
  8
0
100
AcDbLine
 10
0.8784141472975548
 20
10.9636609327
 30
0.0
 11
0.8923133205975446
 21
11.06745616060001
 31
0.0
  0
LINE
  5
4041
330
17
100
AcDbEntity
  8
0
100
AcDbLine
 10
0.7438486722975384
 20
11.06745616060001
 30
0.0
 11
0.7325682830975424
 21
10.9975539421
 31
0.0
  0
LINE
  5
4042
330
17
100
AcDbEntity
  8
0
100
AcDbLine
 10
0.7325682830975424
 20
10.9975539421
 30
0.0
 11
0.7002487867975518
 21
10.93762892630001
 31
0.0
  0
LINE
  5
4043
330
17
100
AcDbEntity
  8
0
100
AcDbLine
 10
0.7002487867975518
 20
10.93762892630001
 30
0.0
 11
0.6497938151975476
 21
10.89741693070001
 31
0.0
  0
LINE
  5
4044
330
17
100
AcDbEntity
  8
0
100
AcDbLine
 10
0.6497938151975476
 20
10.89741693070001
 30
0.0
 11
0.5883071943975509
 21
10.88295616059999
 31
0.0
  0
LINE
  5
4045
330
17
100
AcDbEntity
  8
0
100
AcDbLine
 10
0.5883071943975509
 20
10.88295616059999
 30
0.0
 11
0.5249932895975534
 21
10.89741693070001
 31
0.0
  0
LINE
  5
4046
330
17
100
AcDbEntity
  8
0
100
AcDbLine
 10
0.5249932895975534
 20
10.89741693070001
 30
0.0
 11
0.4701443306975435
 21
10.93762892630001
 31
0.0
  0
LINE
  5
4047
330
17
100
AcDbEntity
  8
0
100
AcDbLine
 10
0.4701443306975435
 20
10.93762892630001
 30
0.0
 11
0.4335229441975415
 21
10.9975539421
 31
0.0
  0
LINE
  5
4048
330
17
100
AcDbEntity
  8
0
100
AcDbLine
 10
0.4335229441975415
 20
10.9975539421
 30
0.0
 11
0.4204513199975466
 21
11.06745616060001
 31
0.0
  0
LINE
  5
4049
330
17
100
AcDbEntity
  8
0
100
AcDbLine
 10
0.6885483200975458
 20
11.06745616060001
 30
0.0
 11
0.679200893597546
 21
11.00968152629999
 31
0.0
  0
LINE
  5
404A
330
17
100
AcDbEntity
  8
0
100
AcDbLine
 10
0.679200893597546
 20
11.00968152629999
 30
0.0
 11
0.6529219292975555
 21
10.960939706
 31
0.0
  0
LINE
  5
404B
330
17
100
AcDbEntity
  8
0
100
AcDbLine
 10
0.6529219292975555
 20
10.960939706
 30
0.0
 11
0.6128693887975416
 21
10.92883214330001
 31
0.0
  0
LINE
  5
404C
330
17
100
AcDbEntity
  8
0
100
AcDbLine
 10
0.6128693887975416
 20
10.92883214330001
 30
0.0
 11
0.5650953609975389
 21
10.9174561606
 31
0.0
  0
LINE
  5
404D
330
17
100
AcDbEntity
  8
0
100
AcDbLine
 10
0.5650953609975389
 20
10.9174561606
 30
0.0
 11
0.5161888860975452
 21
10.92883214330001
 31
0.0
  0
LINE
  5
404E
330
17
100
AcDbEntity
  8
0
100
AcDbLine
 10
0.5161888860975452
 20
10.92883214330001
 30
0.0
 11
0.4733585498975473
 21
10.960939706
 31
0.0
  0
LINE
  5
404F
330
17
100
AcDbEntity
  8
0
100
AcDbLine
 10
0.4733585498975473
 20
10.960939706
 30
0.0
 11
0.4442909655975385
 21
11.00968152629999
 31
0.0
  0
LINE
  5
4050
330
17
100
AcDbEntity
  8
0
100
AcDbLine
 10
0.4442909655975385
 20
11.00968152629999
 30
0.0
 11
0.4337584183975381
 21
11.06745616060001
 31
0.0
  0
LINE
  5
4051
330
17
100
AcDbEntity
  8
0
100
AcDbLine
 10
0.6885483200975458
 20
11.06745616060001
 30
0.0
 11
0.679200893597546
 21
11.1252307949
 31
0.0
  0
LINE
  5
4052
330
17
100
AcDbEntity
  8
0
100
AcDbLine
 10
0.679200893597546
 20
11.1252307949
 30
0.0
 11
0.6529219292975555
 21
11.17397261519999
 31
0.0
  0
LINE
  5
4053
330
17
100
AcDbEntity
  8
0
100
AcDbLine
 10
0.6529219292975555
 20
11.17397261519999
 30
0.0
 11
0.6128693887975416
 21
11.2060801778
 31
0.0
  0
LINE
  5
4054
330
17
100
AcDbEntity
  8
0
100
AcDbLine
 10
0.6128693887975416
 20
11.2060801778
 30
0.0
 11
0.5650953609975389
 21
11.21745616060001
 31
0.0
  0
LINE
  5
4055
330
17
100
AcDbEntity
  8
0
100
AcDbLine
 10
0.5650953609975389
 20
11.21745616060001
 30
0.0
 11
0.5161888860975452
 21
11.2060801778
 31
0.0
  0
LINE
  5
4056
330
17
100
AcDbEntity
  8
0
100
AcDbLine
 10
0.5161888860975452
 20
11.2060801778
 30
0.0
 11
0.4733585498975473
 21
11.17397261519999
 31
0.0
  0
LINE
  5
4057
330
17
100
AcDbEntity
  8
0
100
AcDbLine
 10
0.4733585498975473
 20
11.17397261519999
 30
0.0
 11
0.4442909655975385
 21
11.1252307949
 31
0.0
  0
LINE
  5
4058
330
17
100
AcDbEntity
  8
0
100
AcDbLine
 10
0.4442909655975385
 20
11.1252307949
 30
0.0
 11
0.4337584183975381
 21
11.06745616060001
 31
0.0
  0
LINE
  5
4059
330
17
100
AcDbEntity
  8
0
100
AcDbLine
 10
0.7438486722975384
 20
11.06745616060001
 30
0.0
 11
0.7325682830975424
 21
11.13735837910001
 31
0.0
  0
LINE
  5
405A
330
17
100
AcDbEntity
  8
0
100
AcDbLine
 10
0.7325682830975424
 20
11.13735837910001
 30
0.0
 11
0.7002487867975518
 21
11.19728339480002
 31
0.0
  0
LINE
  5
405B
330
17
100
AcDbEntity
  8
0
100
AcDbLine
 10
0.7002487867975518
 20
11.19728339480002
 30
0.0
 11
0.6497938151975476
 21
11.23749539039999
 31
0.0
  0
LINE
  5
405C
330
17
100
AcDbEntity
  8
0
100
AcDbLine
 10
0.6497938151975476
 20
11.23749539039999
 30
0.0
 11
0.5883071943975509
 21
11.2519561606
 31
0.0
  0
LINE
  5
405D
330
17
100
AcDbEntity
  8
0
100
AcDbLine
 10
0.5883071943975509
 20
11.2519561606
 30
0.0
 11
0.5249932895975534
 21
11.23749539039999
 31
0.0
  0
LINE
  5
405E
330
17
100
AcDbEntity
  8
0
100
AcDbLine
 10
0.5249932895975534
 20
11.23749539039999
 30
0.0
 11
0.4701443306975435
 21
11.19728339480002
 31
0.0
  0
LINE
  5
405F
330
17
100
AcDbEntity
  8
0
100
AcDbLine
 10
0.4701443306975435
 20
11.19728339480002
 30
0.0
 11
0.4335229441975415
 21
11.13735837910001
 31
0.0
  0
LINE
  5
4060
330
17
100
AcDbEntity
  8
0
100
AcDbLine
 10
0.4335229441975415
 20
11.13735837910001
 30
0.0
 11
0.4204513199975466
 21
11.06745616060001
 31
0.0
  0
LINE
  5
4061
330
17
100
AcDbEntity
  8
0
100
AcDbLine
 10
0.8923133205975446
 20
11.06745616060001
 30
0.0
 11
0.8784141472975548
 21
11.17125138850002
 31
0.0
  0
LINE
  5
4062
330
17
100
AcDbEntity
  8
0
100
AcDbLine
 10
0.8784141472975548
 20
11.17125138850002
 30
0.0
 11
0.8359974768975533
 21
11.2672704736
 31
0.0
  0
LINE
  5
4063
330
17
100
AcDbEntity
  8
0
100
AcDbLine
 10
0.8359974768975533
 20
11.2672704736
 30
0.0
 11
0.766123731797542
 21
11.33975438710001
 31
0.0
  0
LINE
  5
4064
330
17
100
AcDbEntity
  8
0
100
AcDbLine
 10
0.766123731797542
 20
11.33975438710001
 30
0.0
 11
0.6734323337975426
 21
11.3796506593
 31
0.0
  0
LINE
  5
4065
330
17
100
AcDbEntity
  8
0
100
AcDbLine
 10
0.6734323337975426
 20
11.3796506593
 30
0.0
 11
0.5690733650975446
 21
11.3796506593
 31
0.0
  0
LINE
  5
4066
330
17
100
AcDbEntity
  8
0
100
AcDbLine
 10
0.5690733650975446
 20
11.3796506593
 30
0.0
 11
0.4675804055975519
 21
11.33975438710001
 31
0.0
  0
LINE
  5
4067
330
17
100
AcDbEntity
  8
0
100
AcDbLine
 10
0.4675804055975519
 20
11.33975438710001
 30
0.0
 11
0.3847310638975401
 21
11.2672704736
 31
0.0
  0
LINE
  5
4068
330
17
100
AcDbEntity
  8
0
100
AcDbLine
 10
0.3847310638975401
 20
11.2672704736
 30
0.0
 11
0.3313968777975518
 21
11.17125138850002
 31
0.0
  0
LINE
  5
4069
330
17
100
AcDbEntity
  8
0
100
AcDbLine
 10
0.3313968777975518
 20
11.17125138850002
 30
0.0
 11
0.3133713486975367
 21
11.06745616060001
 31
0.0
  0
ENDSEC
  0
SECTION
  2
OBJECTS
  0
DICTIONARY
  5
C
330
0
100
AcDbDictionary
281
     1
  3
ACAD_COLOR
350
28FA
  3
ACAD_GROUP
350
D
  3
ACAD_LAYOUT
350
47B
  3
ACAD_MATERIAL
350
28F9
  3
ACAD_MLINESTYLE
350
1A
  3
ACAD_PLOTSETTINGS
350
47C
  3
ACAD_PLOTSTYLENAME
350
479
  3
ACAD_TABLESTYLE
350
28FB
  3
ACDBHEADERROUNDTRIPXREC
350
407F
  3
ACDBVARIABLEDICTIONARY
350
49
  0
DICTIONARY
  5
2ABF
330
2
100
AcDbDictionary
280
     1
281
     1
  3
ACAD_LAYERFILTERS
360
2F66
  3
ACAD_LAYERSTATES
360
2C63
  3
ACLYDICTIONARY
360
2F65
  0
DICTIONARY
  5
7D0
330
17
100
AcDbDictionary
280
     1
281
     1
  3
ACAD_LAYOUTSELFREF
360
1071
  3
ACAD_SORTENTS
360
2D11
  0
DICTIONARY
  5
7CE
330
14
100
AcDbDictionary
280
     1
281
     1
  3
ACAD_LAYOUTSELFREF
360
1070
  0
DICTIONARY
  5
28FA
102
{ACAD_REACTORS
330
C
102
}
330
C
100
AcDbDictionary
281
     1
  0
DICTIONARY
  5
D
102
{ACAD_REACTORS
330
C
102
}
330
C
100
AcDbDictionary
281
     1
  0
DICTIONARY
  5
47B
102
{ACAD_REACTORS
330
C
102
}
330
C
100
AcDbDictionary
281
     1
  3
Layout1
350
47E
  3
Model
350
47D
  0
DICTIONARY
  5
28F9
102
{ACAD_REACTORS
330
C
102
}
330
C
100
AcDbDictionary
281
     1
  0
DICTIONARY
  5
1A
102
{ACAD_REACTORS
330
C
102
}
330
C
100
AcDbDictionary
281
     1
  3
STANDARD
350
1B
  0
DICTIONARY
  5
47C
102
{ACAD_REACTORS
330
C
102
}
330
C
100
AcDbDictionary
281
     1
  0
ACDBDICTIONARYWDFLT
  5
479
102
{ACAD_REACTORS
330
C
102
}
330
C
100
AcDbDictionary
281
     1
  3
Normal
350
47A
100
AcDbDictionaryWithDefault
340
47A
  0
DICTIONARY
  5
28FB
102
{ACAD_REACTORS
330
C
102
}
330
C
100
AcDbDictionary
281
     1
  3
Standard
350
28FC
  0
DICTIONARY
  5
407F
102
{ACAD_REACTORS
330
C
102
}
330
C
100
AcDbDictionary
281
     1
  0
DICTIONARY
  5
49
102
{ACAD_REACTORS
330
C
102
}
330
C
100
AcDbDictionary
281
     1
  3
CTABLESTYLE
350
2AA3
  3
DIMADEC
350
4A
  3
DIMASSOC
350
708
  3
PROJECTNAME
350
2F3C
  0
DICTIONARY
  5
2F66
102
{ACAD_REACTORS
330
2ABF
102
}
330
2ABF
100
AcDbDictionary
281
     1
  0
DICTIONARY
  5
2C63
102
{ACAD_REACTORS
330
2ABF
102
}
330
2ABF
100
AcDbDictionary
281
     1
  0
DICTIONARY
  5
2F65
102
{ACAD_REACTORS
330
2ABF
102
}
330
2ABF
100
AcDbDictionary
281
     1
1001
ACAD
1000
<All
  0
XRECORD
  5
1071
102
{ACAD_REACTORS
330
7D0
102
}
330
7D0
100
AcDbXrecord
280
     1
340
17
  0
SORTENTSTABLE
  5
2D11
102
{ACAD_REACTORS
330
7D0
102
}
330
7D0
100
AcDbSortentsTable
330
17
331
3AE0
  5
4042
331
3AA9
  5
400B
331
3972
  5
3FD8
331
3FC7
  5
3FC6
331
3AB1
  5
4013
331
376B
  5
376B
331
397A
  5
3FE0
331
3FCF
  5
3FBC
331
3F88
  5
4045
331
3773
  5
3773
331
3AB9
  5
401B
331
2A95
  5
2A95
331
3FD7
  5
3FA4
331
3F90
  5
404D
331
3A82
  5
3FE4
331
29DE
  5
29DE
331
4039
  5
3A9B
331
3FFA
  5
3F8D
331
4041
  5
3A92
331
4002
  5
3ADD
331
4049
  5
3A8A
331
400A
  5
3AD0
331
4012
  5
3AC7
331
3F98
  5
4055
331
377B
  5
377B
331
3A8A
  5
3FEC
331
3AC1
  5
4023
331
2A0E
  5
2A0E
331
3FA0
  5
405D
331
3783
  5
3783
331
3A92
  5
3FF4
331
3AC9
  5
402B
331
2A16
  5
2A16
331
3FA8
  5
4065
331
3AD1
  5
4033
331
378B
  5
378B
331
3A9A
  5
3FFC
331
3AD9
  5
403B
331
3AA2
  5
4004
331
4051
  5
3A82
331
3FDB
  5
3FA8
331
401A
  5
3ABF
331
400
  5
400
331
4059
  5
3976
331
3FE3
  5
3F9C
331
4022
  5
3AB7
331
4061
  5
3965
331
3FEB
  5
3F91
331
402A
  5
3AAF
331
4069
  5
3975
331
3FF3
  5
3AE1
331
4032
  5
3AA6
331
3FC0
  5
3FD2
331
3AE1
  5
4043
331
3AAA
  5
400C
331
3764
  5
3764
331
3973
  5
3FD9
331
3FC8
  5
3FC7
331
376C
  5
376C
331
3AB2
  5
4014
331
2A8E
  5
2A8E
331
3FD0
  5
3FBD
331
3F89
  5
4046
331
3774
  5
3774
331
3ABA
  5
401C
331
2A96
  5
2A96
331
3F91
  5
404E
331
3A83
  5
3FE5
331
403A
  5
3A9C
331
3FFB
  5
3F8E
331
4042
  5
3A93
331
4003
  5
3ADE
331
404A
  5
3A8B
331
400B
  5
3AD1
331
4013
  5
3AC8
331
3F99
  5
4056
331
377C
  5
377C
331
3A8B
  5
3FED
331
3AC2
  5
4024
331
2A0F
  5
2A0F
331
3FA1
  5
405E
331
3784
  5
3784
331
3A93
  5
3FF5
331
3ACA
  5
402C
331
2A17
  5
2A17
331
3AD2
  5
4034
331
378C
  5
378C
331
3A9B
  5
3FFD
331
25D0
  5
25D0
331
3FA9
  5
4066
331
3ADA
  5
403C
331
3AA3
  5
4005
331
4052
  5
3A83
331
3FDC
  5
3FA9
331
401B
  5
3AC0
331
405A
  5
3977
331
3FE4
  5
3F9D
331
4023
  5
3AB8
331
4062
  5
3966
331
3FEC
  5
3F92
331
402B
  5
3AB0
331
3FF4
  5
3F4E
331
4033
  5
3AA7
331
3AAB
  5
400D
331
3974
  5
3FDA
331
3FC1
  5
3FD3
331
3765
  5
3765
331
3AB3
  5
4015
331
3FC9
  5
3FC8
331
2A8F
  5
2A8F
331
376D
  5
376D
331
3FD1
  5
3FBE
331
3ABB
  5
401D
331
2A97
  5
2A97
331
3775
  5
3775
331
3F8A
  5
4047
331
3A84
  5
3FE6
331
3F92
  5
404F
331
403B
  5
3A9D
331
3FFC
  5
3F8F
331
4043
  5
3A94
331
4004
  5
3ADF
331
404B
  5
3A8C
331
400C
  5
3AD2
331
4014
  5
3AC9
331
3A8C
  5
3FEE
331
3AC3
  5
4025
331
3F9A
  5
4057
331
2A10
  5
2A10
331
377D
  5
377D
331
3A94
  5
3FF6
331
3ACB
  5
402D
331
3FA2
  5
405F
331
2A18
  5
2A18
331
3785
  5
3785
331
3AD3
  5
4035
331
3A9C
  5
3FFE
331
3FAA
  5
4067
331
3ADB
  5
403D
331
3AA4
  5
4006
331
3965
  5
3AD5
331
3FBA
  5
3FCC
331
4053
  5
3A84
331
3FDD
  5
3FAA
331
401C
  5
3AC1
331
405B
  5
3978
331
3FE5
  5
3F9E
331
4024
  5
3AB9
331
4063
  5
3967
331
3FED
  5
3F93
331
402C
  5
3AB1
331
3FF5
  5
3F88
331
4034
  5
3AA8
331
25E9
  5
25E9
331
3AAC
  5
400E
331
3975
  5
3FDB
331
3FC2
  5
3FD4
331
3766
  5
3766
331
3AB4
  5
4016
331
3FCA
  5
3FC9
331
2A90
  5
2A90
331
376E
  5
376E
331
3FD2
  5
3FBF
331
3ABC
  5
401E
331
3776
  5
3776
331
3F8B
  5
4048
331
3A85
  5
3FE7
331
3F93
  5
4050
331
403C
  5
3A9E
331
3FFD
  5
3AD8
331
4044
  5
3A95
331
4005
  5
3AE0
331
404C
  5
3A8D
331
400D
  5
3AD3
331
4015
  5
3ACA
331
3A8D
  5
3FEF
331
3AC4
  5
4026
331
3F9B
  5
4058
331
2A11
  5
2A11
331
377E
  5
377E
331
3A95
  5
3FF7
331
3ACC
  5
402E
331
3FA3
  5
4060
331
2A19
  5
2A19
331
3786
  5
3786
331
3AD4
  5
4036
331
3A9D
  5
3FFF
331
2A21
  5
2A21
331
3FAB
  5
4068
331
3ADC
  5
403E
331
3AA5
  5
4007
331
3966
  5
3AD6
331
3FBB
  5
3FCD
331
4054
  5
3A85
331
3FDE
  5
3FAB
331
401D
  5
3AC2
331
405C
  5
3979
331
3FE6
  5
3F9F
331
4025
  5
3ABA
331
4064
  5
3970
331
3FEE
  5
3F94
331
402D
  5
3AB2
331
3FF6
  5
3F89
331
4035
  5
3AA9
331
2A79
  5
2A79
331
3AAD
  5
400F
331
3976
  5
3FDC
331
3FC3
  5
3FD5
331
3767
  5
3767
331
3AB5
  5
4017
331
3FCB
  5
3FCA
331
2A91
  5
2A91
331
376F
  5
376F
331
3FD3
  5
3FC0
331
3ABD
  5
401F
331
3777
  5
3777
331
3F8C
  5
4049
331
3A86
  5
3FE8
331
3F94
  5
4051
331
403D
  5
3A9F
331
3FFE
  5
3AD9
331
4045
  5
3A96
331
4006
  5
3ACC
331
404D
  5
3A8E
331
400E
  5
3AD4
331
4016
  5
3ACB
331
2A99
  5
2A99
331
3A8E
  5
3FF0
331
3AC5
  5
4027
331
3F9C
  5
4059
331
377F
  5
377F
331
2A12
  5
2A12
331
3370
  5
3370
331
3A96
  5
3FF8
331
3ACD
  5
402F
331
3FA4
  5
4061
331
3787
  5
3787
331
3A9E
  5
4000
331
2A22
  5
2A22
331
3AD5
  5
4037
331
3FBC
  5
3FCE
331
3AA6
  5
4008
331
3967
  5
3AD7
331
3ADD
  5
403F
331
4055
  5
3A86
331
3FDF
  5
3FAD
331
401E
  5
3AC3
331
405D
  5
397A
331
3FE7
  5
3FA0
331
4026
  5
3ABB
331
4065
  5
3971
331
3FEF
  5
3F95
331
402E
  5
3AB3
331
3FF7
  5
3F8A
331
4036
  5
3AAA
331
3AAE
  5
4010
331
3977
  5
3FDD
331
3FC4
  5
3FC3
331
3768
  5
3768
331
3AB6
  5
4018
331
3FCC
  5
3FCB
331
2A92
  5
2A92
331
3770
  5
3770
331
3FD4
  5
3FC1
331
3A7F
  5
3FE1
331
3ABE
  5
4020
331
3F8D
  5
404A
331
3A87
  5
3FE9
331
3F95
  5
4052
331
403E
  5
3AA0
331
3FFF
  5
3ADA
331
4046
  5
3A97
331
4007
  5
3ACD
331
404E
  5
3A8F
331
400F
  5
3AC4
331
4017
  5
3ABC
331
2A9A
  5
2A9A
331
3778
  5
3778
331
3A8F
  5
3FF1
331
3AC6
  5
4028
331
3F9D
  5
405A
331
2A13
  5
2A13
331
3780
  5
3780
331
3A97
  5
3FF9
331
3ACE
  5
4030
331
3FA5
  5
4062
331
3788
  5
3788
331
3FAD
  5
4069
331
3A9F
  5
4001
331
2A23
  5
2A23
331
3AD6
  5
4038
331
3FD8
  5
3FA5
331
3FBD
  5
3FCF
331
3AA7
  5
4009
331
3ADE
  5
4040
331
4056
  5
3A87
331
401F
  5
3AB4
331
3FE0
  5
3F99
331
405E
  5
3A7F
331
3FE8
  5
3FA1
331
4027
  5
3AAC
331
4066
  5
3972
331
3FF0
  5
3F96
331
402F
  5
3AA3
331
4037
  5
3AAB
331
3970
  5
3FD6
331
3AAF
  5
4011
331
3978
  5
3FDE
331
3FC5
  5
3FC4
331
3769
  5
3769
331
3FCD
  5
3FBA
331
3AB7
  5
4019
331
3771
  5
3771
331
3F4E
  5
4044
331
3FD5
  5
3FC2
331
3F8E
  5
404B
331
29DC
  5
29DC
331
3A80
  5
3FE2
331
3ABF
  5
4021
331
3F96
  5
4053
331
3FF8
  5
3F8B
331
403F
  5
3AA1
331
4000
  5
3ADB
331
4047
  5
3A98
331
4008
  5
3ACE
331
404F
  5
3A90
331
4010
  5
3AC5
331
2A9B
  5
2A9B
331
3779
  5
3779
331
3A88
  5
3FEA
331
3F9E
  5
405B
331
3781
  5
3781
331
3A90
  5
3FF2
331
3AC7
  5
4029
331
3FA6
  5
4063
331
1ACD
  5
1ACD
331
3789
  5
3789
331
3A98
  5
3FFA
331
3ACF
  5
4031
331
3AD7
  5
4039
331
2A24
  5
2A24
331
3AA0
  5
4002
331
3FBE
  5
3FD0
331
3ADF
  5
4041
331
3FD9
  5
3FA6
331
4018
  5
3ABD
331
3FE1
  5
3F9A
331
4020
  5
3AB5
331
4057
  5
3A88
331
405F
  5
3A80
331
3FE9
  5
3FA2
331
4028
  5
3AAD
331
4067
  5
3973
331
3FF1
  5
3F97
331
4030
  5
3AA4
331
3AA8
  5
400A
331
3971
  5
3FD7
331
3FC6
  5
3FC5
331
3AB0
  5
4012
331
376A
  5
376A
331
3979
  5
3FDF
331
3FCE
  5
3FBB
331
2A94
  5
2A94
331
29D5
  5
29D5
331
3772
  5
3772
331
3AB8
  5
401A
331
3FD6
  5
3FA3
331
3F8F
  5
404C
331
29DD
  5
29DD
331
3A81
  5
3FE3
331
4038
  5
3A9A
331
3F97
  5
4054
331
3FF9
  5
3F8C
331
4040
  5
3AA2
331
4001
  5
3ADC
331
4048
  5
3A99
331
4009
  5
3ACF
331
4011
  5
3AC6
331
377A
  5
377A
331
3A89
  5
3FEB
331
3AC0
  5
4022
331
3F9F
  5
405C
331
3782
  5
3782
331
3373
  5
3373
331
3A91
  5
3FF3
331
3AC8
  5
402A
331
2A15
  5
2A15
331
3FA7
  5
4064
331
3AD0
  5
4032
331
378A
  5
378A
331
3A99
  5
3FFB
331
3AD8
  5
403A
331
3AA1
  5
4003
331
4050
  5
3A91
331
3FBF
  5
3FD1
331
3FDA
  5
3FA7
331
4019
  5
3ABE
331
3A7
  5
3A7
331
4058
  5
3A89
331
3FE2
  5
3F9B
331
4021
  5
3AB6
331
4060
  5
3A81
331
3FEA
  5
3F90
331
4029
  5
3AAE
331
4068
  5
3974
331
3FF2
  5
3F98
331
4031
  5
3AA5
  0
XRECORD
  5
1070
102
{ACAD_REACTORS
330
7CE
102
}
330
7CE
100
AcDbXrecord
280
     1
340
14
  0
LAYOUT
  5
47E
102
{ACAD_XDICTIONARY
360
4082
102
}
102
{ACAD_REACTORS
330
47B
102
}
330
47B
100
AcDbPlotSettings
  1

  2
hp psc 2100 series
  4

  6

 40
0.0
 41
0.0
 42
0.0
 43
0.0
 44
0.0
 45
0.0
 46
0.0
 47
0.0
 48
0.0
 49
0.0
140
0.0
141
0.0
142
1.0
143
1.0
 70
   688
 72
     0
 73
     0
 74
     5
  7
monochrome.ctb
 75
    16
147
1.0
148
0.0
149
0.0
100
AcDbLayout
  1
Layout1
 70
     0
 71
     1
 10
0.0
 20
0.0
 11
12.0
 21
9.0
 12
0.0
 22
0.0
 32
0.0
 14
1.000000000000000E+20
 24
1.000000000000000E+20
 34
1.000000000000000E+20
 15
-1.000000000000000E+20
 25
-1.000000000000000E+20
 35
-1.000000000000000E+20
146
0.0
 13
0.0
 23
0.0
 33
0.0
 16
1.0
 26
0.0
 36
0.0
 17
0.0
 27
1.0
 37
0.0
 76
     0
330
14
  0
LAYOUT
  5
47D
102
{ACAD_XDICTIONARY
360
4080
102
}
102
{ACAD_REACTORS
330
47B
102
}
330
47B
100
AcDbPlotSettings
  1

  2
HP LaserJet 2100 Series PS
  4
Letter
  6

 40
5.365749835968017
 41
5.408073902130126
 42
5.132904052734375
 43
5.090576171875
 44
215.8999938964844
 45
279.3999938964844
 46
0.0
 47
0.0
 48
0.0
 49
0.0
140
0.0
141
0.0
142
1.0
143
3.967254253308121
 70
 11952
 72
     0
 73
     0
 74
     2
  7
monochrome.ctb
 75
     0
147
0.2520635018958373
148
0.0
149
0.0
100
AcDbLayout
  1
Model
 70
     1
 71
     0
 10
0.0
 20
0.0
 11
12.0
 21
9.0
 12
0.0
 22
0.0
 32
0.0
 14
0.0
 24
0.0
 34
0.0
 15
0.0
 25
0.0
 35
0.0
146
0.0
 13
0.0
 23
0.0
 33
0.0
 16
1.0
 26
0.0
 36
0.0
 17
0.0
 27
1.0
 37
0.0
 76
     0
330
17
1001
ACAD_PSEXT
1000
HP LaserJet 2100 Series PS
1000
HP LaserJet 2100 Series PS
1000
LPT1:
1000

1070
     0
  0
MLINESTYLE
  5
1B
102
{ACAD_REACTORS
330
1A
102
}
330
1A
100
AcDbMlineStyle
  2
STANDARD
 70
     0
  3

 62
   256
 51
90.0
 52
90.0
 71
     2
 49
0.5
 62
   256
  6
BYLAYER
 49
-0.5
 62
   256
  6
BYLAYER
  0
ACDBPLACEHOLDER
  5
47A
102
{ACAD_REACTORS
330
479
102
}
330
479
  0
TABLESTYLE
  5
28FC
102
{ACAD_REACTORS
330
28FB
102
}
330
28FB
100
AcDbTableStyle
  3
Standard
 70
     0
 71
     0
 40
0.06
 41
0.06
280
     0
281
     0
  7
STANDARD
140
0.18
170
     2
 62
     0
 63
     7
283
     0
274
    -2
284
     1
 64
     0
275
    -2
285
     1
 65
     0
276
    -2
286
     1
 66
     0
277
    -2
287
     1
 67
     0
278
    -2
288
     1
 68
     0
279
    -2
289
     1
 69
     0
  7
STANDARD
140
0.25
170
     5
 62
     0
 63
     7
283
     0
274
    -2
284
     1
 64
     0
275
    -2
285
     1
 65
     0
276
    -2
286
     1
 66
     0
277
    -2
287
     1
 67
     0
278
    -2
288
     1
 68
     0
279
    -2
289
     1
 69
     0
  7
STANDARD
140
0.18
170
     5
 62
     0
 63
     7
283
     0
274
    -2
284
     1
 64
     0
275
    -2
285
     1
 65
     0
276
    -2
286
     1
 66
     0
277
    -2
287
     1
 67
     0
278
    -2
288
     1
 68
     0
279
    -2
289
     1
 69
     0
  0
DICTIONARYVAR
  5
2AA3
102
{ACAD_REACTORS
330
49
102
}
330
49
100
DictionaryVariables
280
     0
  1
STANDARD
  0
DICTIONARYVAR
  5
4A
102
{ACAD_REACTORS
330
49
102
}
330
49
100
DictionaryVariables
280
     0
  1
0
  0
DICTIONARYVAR
  5
708
102
{ACAD_REACTORS
330
49
102
}
330
49
100
DictionaryVariables
280
     0
  1
0
  0
DICTIONARYVAR
  5
2F3C
102
{ACAD_REACTORS
330
49
102
}
330
49
100
DictionaryVariables
280
     0
  1

  0
DICTIONARY
  5
4082
330
47E
100
AcDbDictionary
280
     1
281
     1
  3
ACAD_XREC_ROUNDTRIP
360
4083
  0
DICTIONARY
  5
4080
330
47D
100
AcDbDictionary
280
     1
281
     1
  3
ACAD_XREC_ROUNDTRIP
360
4081
  0
XRECORD
  5
4083
102
{ACAD_REACTORS
330
4082
102
}
330
4082
100
AcDbXrecord
280
     1
102
SHADEPLOT
 70
     0
102
SHADEPLOTRESLEVEL
 70
     2
102
SHADEPLOTCUSTOMDPI
 70
   300
  0
XRECORD
  5
4081
102
{ACAD_REACTORS
330
4080
102
}
330
4080
100
AcDbXrecord
280
     1
102
SHADEPLOT
 70
     0
102
SHADEPLOTRESLEVEL
 70
     2
102
SHADEPLOTCUSTOMDPI
 70
   300
  0
ENDSEC
  0
EOF
