  0
SECTION
  2
HEADER
  9
$ACADVER
  1
AC1015
  9
$ACADMAINTVER
 70
    20
  9
$DWGCODEPAGE
  3
ANSI_1252
  9
$INSBASE
 10
0.0
 20
0.0
 30
0.0
  9
$EXTMIN
 10
-1.166250000000005
 20
-0.0000000000000004
 30
0.0
  9
$EXTMAX
 10
1.16625
 20
12.93749999999984
 30
0.0
  9
$LIMMIN
 10
0.0
 20
0.0
  9
$LIMMAX
 10
32.0
 20
42.0
  9
$ORTHOMODE
 70
     1
  9
$REGENMODE
 70
     1
  9
$FILLMODE
 70
     1
  9
$QTEXTMODE
 70
     0
  9
$MIRRTEXT
 70
     0
  9
$LTSCALE
 40
0.5
  9
$ATTMODE
 70
     1
  9
$TEXTSIZE
 40
0.36
  9
$TRACEWID
 40
0.05
  9
$TEXTSTYLE
  7
STANDARD
  9
$CLAYER
  8
0
  9
$CELTYPE
  6
BYLAYER
  9
$CECOLOR
 62
   256
  9
$CELTSCALE
 40
1.0
  9
$DISPSILH
 70
     0
  9
$DIMSCALE
 40
4.0
  9
$DIMASZ
 40
0.1
  9
$DIMEXO
 40
0.062
  9
$DIMDLI
 40
0.375
  9
$DIMRND
 40
0.0
  9
$DIMDLE
 40
0.0
  9
$DIMEXE
 40
0.08
  9
$DIMTP
 40
0.0
  9
$DIMTM
 40
0.0
  9
$DIMTXT
 40
0.075
  9
$DIMCEN
 40
-0.0078125
  9
$DIMTSZ
 40
0.0
  9
$DIMTOL
 70
     0
  9
$DIMLIM
 70
     0
  9
$DIMTIH
 70
     1
  9
$DIMTOH
 70
     1
  9
$DIMSE1
 70
     0
  9
$DIMSE2
 70
     0
  9
$DIMTAD
 70
     0
  9
$DIMZIN
 70
     0
  9
$DIMBLK
  1

  9
$DIMASO
 70
     0
  9
$DIMSHO
 70
     0
  9
$DIMPOST
  1

  9
$DIMAPOST
  1

  9
$DIMALT
 70
     0
  9
$DIMALTD
 70
     2
  9
$DIMALTF
 40
25.4
  9
$DIMLFAC
 40
1.0
  9
$DIMTOFL
 70
     0
  9
$DIMTVP
 40
0.0
  9
$DIMTIX
 70
     0
  9
$DIMSOXD
 70
     0
  9
$DIMSAH
 70
     0
  9
$DIMBLK1
  1

  9
$DIMBLK2
  1

  9
$DIMSTYLE
  2
STANDARD
  9
$DIMCLRD
 70
     0
  9
$DIMCLRE
 70
     0
  9
$DIMCLRT
 70
     0
  9
$DIMTFAC
 40
1.0
  9
$DIMGAP
 40
0.09
  9
$DIMJUST
 70
     0
  9
$DIMSD1
 70
     0
  9
$DIMSD2
 70
     0
  9
$DIMTOLJ
 70
     1
  9
$DIMTZIN
 70
     0
  9
$DIMALTZ
 70
     0
  9
$DIMALTTZ
 70
     0
  9
$DIMUPT
 70
     0
  9
$DIMDEC
 70
     5
  9
$DIMTDEC
 70
     5
  9
$DIMALTU
 70
     2
  9
$DIMALTTD
 70
     2
  9
$DIMTXSTY
  7
STANDARD
  9
$DIMAUNIT
 70
     0
  9
$DIMADEC
 70
     0
  9
$DIMALTRND
 40
0.0
  9
$DIMAZIN
 70
     0
  9
$DIMDSEP
 70
    46
  9
$DIMATFIT
 70
     3
  9
$DIMFRAC
 70
     2
  9
$DIMLDRBLK
  1

  9
$DIMLUNIT
 70
     5
  9
$DIMLWD
 70
    -2
  9
$DIMLWE
 70
    -2
  9
$DIMTMOVE
 70
     2
  9
$LUNITS
 70
     2
  9
$LUPREC
 70
     4
  9
$SKETCHINC
 40
0.1
  9
$FILLETRAD
 40
0.0
  9
$AUNITS
 70
     0
  9
$AUPREC
 70
     0
  9
$MENU
  1
qa
  9
$ELEVATION
 40
0.0
  9
$PELEVATION
 40
0.0
  9
$THICKNESS
 40
0.0
  9
$LIMCHECK
 70
     0
  9
$CHAMFERA
 40
0.4375
  9
$CHAMFERB
 40
0.4375
  9
$CHAMFERC
 40
0.0
  9
$CHAMFERD
 40
0.0
  9
$SKPOLY
 70
     0
  9
$TDCREATE
 40
2452872.401862616
  9
$TDUCREATE
 40
2452872.693529283
  9
$TDUPDATE
 40
2454579.502871875
  9
$TDUUPDATE
 40
2454579.794538542
  9
$TDINDWG
 40
0.6527356829
  9
$TDUSRTIMER
 40
0.6527356829
  9
$USRTIMER
 70
     1
  9
$ANGBASE
 50
0.0
  9
$ANGDIR
 70
     0
  9
$PDMODE
 70
     0
  9
$PDSIZE
 40
0.0
  9
$PLINEWID
 40
0.0
  9
$SPLFRAME
 70
     0
  9
$SPLINETYPE
 70
     6
  9
$SPLINESEGS
 70
     8
  9
$HANDSEED
  5
3B39
  9
$SURFTAB1
 70
     6
  9
$SURFTAB2
 70
     6
  9
$SURFTYPE
 70
     6
  9
$SURFU
 70
     6
  9
$SURFV
 70
     6
  9
$UCSBASE
  2

  9
$UCSNAME
  2

  9
$UCSORG
 10
0.0
 20
0.0
 30
0.0
  9
$UCSXDIR
 10
1.0
 20
0.0
 30
0.0
  9
$UCSYDIR
 10
0.0
 20
1.0
 30
0.0
  9
$UCSORTHOREF
  2

  9
$UCSORTHOVIEW
 70
     0
  9
$UCSORGTOP
 10
0.0
 20
0.0
 30
0.0
  9
$UCSORGBOTTOM
 10
0.0
 20
0.0
 30
0.0
  9
$UCSORGLEFT
 10
0.0
 20
0.0
 30
0.0
  9
$UCSORGRIGHT
 10
0.0
 20
0.0
 30
0.0
  9
$UCSORGFRONT
 10
0.0
 20
0.0
 30
0.0
  9
$UCSORGBACK
 10
0.0
 20
0.0
 30
0.0
  9
$PUCSBASE
  2

  9
$PUCSNAME
  2

  9
$PUCSORG
 10
0.0
 20
0.0
 30
0.0
  9
$PUCSXDIR
 10
1.0
 20
0.0
 30
0.0
  9
$PUCSYDIR
 10
0.0
 20
1.0
 30
0.0
  9
$PUCSORTHOREF
  2

  9
$PUCSORTHOVIEW
 70
     0
  9
$PUCSORGTOP
 10
0.0
 20
0.0
 30
0.0
  9
$PUCSORGBOTTOM
 10
0.0
 20
0.0
 30
0.0
  9
$PUCSORGLEFT
 10
0.0
 20
0.0
 30
0.0
  9
$PUCSORGRIGHT
 10
0.0
 20
0.0
 30
0.0
  9
$PUCSORGFRONT
 10
0.0
 20
0.0
 30
0.0
  9
$PUCSORGBACK
 10
0.0
 20
0.0
 30
0.0
  9
$USERI1
 70
     0
  9
$USERI2
 70
     0
  9
$USERI3
 70
     0
  9
$USERI4
 70
     0
  9
$USERI5
 70
     0
  9
$USERR1
 40
0.0
  9
$USERR2
 40
0.0
  9
$USERR3
 40
0.0
  9
$USERR4
 40
0.0
  9
$USERR5
 40
0.0
  9
$WORLDVIEW
 70
     1
  9
$SHADEDGE
 70
     3
  9
$SHADEDIF
 70
    70
  9
$TILEMODE
 70
     1
  9
$MAXACTVP
 70
    16
  9
$PINSBASE
 10
0.0
 20
0.0
 30
0.0
  9
$PLIMCHECK
 70
     0
  9
$PEXTMIN
 10
1.000000000000000E+20
 20
1.000000000000000E+20
 30
1.000000000000000E+20
  9
$PEXTMAX
 10
-1.000000000000000E+20
 20
-1.000000000000000E+20
 30
-1.000000000000000E+20
  9
$PLIMMIN
 10
0.0
 20
0.0
  9
$PLIMMAX
 10
12.0
 20
9.0
  9
$UNITMODE
 70
     0
  9
$VISRETAIN
 70
     0
  9
$PLINEGEN
 70
     0
  9
$PSLTSCALE
 70
     0
  9
$TREEDEPTH
 70
  3020
  9
$CMLSTYLE
  2
STANDARD
  9
$CMLJUST
 70
     0
  9
$CMLSCALE
 40
1.0
  9
$PROXYGRAPHICS
 70
     1
  9
$MEASUREMENT
 70
     0
  9
$CELWEIGHT
370
    -1
  9
$ENDCAPS
280
     0
  9
$JOINSTYLE
280
     0
  9
$LWDISPLAY
290
     0
  9
$INSUNITS
 70
     0
  9
$HYPERLINKBASE
  1

  9
$STYLESHEET
  1
monochrome.ctb
  9
$XEDIT
290
     1
  9
$CEPSNTYPE
380
     0
  9
$PSTYLEMODE
290
     1
  9
$FINGERPRINTGUID
  2
{3F8EE252-4A01-453C-A5F5-5678F9528411}
  9
$VERSIONGUID
  2
{CA1AC90F-D9BA-41D8-922A-21672CC4E771}
  9
$EXTNAMES
290
     1
  9
$PSVPSCALE
 40
0.0
  9
$OLESTARTUP
290
     0
  0
ENDSEC
  0
SECTION
  2
CLASSES
  0
CLASS
  1
DICTIONARYVAR
  2
AcDbDictionaryVar
  3
ObjectDBX Classes
 90
        0
280
     0
281
     0
  0
CLASS
  1
ACDBDICTIONARYWDFLT
  2
AcDbDictionaryWithDefault
  3
ObjectDBX Classes
 90
        0
280
     0
281
     0
  0
CLASS
  1
ACDBPLACEHOLDER
  2
AcDbPlaceHolder
  3
ObjectDBX Classes
 90
        0
280
     0
281
     0
  0
CLASS
  1
LAYOUT
  2
AcDbLayout
  3
ObjectDBX Classes
 90
        0
280
     0
281
     0
  0
CLASS
  1
TABLESTYLE
  2
AcDbTableStyle
  3
ObjectDBX Classes
 90
     2047
280
     0
281
     0
  0
CLASS
  1
SORTENTSTABLE
  2
AcDbSortentsTable
  3
ObjectDBX Classes
 90
        0
280
     0
281
     0
  0
ENDSEC
  0
SECTION
  2
TABLES
  0
TABLE
  2
VPORT
  5
8
330
0
100
AcDbSymbolTable
 70
     2
  0
VPORT
  5
3B33
330
8
100
AcDbSymbolTableRecord
100
AcDbViewportTableRecord
  2
*Active
 70
     0
 10
0.0
 20
0.0
 11
1.0
 21
1.0
 12
2.377747620576602
 22
10.56888226827743
 13
0.0
 23
0.0
 14
0.063
 24
0.063
 15
0.25
 25
0.25
 16
0.0
 26
0.0
 36
1.0
 17
0.0
 27
0.0
 37
0.0
 40
23.63019663246675
 41
1.760162601626016
 42
50.0
 43
0.0
 44
0.0
 50
0.0
 51
0.0
 71
     0
 72
   100
 73
     1
 74
     0
 75
     0
 76
     0
 77
     0
 78
     0
281
     0
 65
     1
110
0.0
120
0.0
130
0.0
111
1.0
121
0.0
131
0.0
112
0.0
122
1.0
132
0.0
 79
     0
146
0.0
  0
ENDTAB
  0
TABLE
  2
LTYPE
  5
5
330
0
100
AcDbSymbolTable
 70
     3
  0
LTYPE
  5
11
330
5
100
AcDbSymbolTableRecord
100
AcDbLinetypeTableRecord
  2
BYBLOCK
 70
     0
  3

 72
    65
 73
     0
 40
0.0
  0
LTYPE
  5
12
330
5
100
AcDbSymbolTableRecord
100
AcDbLinetypeTableRecord
  2
BYLAYER
 70
     0
  3

 72
    65
 73
     0
 40
0.0
  0
LTYPE
  5
13
330
5
100
AcDbSymbolTableRecord
100
AcDbLinetypeTableRecord
  2
CONTINUOUS
 70
     0
  3
Solid line
 72
    65
 73
     0
 40
0.0
  0
LTYPE
  5
2B
330
5
100
AcDbSymbolTableRecord
100
AcDbLinetypeTableRecord
  2
HIDDEN
 70
     0
  3
_ _ _ _ _ _ _ _ _ _ _ _ _ _ _ _ _ _ _ _ _ _ _
 72
    65
 73
     2
 40
0.375
 49
0.25
 74
     0
 49
-0.125
 74
     0
  0
LTYPE
  5
302A
330
5
100
AcDbSymbolTableRecord
100
AcDbLinetypeTableRecord
  2
THD
 70
     0
  3
_ _ _ _ _ _ _ _ _ _ _ _ _ _ _ _ _ _ _ _ _ _ _ _
 72
    65
 73
     2
 40
0.15
 49
0.11
 74
     0
 49
-0.04
 74
     0
  0
ENDTAB
  0
TABLE
  2
LAYER
  5
2
102
{ACAD_XDICTIONARY
360
2ABF
102
}
330
0
100
AcDbSymbolTable
 70
     3
  0
LAYER
  5
E
330
2
100
AcDbSymbolTableRecord
100
AcDbLayerTableRecord
  2
0
 70
     0
 62
     7
  6
CONTINUOUS
370
    -3
390
47A
  0
LAYER
  5
37
330
2
100
AcDbSymbolTableRecord
100
AcDbLayerTableRecord
  2
DIM
 70
     0
 62
     5
  6
CONTINUOUS
370
    -3
390
47A
  0
LAYER
  5
2DFD
330
2
100
AcDbSymbolTableRecord
100
AcDbLayerTableRecord
  2
Defpoints
 70
     0
 62
     7
  6
CONTINUOUS
290
     0
370
    -3
390
47A
  0
ENDTAB
  0
TABLE
  2
STYLE
  5
3
330
0
100
AcDbSymbolTable
 70
     1
  0
STYLE
  5
F
330
3
100
AcDbSymbolTableRecord
100
AcDbTextStyleTableRecord
  2
STANDARD
 70
     0
 40
0.0
 41
1.0
 50
0.0
 71
     0
 42
0.36
  3
TXT
  4

  0
ENDTAB
  0
TABLE
  2
VIEW
  5
6
330
0
100
AcDbSymbolTable
 70
     0
  0
ENDTAB
  0
TABLE
  2
UCS
  5
7
330
0
100
AcDbSymbolTable
 70
     0
  0
ENDTAB
  0
TABLE
  2
APPID
  5
9
330
0
100
AcDbSymbolTable
 70
     4
  0
APPID
  5
10
330
9
100
AcDbSymbolTableRecord
100
AcDbRegAppTableRecord
  2
ACAD
 70
     0
  0
APPID
  5
DA7
330
9
100
AcDbSymbolTableRecord
100
AcDbRegAppTableRecord
  2
RAK
 70
     0
  0
APPID
  5
2C62
330
9
100
AcDbSymbolTableRecord
100
AcDbRegAppTableRecord
  2
ACAD_PSEXT
 70
     0
  0
APPID
  5
2C6B
330
9
100
AcDbSymbolTableRecord
100
AcDbRegAppTableRecord
  2
ACAD_DSTYLE_DIMTEXT_FILL
 70
     0
  0
ENDTAB
  0
TABLE
  2
DIMSTYLE
  5
A
330
0
100
AcDbSymbolTable
 70
     1
100
AcDbDimStyleTable
 71
     1
340
465
  0
DIMSTYLE
105
465
330
A
100
AcDbSymbolTableRecord
100
AcDbDimStyleTableRecord
  2
STANDARD
 70
     0
340
F
  0
ENDTAB
  0
TABLE
  2
BLOCK_RECORD
  5
1
330
0
100
AcDbSymbolTable
 70
     0
  0
BLOCK_RECORD
  5
17
102
{ACAD_XDICTIONARY
360
7D0
102
}
330
1
100
AcDbSymbolTableRecord
100
AcDbBlockTableRecord
  2
*MODEL_SPACE
340
47D
  0
BLOCK_RECORD
  5
14
102
{ACAD_XDICTIONARY
360
7CE
102
}
330
1
100
AcDbSymbolTableRecord
100
AcDbBlockTableRecord
  2
*PAPER_SPACE
340
47E
  0
ENDTAB
  0
ENDSEC
  0
SECTION
  2
BLOCKS
  0
BLOCK
  5
47
330
17
100
AcDbEntity
  8
0
100
AcDbBlockBegin
  2
*MODEL_SPACE
 70
     0
 10
0.0
 20
0.0
 30
0.0
  3
*MODEL_SPACE
  1

  0
ENDBLK
  5
48
330
17
100
AcDbEntity
  8
0
100
AcDbBlockEnd
  0
BLOCK
  5
45
330
14
100
AcDbEntity
 67
     1
  8
0
100
AcDbBlockBegin
  2
*PAPER_SPACE
 70
     0
 10
0.0
 20
0.0
 30
0.0
  3
*PAPER_SPACE
  1

  0
ENDBLK
  5
46
330
14
100
AcDbEntity
 67
     1
  8
0
100
AcDbBlockEnd
  0
ENDSEC
  0
SECTION
  2
ENTITIES
  0
TEXT
  5
3A7
330
17
100
AcDbEntity
  8
DIM
100
AcDbText
 10
14.93846334400804
 20
21.0944638759405
 30
0.0
 40
0.36
  1
   
 50
359.9999999999988
 11
14.93846334400805
 21
21.2744638759405
 31
0.0
100
AcDbText
 73
     2
  0
TEXT
  5
400
330
17
100
AcDbEntity
  8
DIM
100
AcDbText
 10
13.55232669162668
 20
10.34149078419336
 30
0.0
 40
0.36
  1
   
 72
     1
 11
14.09232669162668
 21
10.52149078419336
 31
0.0
100
AcDbText
 73
     2
  0
LINE
  5
29D8
330
17
100
AcDbEntity
  8
0
100
AcDbLine
 10
1.03125
 20
1.166249999999999
 30
0.0
 11
1.031249999999946
 21
12.93749999999983
 31
0.0
  0
LINE
  5
29D9
330
17
100
AcDbEntity
  8
0
100
AcDbLine
 10
-1.16624999999999
 20
1.166249999999999
 30
0.0
 11
-1.166250000000001
 21
12.93749999999984
 31
0.0
  0
LINE
  5
29DA
330
17
100
AcDbEntity
  8
0
100
AcDbLine
 10
-1.03125
 20
1.166249999999999
 30
0.0
 11
-1.03125
 21
12.93749999999984
 31
0.0
  0
LINE
  5
29DB
330
17
100
AcDbEntity
  8
0
100
AcDbLine
 10
1.16624999999999
 20
1.166249999999999
 30
0.0
 11
1.166249999999918
 21
12.93749999999983
 31
0.0
  0
LINE
  5
29DF
330
17
100
AcDbEntity
  8
0
100
AcDbLine
 10
-0.1794777784404999
 20
4.95190868771011
 30
0.0
 11
-0.4082555553898857
 21
5.224555425295259
 31
0.0
  0
LINE
  5
29E0
330
17
100
AcDbEntity
  8
0
100
AcDbLine
 10
-0.0544777784404715
 20
4.95190868771011
 30
0.0
 11
-0.2832555553898857
 21
5.224555425295344
 31
0.0
  0
LINE
  5
29E1
330
17
100
AcDbEntity
  8
0
100
AcDbLine
 10
-1.03125
 20
1.166249999999971
 30
0.0
 11
1.03125
 21
1.166249999999971
 31
0.0
  0
LINE
  5
29E2
330
17
100
AcDbEntity
  8
0
100
AcDbLine
 10
-0.971995370359366
 20
0.9312499999999861
 30
0.0
 11
0.971995370359366
 21
0.9312499999999861
 31
0.0
  0
ARC
  5
29E3
330
17
100
AcDbEntity
  8
0
100
AcDbCircle
 10
0.7694440365817173
 20
0.477893511426041
 30
0.0
 40
0.262
100
AcDbArc
 50
56.51917063918638
 51
135.0
  0
ARC
  5
29E4
330
17
100
AcDbEntity
  8
0
100
AcDbCircle
 10
0.7694440365817173
 20
0.477893511426041
 30
0.0
 40
0.125
100
AcDbArc
 50
45.0
 51
135.0
  0
ARC
  5
29E5
330
17
100
AcDbEntity
  8
0
100
AcDbCircle
 10
0.0
 20
1.166249999999999
 30
0.0
 40
1.16625
100
AcDbArc
 50
180.0
 51
0.0
  0
ARC
  5
29E6
330
17
100
AcDbEntity
  8
0
100
AcDbCircle
 10
-0.0000000000000018
 20
1.166249999999999
 30
0.0
 40
1.031249999999998
100
AcDbArc
 50
180.0000000000008
 51
0.0
  0
ARC
  5
29E8
330
17
100
AcDbEntity
  8
0
100
AcDbCircle
 10
-0.0000000000000036
 20
1.166249999999999
 30
0.0
 40
0.781250000000001
100
AcDbArc
 50
359.9999999999979
 51
20.00000000000229
  0
LINE
  5
29E9
330
17
100
AcDbEntity
  8
0
100
AcDbLine
 10
0.7341348599889273
 20
1.433453236973187
 30
0.0
 11
0.0926536896070474
 21
3.195908267602513
 31
0.0
  0
LINE
  5
29EA
330
17
100
AcDbEntity
  8
0
100
AcDbLine
 10
-0.0625
 20
3.366918339265689
 30
0.0
 11
-0.0624999999999858
 21
4.630514882866842
 31
0.0
  0
LINE
  5
29EB
330
17
100
AcDbEntity
  8
0
100
AcDbLine
 10
0.0625
 20
3.366918339265376
 30
0.0
 11
0.0625000000000142
 21
4.63051488286687
 31
0.0
  0
ARC
  5
29EC
330
17
100
AcDbEntity
  8
0
100
AcDbCircle
 10
-0.5625
 20
3.366918339265689
 30
0.0
 40
0.5
100
AcDbArc
 50
339.9999999999999
 51
0.0
  0
ARC
  5
29ED
330
17
100
AcDbEntity
  8
0
100
AcDbCircle
 10
0.5625
 20
3.366918339265376
 30
0.0
 40
0.5
100
AcDbArc
 50
180.0
 51
200.0000000000022
  0
ARC
  5
29EE
330
17
100
AcDbEntity
  8
0
100
AcDbCircle
 10
-0.5624999999999858
 20
4.630514882866842
 30
0.0
 40
0.5
100
AcDbArc
 50
0.0
 51
39.99999999999941
  0
ARC
  5
29EF
330
17
100
AcDbEntity
  8
0
100
AcDbCircle
 10
-0.4374999999999858
 20
4.63051488286687
 30
0.0
 40
0.5
100
AcDbArc
 50
0.0
 51
39.99999999999494
  0
ARC
  5
29F0
330
17
100
AcDbEntity
  8
0
100
AcDbCircle
 10
-0.6810556889333839
 20
0.3895051637777076
 30
0.0
 40
0.125
100
AcDbArc
 50
315.0
 51
45.0
  0
ARC
  5
29F1
330
17
100
AcDbEntity
  8
0
100
AcDbCircle
 10
0.6810556889333839
 20
0.3895051637777076
 30
0.0
 40
0.125
100
AcDbArc
 50
135.0
 51
225.0
  0
ARC
  5
29F2
330
17
100
AcDbEntity
  8
0
100
AcDbCircle
 10
-0.6810556889333839
 20
0.3895051637777076
 30
0.0
 40
0.262
100
AcDbArc
 50
326.5191706391893
 51
45.0
  0
ARC
  5
29F3
330
17
100
AcDbEntity
  8
0
100
AcDbCircle
 10
0.6810556889333839
 20
0.3895051637777076
 30
0.0
 40
0.262
100
AcDbArc
 50
135.0
 51
213.4808293608106
  0
LINE
  5
29F4
330
17
100
AcDbEntity
  8
0
100
AcDbLine
 10
-0.6348835727574738
 20
0.2589005846570647
 30
0.0
 11
-0.6770998042298971
 21
0.2166843531846698
 31
0.0
  0
LINE
  5
29F5
330
17
100
AcDbEntity
  8
0
100
AcDbLine
 10
0.6348835727574738
 20
0.2589005846570647
 30
0.0
 11
0.6770998042298971
 21
0.2166843531846698
 31
0.0
  0
ARC
  5
29F6
330
17
100
AcDbEntity
  8
0
100
AcDbCircle
 10
-0.7694440365817173
 20
0.477893511426041
 30
0.0
 40
0.262
100
AcDbArc
 50
45.0
 51
123.4808293608136
  0
ARC
  5
29F7
330
17
100
AcDbEntity
  8
0
100
AcDbCircle
 10
-0.7694440365817173
 20
0.477893511426041
 30
0.0
 40
0.125
100
AcDbArc
 50
45.0
 51
135.0
  0
LINE
  5
29F8
330
17
100
AcDbEntity
  8
0
100
AcDbLine
 10
-0.5841820599108587
 20
0.6631554880969564
 30
0.0
 11
-0.4957937122625254
 21
0.574767140448623
 31
0.0
  0
LINE
  5
29F9
330
17
100
AcDbEntity
  8
0
100
AcDbLine
 10
-0.6589586020213006
 20
0.5441847721623195
 30
0.0
 11
-0.6147644281971339
 21
0.4999905983381528
 31
0.0
  0
LINE
  5
29FA
330
17
100
AcDbEntity
  8
0
100
AcDbLine
 10
-0.900048615702417
 20
0.524065627602008
 30
0.0
 11
-0.9422648471747834
 21
0.4818493961296131
 31
0.0
  0
LINE
  5
29FB
330
17
100
AcDbEntity
  8
0
100
AcDbLine
 10
-0.9717500000000427
 20
1.457496052584653
 30
0.0
 11
-0.9717500000000427
 21
1.332496052584653
 31
0.0
  0
LINE
  5
29FC
330
17
100
AcDbEntity
  8
0
100
AcDbLine
 10
-1.108750000000043
 20
1.457496052584653
 30
0.0
 11
-1.108750000000043
 21
1.332496052584653
 31
0.0
  0
ARC
  5
29FD
330
17
100
AcDbEntity
  8
0
100
AcDbCircle
 10
-1.233750000000043
 20
1.457496052584682
 30
0.0
 40
0.125
100
AcDbArc
 50
0.0
 51
57.31636115371742
  0
ARC
  5
29FE
330
17
100
AcDbEntity
  8
0
100
AcDbCircle
 10
-1.233750000000043
 20
1.332496052584682
 30
0.0
 40
0.125
100
AcDbArc
 50
302.6836388462824
 51
0.0
  0
ARC
  5
29FF
330
17
100
AcDbEntity
  8
0
100
AcDbCircle
 10
-1.233750000000043
 20
1.457496052584682
 30
0.0
 40
0.262
100
AcDbArc
 50
39.38490570446346
 51
75.07030617871729
  0
ARC
  5
2A00
330
17
100
AcDbEntity
  8
0
100
AcDbCircle
 10
-1.233750000000043
 20
1.332496052584682
 30
0.0
 40
0.262
100
AcDbArc
 50
285.6697407026494
 51
320.6150942955365
  0
LINE
  5
2A01
330
17
100
AcDbEntity
  8
0
100
AcDbLine
 10
0.5841820599108587
 20
0.6631554880969564
 30
0.0
 11
0.4957937122625254
 21
0.574767140448623
 31
0.0
  0
LINE
  5
2A02
330
17
100
AcDbEntity
  8
0
100
AcDbLine
 10
0.6589586020213006
 20
0.5441847721623195
 30
0.0
 11
0.6147644281971339
 21
0.4999905983381528
 31
0.0
  0
LINE
  5
2A03
330
17
100
AcDbEntity
  8
0
100
AcDbLine
 10
0.3320509597227073
 20
0.6387192329450873
 30
0.0
 11
0.3047260606747812
 21
0.7050144072788758
 31
0.0
  0
ARC
  5
2A04
330
17
100
AcDbEntity
  8
0
100
AcDbCircle
 10
-0.0000000000000142
 20
1.444488590706763
 30
0.0
 40
0.9873000000000001
100
AcDbArc
 50
267.8533453546596
 51
272.1466546453438
  0
ARC
  5
2A05
330
17
100
AcDbEntity
  8
0
100
AcDbCircle
 10
-0.0000000000000142
 20
1.444488590706763
 30
0.0
 40
0.7998000000000048
100
AcDbArc
 50
270.0
 51
292.3958138802951
  0
ARC
  5
2A06
330
17
100
AcDbEntity
  8
0
100
AcDbCircle
 10
-0.0000000000000142
 20
1.444488590706763
 30
0.0
 40
0.7998000000000048
100
AcDbArc
 50
247.599999999997
 51
270.0
  0
LINE
  5
2A07
330
17
100
AcDbEntity
  8
0
100
AcDbLine
 10
-0.3320509597227215
 20
0.6387192329450873
 30
0.0
 11
-0.3047260606748097
 21
0.7050144072788758
 31
0.0
  0
LINE
  5
2A08
330
17
100
AcDbEntity
  8
0
100
AcDbLine
 10
-0.0369817174474321
 20
0.4578814538104812
 30
0.0
 11
-0.0000000000000142
 21
0.6446885907067586
 31
0.0
  0
LINE
  5
2A09
330
17
100
AcDbEntity
  8
0
100
AcDbLine
 10
0.0369817174474037
 20
0.4578814538104812
 30
0.0
 11
-0.0000000000000142
 21
0.6446885907067586
 31
0.0
  0
ARC
  5
2A0A
330
17
100
AcDbEntity
  8
0
100
AcDbCircle
 10
0.0
 20
1.166249999999999
 30
0.0
 40
0.7812499999999988
100
AcDbArc
 50
159.9999999999999
 51
180.000000000002
  0
ARC
  5
2A0B
330
17
100
AcDbEntity
  8
0
100
AcDbCircle
 10
0.4476192139242272
 20
0.6863530299888883
 30
0.0
 40
0.125
100
AcDbArc
 50
202.4000000000091
 51
313.0068992825724
  0
ARC
  5
2A0C
330
17
100
AcDbEntity
  8
0
100
AcDbCircle
 10
-0.4476192139242557
 20
0.6863530299889167
 30
0.0
 40
0.125
100
AcDbArc
 50
226.9931007174253
 51
337.5999999999812
  0
LINE
  5
2A0D
330
17
100
AcDbEntity
  8
0
100
AcDbLine
 10
-0.7341348599889699
 20
1.433453236973187
 30
0.0
 11
-0.0926536896070474
 21
3.195908267602854
 31
0.0
  0
LINE
  5
2A1A
330
17
100
AcDbEntity
  8
0
100
AcDbLine
 10
0.900048615702417
 20
0.524065627602008
 30
0.0
 11
0.9422648471747834
 21
0.4818493961296131
 31
0.0
  0
ARC
  5
2A1B
330
17
100
AcDbEntity
  8
0
100
AcDbCircle
 10
1.233750000000043
 20
1.332496052584682
 30
0.0
 40
0.262
100
AcDbArc
 50
219.3849057044635
 51
254.3302592973506
  0
ARC
  5
2A1C
330
17
100
AcDbEntity
  8
0
100
AcDbCircle
 10
1.233750000000043
 20
1.457496052584682
 30
0.0
 40
0.262
100
AcDbArc
 50
104.9296938212827
 51
140.6150942955374
  0
ARC
  5
2A1D
330
17
100
AcDbEntity
  8
0
100
AcDbCircle
 10
1.233750000000043
 20
1.332496052584682
 30
0.0
 40
0.125
100
AcDbArc
 50
180.0
 51
237.3163611537175
  0
ARC
  5
2A1E
330
17
100
AcDbEntity
  8
0
100
AcDbCircle
 10
1.233750000000043
 20
1.457496052584682
 30
0.0
 40
0.125
100
AcDbArc
 50
122.6836388462826
 51
180.0
  0
LINE
  5
2A1F
330
17
100
AcDbEntity
  8
0
100
AcDbLine
 10
1.108750000000043
 20
1.457496052584653
 30
0.0
 11
1.108750000000043
 21
1.332496052584653
 31
0.0
  0
LINE
  5
2A20
330
17
100
AcDbEntity
  8
0
100
AcDbLine
 10
0.9717500000000427
 20
1.457496052584653
 30
0.0
 11
0.9717500000000427
 21
1.332496052584653
 31
0.0
  0
CIRCLE
  5
2A25
330
17
100
AcDbEntity
  8
0
100
AcDbCircle
 10
0.5624999999999716
 20
9.812499999999895
 30
0.0
 40
0.125
  0
LINE
  5
2A26
330
17
100
AcDbEntity
  8
0
100
AcDbLine
 10
0.2832555553898004
 20
9.40044457470473
 30
0.0
 11
-0.4082555553898573
 21
10.2245554252952
 31
0.0
  0
LINE
  5
2A27
330
17
100
AcDbEntity
  8
0
100
AcDbLine
 10
0.4082555553898289
 20
9.40044457470473
 30
0.0
 11
-0.2832555553898857
 21
10.2245554252952
 31
0.0
  0
CIRCLE
  5
2A28
330
17
100
AcDbEntity
  8
0
100
AcDbCircle
 10
-0.5625
 20
9.812499999999895
 30
0.0
 40
0.125
  0
CIRCLE
  5
2A29
330
17
100
AcDbEntity
  8
0
100
AcDbCircle
 10
0.0625
 20
7.937499999999952
 30
0.0
 40
0.125
  0
CIRCLE
  5
2A2A
330
17
100
AcDbEntity
  8
0
100
AcDbCircle
 10
-0.5625
 20
7.312499999999952
 30
0.0
 40
0.125
  0
LINE
  5
2A2B
330
17
100
AcDbEntity
  8
0
100
AcDbLine
 10
-0.4375000000000142
 20
7.804903876505941
 30
0.0
 11
-0.4374999999999858
 21
8.070096123493934
 31
0.0
  0
LINE
  5
2A2C
330
17
100
AcDbEntity
  8
0
100
AcDbLine
 10
-0.3125000000000142
 20
7.804903876505997
 30
0.0
 11
-0.3124999999999858
 21
8.070096123493906
 31
0.0
  0
LINE
  5
2A2D
330
17
100
AcDbEntity
  8
0
100
AcDbLine
 10
0.2832555553898004
 20
8.974555425295145
 30
0.0
 11
-0.4082555553898573
 21
8.150444574704758
 31
0.0
  0
LINE
  5
2A2E
330
17
100
AcDbEntity
  8
0
100
AcDbLine
 10
0.4082555553898004
 20
8.97455542529506
 30
0.0
 11
-0.2832555553898572
 21
8.15044457470473
 31
0.0
  0
CIRCLE
  5
2A2F
330
17
100
AcDbEntity
  8
0
100
AcDbCircle
 10
-0.5625
 20
8.562499999999895
 30
0.0
 40
0.125
  0
CIRCLE
  5
2A30
330
17
100
AcDbEntity
  8
0
100
AcDbCircle
 10
0.5624999999999716
 20
8.562499999999895
 30
0.0
 40
0.125
  0
CIRCLE
  5
2A31
330
17
100
AcDbEntity
  8
0
100
AcDbCircle
 10
0.5624999999999716
 20
7.312499999999952
 30
0.0
 40
0.125
  0
LINE
  5
2A32
330
17
100
AcDbEntity
  8
0
100
AcDbLine
 10
0.437499999999929
 20
9.054903876505884
 30
0.0
 11
0.4374999999999574
 21
9.320096123493906
 31
0.0
  0
LINE
  5
2A33
330
17
100
AcDbEntity
  8
0
100
AcDbLine
 10
0.3124999999999289
 20
9.054903876505969
 30
0.0
 11
0.3124999999999289
 21
9.320096123493906
 31
0.0
  0
CIRCLE
  5
2A34
330
17
100
AcDbEntity
  8
0
100
AcDbCircle
 10
-0.0625000000000711
 20
9.187499999999923
 30
0.0
 40
0.125
  0
ARC
  5
2A35
330
17
100
AcDbEntity
  8
0
100
AcDbCircle
 10
-0.3125000000000142
 20
7.804903876505941
 30
0.0
 40
0.125
100
AcDbArc
 50
180.0
 51
220.000000000003
  0
ARC
  5
2A36
330
17
100
AcDbEntity
  8
0
100
AcDbCircle
 10
-0.1875000000000142
 20
7.804903876505997
 30
0.0
 40
0.125
100
AcDbArc
 50
179.9999999999959
 51
220.0000000000035
  0
ARC
  5
2A37
330
17
100
AcDbEntity
  8
0
100
AcDbCircle
 10
-0.1874999999999858
 20
8.070096123493906
 30
0.0
 40
0.125
100
AcDbArc
 50
139.9999999999981
 51
179.9999999999947
  0
ARC
  5
2A38
330
17
100
AcDbEntity
  8
0
100
AcDbCircle
 10
-0.3124999999999858
 20
8.070096123493934
 30
0.0
 40
0.125
100
AcDbArc
 50
139.9999999999979
 51
179.9999999999984
  0
ARC
  5
2A39
330
17
100
AcDbEntity
  8
0
100
AcDbCircle
 10
0.1874999999999289
 20
9.054903876505969
 30
0.0
 40
0.125
100
AcDbArc
 50
319.999999999997
 51
359.999999999998
  0
ARC
  5
2A3A
330
17
100
AcDbEntity
  8
0
100
AcDbCircle
 10
0.3124999999999289
 20
9.054903876505884
 30
0.0
 40
0.125
100
AcDbArc
 50
319.9999999999967
 51
359.9999999999939
  0
ARC
  5
2A3B
330
17
100
AcDbEntity
  8
0
100
AcDbCircle
 10
0.3124999999999574
 20
9.320096123493906
 30
0.0
 40
0.125
100
AcDbArc
 50
359.9999999999947
 51
40.00000000000056
  0
ARC
  5
2A3C
330
17
100
AcDbEntity
  8
0
100
AcDbCircle
 10
0.1874999999999289
 20
9.320096123493906
 30
0.0
 40
0.125
100
AcDbArc
 50
359.9999999999984
 51
40.00000000000244
  0
CIRCLE
  5
2A3D
330
17
100
AcDbEntity
  8
0
100
AcDbCircle
 10
-0.5625
 20
6.062499999999952
 30
0.0
 40
0.125
  0
LINE
  5
2A3E
330
17
100
AcDbEntity
  8
0
100
AcDbLine
 10
0.3124999999999289
 20
6.554903876505912
 30
0.0
 11
0.3124999999999574
 21
6.820096123493906
 31
0.0
  0
CIRCLE
  5
2A3F
330
17
100
AcDbEntity
  8
0
100
AcDbCircle
 10
-0.0625000000000711
 20
6.68749999999998
 30
0.0
 40
0.125
  0
LINE
  5
2A40
330
17
100
AcDbEntity
  8
0
100
AcDbLine
 10
0.437499999999929
 20
6.554903876505997
 30
0.0
 11
0.4374999999999432
 21
6.820096123493962
 31
0.0
  0
LINE
  5
2A41
330
17
100
AcDbEntity
  8
0
100
AcDbLine
 10
0.4082555553898004
 20
6.474555425295173
 30
0.0
 11
-0.283255555389843
 21
5.65044457470473
 31
0.0
  0
LINE
  5
2A42
330
17
100
AcDbEntity
  8
0
100
AcDbLine
 10
0.2832555553898004
 20
6.474555425295088
 30
0.0
 11
-0.4082555553898573
 21
5.650444574704673
 31
0.0
  0
CIRCLE
  5
2A43
330
17
100
AcDbEntity
  8
0
100
AcDbCircle
 10
0.5624999999999716
 20
6.062499999999952
 30
0.0
 40
0.125
  0
LINE
  5
2A44
330
17
100
AcDbEntity
  8
0
100
AcDbLine
 10
-0.4375
 20
5.304903876506083
 30
0.0
 11
-0.4374999999999858
 21
5.570096123493849
 31
0.0
  0
LINE
  5
2A45
330
17
100
AcDbEntity
  8
0
100
AcDbLine
 10
-0.3125
 20
5.304903876506168
 30
0.0
 11
-0.3124999999999716
 21
5.570096123493906
 31
0.0
  0
CIRCLE
  5
2A46
330
17
100
AcDbEntity
  8
0
100
AcDbCircle
 10
0.0625
 20
5.437500000000008
 30
0.0
 40
0.125
  0
ARC
  5
2A47
330
17
100
AcDbEntity
  8
0
100
AcDbCircle
 10
-0.1874999999999716
 20
5.570096123493906
 30
0.0
 40
0.125
100
AcDbArc
 50
140.0000000000004
 51
179.9999999999959
  0
ARC
  5
2A48
330
17
100
AcDbEntity
  8
0
100
AcDbCircle
 10
-0.1875
 20
5.30490387650614
 30
0.0
 40
0.125
100
AcDbArc
 50
179.999999999993
 51
219.9999999999939
  0
ARC
  5
2A49
330
17
100
AcDbEntity
  8
0
100
AcDbCircle
 10
-0.3125
 20
5.304903876506083
 30
0.0
 40
0.125
100
AcDbArc
 50
180.0
 51
219.9999999999981
  0
ARC
  5
2A4A
330
17
100
AcDbEntity
  8
0
100
AcDbCircle
 10
-0.3124999999999858
 20
5.570096123493849
 30
0.0
 40
0.125
100
AcDbArc
 50
139.9999999999981
 51
179.9999999999984
  0
ARC
  5
2A4B
330
17
100
AcDbEntity
  8
0
100
AcDbCircle
 10
0.1874999999999289
 20
6.554903876505912
 30
0.0
 40
0.125
100
AcDbArc
 50
319.999999999999
 51
359.9999999999939
  0
ARC
  5
2A4C
330
17
100
AcDbEntity
  8
0
100
AcDbCircle
 10
0.3124999999999289
 20
6.554903876505997
 30
0.0
 40
0.125
100
AcDbArc
 50
319.9999999999993
 51
0.0
  0
ARC
  5
2A4D
330
17
100
AcDbEntity
  8
0
100
AcDbCircle
 10
0.3124999999999432
 20
6.820096123493962
 30
0.0
 40
0.125
100
AcDbArc
 50
359.9999999999984
 51
40.00000000000293
  0
ARC
  5
2A4E
330
17
100
AcDbEntity
  8
0
100
AcDbCircle
 10
0.1874999999999574
 20
6.820096123493906
 30
0.0
 40
0.125
100
AcDbArc
 50
359.9999999999947
 51
40.00000000000373
  0
LINE
  5
2A4F
330
17
100
AcDbEntity
  8
0
100
AcDbLine
 10
0.2832555553898146
 20
6.90044457470473
 30
0.0
 11
-0.4082555553898857
 21
7.724555425295116
 31
0.0
  0
LINE
  5
2A50
330
17
100
AcDbEntity
  8
0
100
AcDbLine
 10
0.4082555553898147
 20
6.900444574704787
 30
0.0
 11
-0.2832555553898857
 21
7.724555425295173
 31
0.0
  0
CIRCLE
  5
2A51
330
17
100
AcDbEntity
  8
0
100
AcDbCircle
 10
0.0625
 20
10.43749999999989
 30
0.0
 40
0.125
  0
LINE
  5
2A54
330
17
100
AcDbEntity
  8
0
100
AcDbLine
 10
-0.4375
 20
12.80490387650588
 30
0.0
 11
-0.4374999999999929
 21
12.93749999999984
 31
0.0
  0
LINE
  5
2A55
330
17
100
AcDbEntity
  8
0
100
AcDbLine
 10
-0.3125000000000142
 20
12.80490387650602
 30
0.0
 11
-0.3125
 21
12.93749999999983
 31
0.0
  0
CIRCLE
  5
2A56
330
17
100
AcDbEntity
  8
0
100
AcDbCircle
 10
0.5624999999999716
 20
12.31249999999984
 30
0.0
 40
0.125
  0
LINE
  5
2A57
330
17
100
AcDbEntity
  8
0
100
AcDbLine
 10
0.2832555553898288
 20
11.90044457470459
 30
0.0
 11
-0.4082555553898715
 21
12.72455542529506
 31
0.0
  0
LINE
  5
2A58
330
17
100
AcDbEntity
  8
0
100
AcDbLine
 10
0.4082555553898289
 20
11.90044457470467
 30
0.0
 11
-0.2832555553898857
 21
12.7245554252952
 31
0.0
  0
CIRCLE
  5
2A5A
330
17
100
AcDbEntity
  8
0
100
AcDbCircle
 10
-0.5625
 20
12.31249999999984
 30
0.0
 40
0.125
  0
ARC
  5
2A60
330
17
100
AcDbEntity
  8
0
100
AcDbCircle
 10
-0.3125
 20
12.80490387650588
 30
0.0
 40
0.125
100
AcDbArc
 50
180.0
 51
220.0000000000019
  0
ARC
  5
2A61
330
17
100
AcDbEntity
  8
0
100
AcDbCircle
 10
-0.1875000000000142
 20
12.80490387650602
 30
0.0
 40
0.125
100
AcDbArc
 50
179.9999999999939
 51
220.0000000000009
  0
LINE
  5
2A68
330
17
100
AcDbEntity
  8
0
100
AcDbLine
 10
0.2832555553898004
 20
11.47455542529509
 30
0.0
 11
-0.4082555553898857
 21
10.65044457470464
 31
0.0
  0
LINE
  5
2A69
330
17
100
AcDbEntity
  8
0
100
AcDbLine
 10
0.4082555553898004
 20
11.47455542529506
 30
0.0
 11
-0.2832555553898572
 21
10.65044457470467
 31
0.0
  0
LINE
  5
2A6A
330
17
100
AcDbEntity
  8
0
100
AcDbLine
 10
-0.4374999999999858
 20
10.30490387650602
 30
0.0
 11
-0.4375000000000142
 21
10.57009612349382
 31
0.0
  0
LINE
  5
2A6B
330
17
100
AcDbEntity
  8
0
100
AcDbLine
 10
-0.3125000000000142
 20
10.30490387650602
 30
0.0
 11
-0.3124999999999858
 21
10.57009612349385
 31
0.0
  0
CIRCLE
  5
2A6C
330
17
100
AcDbEntity
  8
0
100
AcDbCircle
 10
0.5624999999999716
 20
11.06249999999984
 30
0.0
 40
0.125
  0
CIRCLE
  5
2A6D
330
17
100
AcDbEntity
  8
0
100
AcDbCircle
 10
-0.5625
 20
11.06249999999984
 30
0.0
 40
0.125
  0
LINE
  5
2A6E
330
17
100
AcDbEntity
  8
0
100
AcDbLine
 10
0.437499999999929
 20
11.55490387650588
 30
0.0
 11
0.4374999999999574
 21
11.82009612349385
 31
0.0
  0
LINE
  5
2A6F
330
17
100
AcDbEntity
  8
0
100
AcDbLine
 10
0.3124999999999289
 20
11.55490387650591
 30
0.0
 11
0.3124999999999574
 21
11.82009612349376
 31
0.0
  0
CIRCLE
  5
2A70
330
17
100
AcDbEntity
  8
0
100
AcDbCircle
 10
-0.0625000000000711
 20
11.68749999999986
 30
0.0
 40
0.125
  0
ARC
  5
2A71
330
17
100
AcDbEntity
  8
0
100
AcDbCircle
 10
-0.3124999999999858
 20
10.30490387650602
 30
0.0
 40
0.125
100
AcDbArc
 50
180.0
 51
220.0000000000025
  0
ARC
  5
2A72
330
17
100
AcDbEntity
  8
0
100
AcDbCircle
 10
-0.1875000000000142
 20
10.30490387650602
 30
0.0
 40
0.125
100
AcDbArc
 50
179.9999999999939
 51
220.0000000000009
  0
ARC
  5
2A73
330
17
100
AcDbEntity
  8
0
100
AcDbCircle
 10
-0.1874999999999858
 20
10.57009612349385
 30
0.0
 40
0.125
100
AcDbArc
 50
139.9999999999988
 51
179.9999999999947
  0
ARC
  5
2A74
330
17
100
AcDbEntity
  8
0
100
AcDbCircle
 10
-0.3125000000000142
 20
10.57009612349382
 30
0.0
 40
0.125
100
AcDbArc
 50
139.9999999999975
 51
180.0000000000016
  0
ARC
  5
2A75
330
17
100
AcDbEntity
  8
0
100
AcDbCircle
 10
0.1874999999999289
 20
11.55490387650591
 30
0.0
 40
0.125
100
AcDbArc
 50
319.9999999999972
 51
359.9999999999959
  0
ARC
  5
2A76
330
17
100
AcDbEntity
  8
0
100
AcDbCircle
 10
0.3124999999999289
 20
11.55490387650588
 30
0.0
 40
0.125
100
AcDbArc
 50
319.999999999997
 51
359.9999999999964
  0
ARC
  5
2A77
330
17
100
AcDbEntity
  8
0
100
AcDbCircle
 10
0.1874999999999574
 20
11.82009612349376
 30
0.0
 40
0.125
100
AcDbArc
 50
359.9999999999964
 51
40.00000000000201
  0
ARC
  5
2A78
330
17
100
AcDbEntity
  8
0
100
AcDbCircle
 10
0.3124999999999574
 20
11.82009612349385
 30
0.0
 40
0.125
100
AcDbArc
 50
359.999999999998
 51
39.99999999999941
  0
LINE
  5
2A9C
330
17
100
AcDbEntity
  8
0
100
AcDbLine
 10
-0.46875
 20
0.9312499999999577
 30
0.0
 11
-0.46875
 21
1.166249999999971
 31
0.0
  0
LINE
  5
2A9D
330
17
100
AcDbEntity
  8
0
100
AcDbLine
 10
0.46875
 20
0.9312499999999577
 30
0.0
 11
0.46875
 21
1.166249999999971
 31
0.0
  0
LINE
  5
2A9E
330
17
100
AcDbEntity
  8
0
100
AcDbLine
 10
-1.166250000000005
 20
12.93749999999984
 30
0.0
 11
-0.4374999999999929
 21
12.93749999999984
 31
0.0
  0
LINE
  5
2A9F
330
17
100
AcDbEntity
  8
0
100
AcDbLine
 10
-0.3124999999999929
 20
12.93749999999983
 30
0.0
 11
1.166249999999916
 21
12.93749999999983
 31
0.0
  0
ARC
  5
2D2C
330
17
100
AcDbEntity
  8
0
100
AcDbCircle
 10
-0.0000000000000036
 20
1.166249999999999
 30
0.0
 40
0.781250000000001
100
AcDbArc
 50
313.0068992825747
 51
359.9999999999979
  0
ARC
  5
2D2D
330
17
100
AcDbEntity
  8
0
100
AcDbCircle
 10
0.0
 20
1.166249999999999
 30
0.0
 40
0.7812499999999988
100
AcDbArc
 50
180.000000000002
 51
226.9931007174221
  0
ARC
  5
2D2F
330
17
100
AcDbEntity
  8
0
100
AcDbCircle
 10
-1.233750000000043
 20
1.457496052584653
 30
0.0
 40
0.262
100
AcDbArc
 50
0.0
 51
39.38490570446349
  0
ARC
  5
2D30
330
17
100
AcDbEntity
  8
0
100
AcDbCircle
 10
-1.233750000000043
 20
1.332496052584653
 30
0.0
 40
0.262
100
AcDbArc
 50
320.6150942955365
 51
0.0
  0
ARC
  5
2D31
330
17
100
AcDbEntity
  8
0
100
AcDbCircle
 10
1.233750000000043
 20
1.332496052584653
 30
0.0
 40
0.262
100
AcDbArc
 50
180.0
 51
219.3849057044635
  0
ARC
  5
2D32
330
17
100
AcDbEntity
  8
0
100
AcDbCircle
 10
1.233750000000043
 20
1.457496052584653
 30
0.0
 40
0.262
100
AcDbArc
 50
140.6150942955374
 51
180.0
  0
ENDSEC
  0
SECTION
  2
OBJECTS
  0
DICTIONARY
  5
C
330
0
100
AcDbDictionary
281
     1
  3
ACAD_COLOR
350
28FA
  3
ACAD_GROUP
350
D
  3
ACAD_LAYOUT
350
47B
  3
ACAD_MATERIAL
350
28F9
  3
ACAD_MLINESTYLE
350
1A
  3
ACAD_PLOTSETTINGS
350
47C
  3
ACAD_PLOTSTYLENAME
350
479
  3
ACAD_TABLESTYLE
350
28FB
  3
ACDBHEADERROUNDTRIPXREC
350
3B34
  3
ACDBVARIABLEDICTIONARY
350
49
  0
DICTIONARY
  5
2ABF
330
2
100
AcDbDictionary
280
     1
281
     1
  3
ACAD_LAYERFILTERS
360
2F66
  3
ACAD_LAYERSTATES
360
2C63
  3
ACLYDICTIONARY
360
2F65
  0
DICTIONARY
  5
7D0
330
17
100
AcDbDictionary
280
     1
281
     1
  3
ACAD_LAYOUTSELFREF
360
1071
  3
ACAD_SORTENTS
360
2D11
  0
DICTIONARY
  5
7CE
330
14
100
AcDbDictionary
280
     1
281
     1
  3
ACAD_LAYOUTSELFREF
360
1070
  0
DICTIONARY
  5
28FA
102
{ACAD_REACTORS
330
C
102
}
330
C
100
AcDbDictionary
281
     1
  0
DICTIONARY
  5
D
102
{ACAD_REACTORS
330
C
102
}
330
C
100
AcDbDictionary
281
     1
  0
DICTIONARY
  5
47B
102
{ACAD_REACTORS
330
C
102
}
330
C
100
AcDbDictionary
281
     1
  3
Layout1
350
47E
  3
Model
350
47D
  0
DICTIONARY
  5
28F9
102
{ACAD_REACTORS
330
C
102
}
330
C
100
AcDbDictionary
281
     1
  0
DICTIONARY
  5
1A
102
{ACAD_REACTORS
330
C
102
}
330
C
100
AcDbDictionary
281
     1
  3
STANDARD
350
1B
  0
DICTIONARY
  5
47C
102
{ACAD_REACTORS
330
C
102
}
330
C
100
AcDbDictionary
281
     1
  0
ACDBDICTIONARYWDFLT
  5
479
102
{ACAD_REACTORS
330
C
102
}
330
C
100
AcDbDictionary
281
     1
  3
Normal
350
47A
100
AcDbDictionaryWithDefault
340
47A
  0
DICTIONARY
  5
28FB
102
{ACAD_REACTORS
330
C
102
}
330
C
100
AcDbDictionary
281
     1
  3
Standard
350
28FC
  0
DICTIONARY
  5
3B34
102
{ACAD_REACTORS
330
C
102
}
330
C
100
AcDbDictionary
281
     1
  0
DICTIONARY
  5
49
102
{ACAD_REACTORS
330
C
102
}
330
C
100
AcDbDictionary
281
     1
  3
CTABLESTYLE
350
2AA3
  3
DIMADEC
350
4A
  3
DIMASSOC
350
708
  3
PROJECTNAME
350
2F3C
  0
DICTIONARY
  5
2F66
102
{ACAD_REACTORS
330
2ABF
102
}
330
2ABF
100
AcDbDictionary
281
     1
  0
DICTIONARY
  5
2C63
102
{ACAD_REACTORS
330
2ABF
102
}
330
2ABF
100
AcDbDictionary
281
     1
  0
DICTIONARY
  5
2F65
102
{ACAD_REACTORS
330
2ABF
102
}
330
2ABF
100
AcDbDictionary
281
     1
1001
ACAD
1000
<All
  0
XRECORD
  5
1071
102
{ACAD_REACTORS
330
7D0
102
}
330
7D0
100
AcDbXrecord
280
     1
340
17
  0
SORTENTSTABLE
  5
2D11
102
{ACAD_REACTORS
330
7D0
102
}
330
7D0
100
AcDbSortentsTable
330
17
331
29E2
  5
29E2
331
2A29
  5
2A29
331
2A60
  5
2A60
331
29EA
  5
29EA
331
2A31
  5
2A31
331
2A68
  5
2A68
331
29F2
  5
29F2
331
2A39
  5
2A39
331
2A70
  5
2A70
331
29FA
  5
29FA
331
2A78
  5
2A78
331
2D2F
  5
2D2F
331
2A02
  5
2A02
331
2A41
  5
2A41
331
2A0A
  5
2A0A
331
2A49
  5
2A49
331
2A1A
  5
2A1A
331
2A51
  5
2A51
331
29DB
  5
29DB
331
29E3
  5
29E3
331
2A2A
  5
2A2A
331
2A61
  5
2A61
331
29EB
  5
29EB
331
2A32
  5
2A32
331
2A69
  5
2A69
331
29F3
  5
29F3
331
2A3A
  5
2A3A
331
2A71
  5
2A71
331
29FB
  5
29FB
331
2A03
  5
2A03
331
2A42
  5
2A42
331
2D30
  5
2D30
331
2A0B
  5
2A0B
331
2A4A
  5
2A4A
331
2A1B
  5
2A1B
331
2A5A
  5
2A5A
331
29E4
  5
29E4
331
2A2B
  5
2A2B
331
29EC
  5
29EC
331
2A33
  5
2A33
331
2A6A
  5
2A6A
331
29F4
  5
29F4
331
2A3B
  5
2A3B
331
2A72
  5
2A72
331
29FC
  5
29FC
331
2A04
  5
2A04
331
2A43
  5
2A43
331
2D31
  5
2D31
331
2A0C
  5
2A0C
331
2A4B
  5
2A4B
331
2A1C
  5
2A1C
331
29E5
  5
29E5
331
2A2C
  5
2A2C
331
29ED
  5
29ED
331
2A34
  5
2A34
331
2A6B
  5
2A6B
331
29F5
  5
29F5
331
2A3C
  5
2A3C
331
2A73
  5
2A73
331
29FD
  5
29FD
331
3A7
  5
3A7
331
2A05
  5
2A05
331
2A44
  5
2A44
331
2D32
  5
2D32
331
2A4C
  5
2A4C
331
2A0D
  5
2A0D
331
2A54
  5
2A54
331
2A1D
  5
2A1D
331
2A25
  5
2A25
331
2A2D
  5
2A2D
331
29E6
  5
29E6
331
2A35
  5
2A35
331
2A6C
  5
2A6C
331
29EE
  5
29EE
331
2A3D
  5
2A3D
331
2A74
  5
2A74
331
29F6
  5
29F6
331
29FE
  5
29FE
331
400
  5
400
331
2A9C
  5
2A9C
331
2A45
  5
2A45
331
2A06
  5
2A06
331
2A4D
  5
2A4D
331
2A55
  5
2A55
331
2A1E
  5
2A1E
331
2A26
  5
2A26
331
29DF
  5
29DF
331
2A2E
  5
2A2E
331
2A36
  5
2A36
331
2A6D
  5
2A6D
331
29EF
  5
29EF
331
2A3E
  5
2A3E
331
2A75
  5
2A75
331
2D2C
  5
2D2C
331
29F7
  5
29F7
331
29FF
  5
29FF
331
2A9D
  5
2A9D
331
2A46
  5
2A46
331
2A07
  5
2A07
331
2A4E
  5
2A4E
331
2A56
  5
2A56
331
2A1F
  5
2A1F
331
29D8
  5
29D8
331
2A27
  5
2A27
331
29E0
  5
29E0
331
29E8
  5
29E8
331
2A2F
  5
2A2F
331
29F0
  5
29F0
331
2A37
  5
2A37
331
2A6E
  5
2A6E
331
2D2D
  5
2D2D
331
29F8
  5
29F8
331
2A3F
  5
2A3F
331
2A76
  5
2A76
331
2A00
  5
2A00
331
2A9E
  5
2A9E
331
2A08
  5
2A08
331
2A47
  5
2A47
331
2A4F
  5
2A4F
331
29D9
  5
29D9
331
2A20
  5
2A20
331
2A57
  5
2A57
331
29E1
  5
29E1
331
2A28
  5
2A28
331
29E9
  5
29E9
331
2A30
  5
2A30
331
29F1
  5
29F1
331
2A38
  5
2A38
331
2A6F
  5
2A6F
331
29F9
  5
29F9
331
2A77
  5
2A77
331
2A01
  5
2A01
331
2A40
  5
2A40
331
2A9F
  5
2A9F
331
2A09
  5
2A09
331
2A48
  5
2A48
331
2A50
  5
2A50
331
29DA
  5
29DA
331
2A58
  5
2A58
  0
XRECORD
  5
1070
102
{ACAD_REACTORS
330
7CE
102
}
330
7CE
100
AcDbXrecord
280
     1
340
14
  0
LAYOUT
  5
47E
102
{ACAD_XDICTIONARY
360
3B37
102
}
102
{ACAD_REACTORS
330
47B
102
}
330
47B
100
AcDbPlotSettings
  1

  2
hp psc 2100 series
  4

  6

 40
0.0
 41
0.0
 42
0.0
 43
0.0
 44
0.0
 45
0.0
 46
0.0
 47
0.0
 48
0.0
 49
0.0
140
0.0
141
0.0
142
1.0
143
1.0
 70
   688
 72
     0
 73
     0
 74
     5
  7
monochrome.ctb
 75
    16
147
1.0
148
0.0
149
0.0
100
AcDbLayout
  1
Layout1
 70
     0
 71
     1
 10
0.0
 20
0.0
 11
12.0
 21
9.0
 12
0.0
 22
0.0
 32
0.0
 14
1.000000000000000E+20
 24
1.000000000000000E+20
 34
1.000000000000000E+20
 15
-1.000000000000000E+20
 25
-1.000000000000000E+20
 35
-1.000000000000000E+20
146
0.0
 13
0.0
 23
0.0
 33
0.0
 16
1.0
 26
0.0
 36
0.0
 17
0.0
 27
1.0
 37
0.0
 76
     0
330
14
  0
LAYOUT
  5
47D
102
{ACAD_XDICTIONARY
360
3B35
102
}
102
{ACAD_REACTORS
330
47B
102
}
330
47B
100
AcDbPlotSettings
  1

  2
HP LaserJet 2100 Series PS
  4
Letter
  6

 40
5.365749835968017
 41
5.408073902130126
 42
5.132904052734375
 43
5.090576171875
 44
215.8999938964844
 45
279.3999938964844
 46
0.0
 47
0.0
 48
0.0
 49
0.0
140
0.0
141
0.0
142
1.0
143
3.967254253308121
 70
 11952
 72
     0
 73
     0
 74
     2
  7
monochrome.ctb
 75
     0
147
0.2520635018958373
148
0.0
149
0.0
100
AcDbLayout
  1
Model
 70
     1
 71
     0
 10
0.0
 20
0.0
 11
12.0
 21
9.0
 12
0.0
 22
0.0
 32
0.0
 14
0.0
 24
0.0
 34
0.0
 15
0.0
 25
0.0
 35
0.0
146
0.0
 13
0.0
 23
0.0
 33
0.0
 16
1.0
 26
0.0
 36
0.0
 17
0.0
 27
1.0
 37
0.0
 76
     0
330
17
1001
ACAD_PSEXT
1000
HP LaserJet 2100 Series PS
1000
HP LaserJet 2100 Series PS
1000
LPT1:
1000

1070
     0
  0
MLINESTYLE
  5
1B
102
{ACAD_REACTORS
330
1A
102
}
330
1A
100
AcDbMlineStyle
  2
STANDARD
 70
     0
  3

 62
   256
 51
90.0
 52
90.0
 71
     2
 49
0.5
 62
   256
  6
BYLAYER
 49
-0.5
 62
   256
  6
BYLAYER
  0
ACDBPLACEHOLDER
  5
47A
102
{ACAD_REACTORS
330
479
102
}
330
479
  0
TABLESTYLE
  5
28FC
102
{ACAD_REACTORS
330
28FB
102
}
330
28FB
100
AcDbTableStyle
  3
Standard
 70
     0
 71
     0
 40
0.06
 41
0.06
280
     0
281
     0
  7
STANDARD
140
0.18
170
     2
 62
     0
 63
     7
283
     0
274
    -2
284
     1
 64
     0
275
    -2
285
     1
 65
     0
276
    -2
286
     1
 66
     0
277
    -2
287
     1
 67
     0
278
    -2
288
     1
 68
     0
279
    -2
289
     1
 69
     0
  7
STANDARD
140
0.25
170
     5
 62
     0
 63
     7
283
     0
274
    -2
284
     1
 64
     0
275
    -2
285
     1
 65
     0
276
    -2
286
     1
 66
     0
277
    -2
287
     1
 67
     0
278
    -2
288
     1
 68
     0
279
    -2
289
     1
 69
     0
  7
STANDARD
140
0.18
170
     5
 62
     0
 63
     7
283
     0
274
    -2
284
     1
 64
     0
275
    -2
285
     1
 65
     0
276
    -2
286
     1
 66
     0
277
    -2
287
     1
 67
     0
278
    -2
288
     1
 68
     0
279
    -2
289
     1
 69
     0
  0
DICTIONARYVAR
  5
2AA3
102
{ACAD_REACTORS
330
49
102
}
330
49
100
DictionaryVariables
280
     0
  1
STANDARD
  0
DICTIONARYVAR
  5
4A
102
{ACAD_REACTORS
330
49
102
}
330
49
100
DictionaryVariables
280
     0
  1
0
  0
DICTIONARYVAR
  5
708
102
{ACAD_REACTORS
330
49
102
}
330
49
100
DictionaryVariables
280
     0
  1
0
  0
DICTIONARYVAR
  5
2F3C
102
{ACAD_REACTORS
330
49
102
}
330
49
100
DictionaryVariables
280
     0
  1

  0
DICTIONARY
  5
3B37
330
47E
100
AcDbDictionary
280
     1
281
     1
  3
ACAD_XREC_ROUNDTRIP
360
3B38
  0
DICTIONARY
  5
3B35
330
47D
100
AcDbDictionary
280
     1
281
     1
  3
ACAD_XREC_ROUNDTRIP
360
3B36
  0
XRECORD
  5
3B38
102
{ACAD_REACTORS
330
3B37
102
}
330
3B37
100
AcDbXrecord
280
     1
102
SHADEPLOT
 70
     0
102
SHADEPLOTRESLEVEL
 70
     2
102
SHADEPLOTCUSTOMDPI
 70
   300
  0
XRECORD
  5
3B36
102
{ACAD_REACTORS
330
3B35
102
}
330
3B35
100
AcDbXrecord
280
     1
102
SHADEPLOT
 70
     0
102
SHADEPLOTRESLEVEL
 70
     2
102
SHADEPLOTCUSTOMDPI
 70
   300
  0
ENDSEC
  0
EOF
