  0
SECTION
  2
HEADER
  9
$ACADVER
  1
AC1015
  9
$ACADMAINTVER
 70
    20
  9
$DWGCODEPAGE
  3
ANSI_1252
  9
$INSBASE
 10
0.0
 20
0.0
 30
0.0
  9
$EXTMIN
 10
-1.597100355297282
 20
0.2421723395842059
 30
0.0
  9
$EXTMAX
 10
2.102061137709939
 20
13.24905311128157
 30
0.0
  9
$LIMMIN
 10
0.0
 20
0.0
  9
$LIMMAX
 10
32.0
 20
42.0
  9
$ORTHOMODE
 70
     1
  9
$REGENMODE
 70
     1
  9
$FILLMODE
 70
     1
  9
$QTEXTMODE
 70
     0
  9
$MIRRTEXT
 70
     0
  9
$LTSCALE
 40
0.5
  9
$ATTMODE
 70
     1
  9
$TEXTSIZE
 40
0.36
  9
$TRACEWID
 40
0.05
  9
$TEXTSTYLE
  7
STANDARD
  9
$CLAYER
  8
0
  9
$CELTYPE
  6
BYLAYER
  9
$CECOLOR
 62
   256
  9
$CELTSCALE
 40
1.0
  9
$DISPSILH
 70
     0
  9
$DIMSCALE
 40
4.0
  9
$DIMASZ
 40
0.1
  9
$DIMEXO
 40
0.062
  9
$DIMDLI
 40
0.375
  9
$DIMRND
 40
0.0
  9
$DIMDLE
 40
0.0
  9
$DIMEXE
 40
0.08
  9
$DIMTP
 40
0.0
  9
$DIMTM
 40
0.0
  9
$DIMTXT
 40
0.075
  9
$DIMCEN
 40
-0.0078125
  9
$DIMTSZ
 40
0.0
  9
$DIMTOL
 70
     0
  9
$DIMLIM
 70
     0
  9
$DIMTIH
 70
     1
  9
$DIMTOH
 70
     1
  9
$DIMSE1
 70
     0
  9
$DIMSE2
 70
     0
  9
$DIMTAD
 70
     0
  9
$DIMZIN
 70
     0
  9
$DIMBLK
  1

  9
$DIMASO
 70
     0
  9
$DIMSHO
 70
     0
  9
$DIMPOST
  1

  9
$DIMAPOST
  1

  9
$DIMALT
 70
     0
  9
$DIMALTD
 70
     2
  9
$DIMALTF
 40
25.4
  9
$DIMLFAC
 40
1.0
  9
$DIMTOFL
 70
     0
  9
$DIMTVP
 40
0.0
  9
$DIMTIX
 70
     0
  9
$DIMSOXD
 70
     0
  9
$DIMSAH
 70
     0
  9
$DIMBLK1
  1

  9
$DIMBLK2
  1

  9
$DIMSTYLE
  2
STANDARD
  9
$DIMCLRD
 70
     0
  9
$DIMCLRE
 70
     0
  9
$DIMCLRT
 70
     0
  9
$DIMTFAC
 40
1.0
  9
$DIMGAP
 40
0.09
  9
$DIMJUST
 70
     0
  9
$DIMSD1
 70
     0
  9
$DIMSD2
 70
     0
  9
$DIMTOLJ
 70
     1
  9
$DIMTZIN
 70
     0
  9
$DIMALTZ
 70
     0
  9
$DIMALTTZ
 70
     0
  9
$DIMUPT
 70
     0
  9
$DIMDEC
 70
     5
  9
$DIMTDEC
 70
     5
  9
$DIMALTU
 70
     2
  9
$DIMALTTD
 70
     2
  9
$DIMTXSTY
  7
STANDARD
  9
$DIMAUNIT
 70
     0
  9
$DIMADEC
 70
     0
  9
$DIMALTRND
 40
0.0
  9
$DIMAZIN
 70
     0
  9
$DIMDSEP
 70
    46
  9
$DIMATFIT
 70
     3
  9
$DIMFRAC
 70
     2
  9
$DIMLDRBLK
  1

  9
$DIMLUNIT
 70
     5
  9
$DIMLWD
 70
    -2
  9
$DIMLWE
 70
    -2
  9
$DIMTMOVE
 70
     2
  9
$LUNITS
 70
     2
  9
$LUPREC
 70
     4
  9
$SKETCHINC
 40
0.1
  9
$FILLETRAD
 40
0.0
  9
$AUNITS
 70
     0
  9
$AUPREC
 70
     0
  9
$MENU
  1
qa
  9
$ELEVATION
 40
0.0
  9
$PELEVATION
 40
0.0
  9
$THICKNESS
 40
0.0
  9
$LIMCHECK
 70
     0
  9
$CHAMFERA
 40
0.4375
  9
$CHAMFERB
 40
0.4375
  9
$CHAMFERC
 40
0.0
  9
$CHAMFERD
 40
0.0
  9
$SKPOLY
 70
     0
  9
$TDCREATE
 40
2452872.401862616
  9
$TDUCREATE
 40
2452872.693529283
  9
$TDUPDATE
 40
2454579.502993576
  9
$TDUUPDATE
 40
2454579.794660244
  9
$TDINDWG
 40
0.6527742130
  9
$TDUSRTIMER
 40
0.6527742130
  9
$USRTIMER
 70
     1
  9
$ANGBASE
 50
0.0
  9
$ANGDIR
 70
     0
  9
$PDMODE
 70
     0
  9
$PDSIZE
 40
0.0
  9
$PLINEWID
 40
0.0
  9
$SPLFRAME
 70
     0
  9
$SPLINETYPE
 70
     6
  9
$SPLINESEGS
 70
     8
  9
$HANDSEED
  5
3B34
  9
$SURFTAB1
 70
     6
  9
$SURFTAB2
 70
     6
  9
$SURFTYPE
 70
     6
  9
$SURFU
 70
     6
  9
$SURFV
 70
     6
  9
$UCSBASE
  2

  9
$UCSNAME
  2

  9
$UCSORG
 10
0.0
 20
0.0
 30
0.0
  9
$UCSXDIR
 10
1.0
 20
0.0
 30
0.0
  9
$UCSYDIR
 10
0.0
 20
1.0
 30
0.0
  9
$UCSORTHOREF
  2

  9
$UCSORTHOVIEW
 70
     0
  9
$UCSORGTOP
 10
0.0
 20
0.0
 30
0.0
  9
$UCSORGBOTTOM
 10
0.0
 20
0.0
 30
0.0
  9
$UCSORGLEFT
 10
0.0
 20
0.0
 30
0.0
  9
$UCSORGRIGHT
 10
0.0
 20
0.0
 30
0.0
  9
$UCSORGFRONT
 10
0.0
 20
0.0
 30
0.0
  9
$UCSORGBACK
 10
0.0
 20
0.0
 30
0.0
  9
$PUCSBASE
  2

  9
$PUCSNAME
  2

  9
$PUCSORG
 10
0.0
 20
0.0
 30
0.0
  9
$PUCSXDIR
 10
1.0
 20
0.0
 30
0.0
  9
$PUCSYDIR
 10
0.0
 20
1.0
 30
0.0
  9
$PUCSORTHOREF
  2

  9
$PUCSORTHOVIEW
 70
     0
  9
$PUCSORGTOP
 10
0.0
 20
0.0
 30
0.0
  9
$PUCSORGBOTTOM
 10
0.0
 20
0.0
 30
0.0
  9
$PUCSORGLEFT
 10
0.0
 20
0.0
 30
0.0
  9
$PUCSORGRIGHT
 10
0.0
 20
0.0
 30
0.0
  9
$PUCSORGFRONT
 10
0.0
 20
0.0
 30
0.0
  9
$PUCSORGBACK
 10
0.0
 20
0.0
 30
0.0
  9
$USERI1
 70
     0
  9
$USERI2
 70
     0
  9
$USERI3
 70
     0
  9
$USERI4
 70
     0
  9
$USERI5
 70
     0
  9
$USERR1
 40
0.0
  9
$USERR2
 40
0.0
  9
$USERR3
 40
0.0
  9
$USERR4
 40
0.0
  9
$USERR5
 40
0.0
  9
$WORLDVIEW
 70
     1
  9
$SHADEDGE
 70
     3
  9
$SHADEDIF
 70
    70
  9
$TILEMODE
 70
     1
  9
$MAXACTVP
 70
    16
  9
$PINSBASE
 10
0.0
 20
0.0
 30
0.0
  9
$PLIMCHECK
 70
     0
  9
$PEXTMIN
 10
1.000000000000000E+20
 20
1.000000000000000E+20
 30
1.000000000000000E+20
  9
$PEXTMAX
 10
-1.000000000000000E+20
 20
-1.000000000000000E+20
 30
-1.000000000000000E+20
  9
$PLIMMIN
 10
0.0
 20
0.0
  9
$PLIMMAX
 10
12.0
 20
9.0
  9
$UNITMODE
 70
     0
  9
$VISRETAIN
 70
     0
  9
$PLINEGEN
 70
     0
  9
$PSLTSCALE
 70
     0
  9
$TREEDEPTH
 70
  3020
  9
$CMLSTYLE
  2
STANDARD
  9
$CMLJUST
 70
     0
  9
$CMLSCALE
 40
1.0
  9
$PROXYGRAPHICS
 70
     1
  9
$MEASUREMENT
 70
     0
  9
$CELWEIGHT
370
    -1
  9
$ENDCAPS
280
     0
  9
$JOINSTYLE
280
     0
  9
$LWDISPLAY
290
     0
  9
$INSUNITS
 70
     0
  9
$HYPERLINKBASE
  1

  9
$STYLESHEET
  1
monochrome.ctb
  9
$XEDIT
290
     1
  9
$CEPSNTYPE
380
     0
  9
$PSTYLEMODE
290
     1
  9
$FINGERPRINTGUID
  2
{3F8EE252-4A01-453C-A5F5-5678F9528411}
  9
$VERSIONGUID
  2
{145E3E8B-75CC-4442-830F-CF97ADA63BBB}
  9
$EXTNAMES
290
     1
  9
$PSVPSCALE
 40
0.0
  9
$OLESTARTUP
290
     0
  0
ENDSEC
  0
SECTION
  2
CLASSES
  0
CLASS
  1
DICTIONARYVAR
  2
AcDbDictionaryVar
  3
ObjectDBX Classes
 90
        0
280
     0
281
     0
  0
CLASS
  1
ACDBDICTIONARYWDFLT
  2
AcDbDictionaryWithDefault
  3
ObjectDBX Classes
 90
        0
280
     0
281
     0
  0
CLASS
  1
ACDBPLACEHOLDER
  2
AcDbPlaceHolder
  3
ObjectDBX Classes
 90
        0
280
     0
281
     0
  0
CLASS
  1
LAYOUT
  2
AcDbLayout
  3
ObjectDBX Classes
 90
        0
280
     0
281
     0
  0
CLASS
  1
TABLESTYLE
  2
AcDbTableStyle
  3
ObjectDBX Classes
 90
     2047
280
     0
281
     0
  0
CLASS
  1
SORTENTSTABLE
  2
AcDbSortentsTable
  3
ObjectDBX Classes
 90
        0
280
     0
281
     0
  0
ENDSEC
  0
SECTION
  2
TABLES
  0
TABLE
  2
VPORT
  5
8
330
0
100
AcDbSymbolTable
 70
     2
  0
VPORT
  5
3B2E
330
8
100
AcDbSymbolTableRecord
100
AcDbViewportTableRecord
  2
*Active
 70
     0
 10
0.0
 20
0.0
 11
1.0
 21
1.0
 12
2.377747620576602
 22
10.56888226827743
 13
0.0
 23
0.0
 14
0.063
 24
0.063
 15
0.25
 25
0.25
 16
0.0
 26
0.0
 36
1.0
 17
0.0
 27
0.0
 37
0.0
 40
23.63019663246675
 41
1.760162601626016
 42
50.0
 43
0.0
 44
0.0
 50
0.0
 51
0.0
 71
     0
 72
   100
 73
     1
 74
     0
 75
     0
 76
     0
 77
     0
 78
     0
281
     0
 65
     1
110
0.0
120
0.0
130
0.0
111
1.0
121
0.0
131
0.0
112
0.0
122
1.0
132
0.0
 79
     0
146
0.0
  0
ENDTAB
  0
TABLE
  2
LTYPE
  5
5
330
0
100
AcDbSymbolTable
 70
     3
  0
LTYPE
  5
11
330
5
100
AcDbSymbolTableRecord
100
AcDbLinetypeTableRecord
  2
BYBLOCK
 70
     0
  3

 72
    65
 73
     0
 40
0.0
  0
LTYPE
  5
12
330
5
100
AcDbSymbolTableRecord
100
AcDbLinetypeTableRecord
  2
BYLAYER
 70
     0
  3

 72
    65
 73
     0
 40
0.0
  0
LTYPE
  5
13
330
5
100
AcDbSymbolTableRecord
100
AcDbLinetypeTableRecord
  2
CONTINUOUS
 70
     0
  3
Solid line
 72
    65
 73
     0
 40
0.0
  0
LTYPE
  5
2B
330
5
100
AcDbSymbolTableRecord
100
AcDbLinetypeTableRecord
  2
HIDDEN
 70
     0
  3
_ _ _ _ _ _ _ _ _ _ _ _ _ _ _ _ _ _ _ _ _ _ _
 72
    65
 73
     2
 40
0.375
 49
0.25
 74
     0
 49
-0.125
 74
     0
  0
LTYPE
  5
302A
330
5
100
AcDbSymbolTableRecord
100
AcDbLinetypeTableRecord
  2
THD
 70
     0
  3
_ _ _ _ _ _ _ _ _ _ _ _ _ _ _ _ _ _ _ _ _ _ _ _
 72
    65
 73
     2
 40
0.15
 49
0.11
 74
     0
 49
-0.04
 74
     0
  0
ENDTAB
  0
TABLE
  2
LAYER
  5
2
102
{ACAD_XDICTIONARY
360
2ABF
102
}
330
0
100
AcDbSymbolTable
 70
     3
  0
LAYER
  5
E
330
2
100
AcDbSymbolTableRecord
100
AcDbLayerTableRecord
  2
0
 70
     0
 62
     7
  6
CONTINUOUS
370
    -3
390
47A
  0
LAYER
  5
37
330
2
100
AcDbSymbolTableRecord
100
AcDbLayerTableRecord
  2
DIM
 70
     0
 62
     5
  6
CONTINUOUS
370
    -3
390
47A
  0
LAYER
  5
2DFD
330
2
100
AcDbSymbolTableRecord
100
AcDbLayerTableRecord
  2
Defpoints
 70
     0
 62
     7
  6
CONTINUOUS
290
     0
370
    -3
390
47A
  0
ENDTAB
  0
TABLE
  2
STYLE
  5
3
330
0
100
AcDbSymbolTable
 70
     1
  0
STYLE
  5
F
330
3
100
AcDbSymbolTableRecord
100
AcDbTextStyleTableRecord
  2
STANDARD
 70
     0
 40
0.0
 41
1.0
 50
0.0
 71
     0
 42
0.36
  3
TXT
  4

  0
ENDTAB
  0
TABLE
  2
VIEW
  5
6
330
0
100
AcDbSymbolTable
 70
     0
  0
ENDTAB
  0
TABLE
  2
UCS
  5
7
330
0
100
AcDbSymbolTable
 70
     0
  0
ENDTAB
  0
TABLE
  2
APPID
  5
9
330
0
100
AcDbSymbolTable
 70
     4
  0
APPID
  5
10
330
9
100
AcDbSymbolTableRecord
100
AcDbRegAppTableRecord
  2
ACAD
 70
     0
  0
APPID
  5
DA7
330
9
100
AcDbSymbolTableRecord
100
AcDbRegAppTableRecord
  2
RAK
 70
     0
  0
APPID
  5
2C62
330
9
100
AcDbSymbolTableRecord
100
AcDbRegAppTableRecord
  2
ACAD_PSEXT
 70
     0
  0
APPID
  5
2C6B
330
9
100
AcDbSymbolTableRecord
100
AcDbRegAppTableRecord
  2
ACAD_DSTYLE_DIMTEXT_FILL
 70
     0
  0
ENDTAB
  0
TABLE
  2
DIMSTYLE
  5
A
330
0
100
AcDbSymbolTable
 70
     1
100
AcDbDimStyleTable
 71
     1
340
465
  0
DIMSTYLE
105
465
330
A
100
AcDbSymbolTableRecord
100
AcDbDimStyleTableRecord
  2
STANDARD
 70
     0
340
F
  0
ENDTAB
  0
TABLE
  2
BLOCK_RECORD
  5
1
330
0
100
AcDbSymbolTable
 70
     0
  0
BLOCK_RECORD
  5
17
102
{ACAD_XDICTIONARY
360
7D0
102
}
330
1
100
AcDbSymbolTableRecord
100
AcDbBlockTableRecord
  2
*MODEL_SPACE
340
47D
  0
BLOCK_RECORD
  5
14
102
{ACAD_XDICTIONARY
360
7CE
102
}
330
1
100
AcDbSymbolTableRecord
100
AcDbBlockTableRecord
  2
*PAPER_SPACE
340
47E
  0
ENDTAB
  0
ENDSEC
  0
SECTION
  2
BLOCKS
  0
BLOCK
  5
47
330
17
100
AcDbEntity
  8
0
100
AcDbBlockBegin
  2
*MODEL_SPACE
 70
     0
 10
0.0
 20
0.0
 30
0.0
  3
*MODEL_SPACE
  1

  0
ENDBLK
  5
48
330
17
100
AcDbEntity
  8
0
100
AcDbBlockEnd
  0
BLOCK
  5
45
330
14
100
AcDbEntity
 67
     1
  8
0
100
AcDbBlockBegin
  2
*PAPER_SPACE
 70
     0
 10
0.0
 20
0.0
 30
0.0
  3
*PAPER_SPACE
  1

  0
ENDBLK
  5
46
330
14
100
AcDbEntity
 67
     1
  8
0
100
AcDbBlockEnd
  0
ENDSEC
  0
SECTION
  2
ENTITIES
  0
TEXT
  5
3A7
330
17
100
AcDbEntity
  8
DIM
100
AcDbText
 10
14.93846334400804
 20
21.0944638759405
 30
0.0
 40
0.36
  1
   
 50
359.9999999999988
 11
14.93846334400805
 21
21.2744638759405
 31
0.0
100
AcDbText
 73
     2
  0
TEXT
  5
400
330
17
100
AcDbEntity
  8
DIM
100
AcDbText
 10
13.55232669162668
 20
10.34149078419336
 30
0.0
 40
0.36
  1
   
 72
     1
 11
14.09232669162668
 21
10.52149078419336
 31
0.0
100
AcDbText
 73
     2
  0
LINE
  5
3A9A
330
17
100
AcDbEntity
  8
0
100
AcDbLine
 10
2.094580416400312
 20
0.3115531112817198
 30
0.0
 11
2.094580416400297
 21
1.480522027713755
 31
0.0
  0
LINE
  5
3A9B
330
17
100
AcDbEntity
  8
0
100
AcDbLine
 10
2.09458041640044
 20
0.3115531112817056
 30
0.0
 11
2.09458041640044
 21
1.811553111281705
 31
0.0
  0
LINE
  5
3A9C
330
17
100
AcDbEntity
  8
0
100
AcDbLine
 10
1.093530416400888
 20
0.4465531112816539
 30
0.0
 11
1.468530416400888
 21
0.4465531112816539
 31
0.0
  0
LINE
  5
3A9D
330
17
100
AcDbEntity
  8
0
  6
HIDDEN
100
AcDbLine
 10
-1.392719583599784
 20
13.24905311128157
 30
0.0
 11
-1.392719583599792
 21
0.6465531112816994
 31
0.0
  0
LINE
  5
3A9E
330
17
100
AcDbEntity
  8
0
100
AcDbLine
 10
-1.52771958359979
 20
13.24905311128157
 30
0.0
 11
-1.527719583599782
 21
0.6465531112816994
 31
0.0
  0
LINE
  5
3A9F
330
17
100
AcDbEntity
  8
0
100
AcDbLine
 10
0.8066019041718348
 20
5.525771378842316
 30
0.0
 11
0.2947804164002221
 21
13.24905311128157
 31
0.0
  0
LINE
  5
3AA0
330
17
100
AcDbEntity
  8
0
100
AcDbLine
 10
2.06442672679325
 20
2.026501337951041
 30
0.0
 11
0.8340165414630078
 21
5.407025538813352
 31
0.0
  0
LINE
  5
3AA1
330
17
100
AcDbEntity
  8
0
100
AcDbLine
 10
0.419780416400208
 20
0.31253859408171
 30
0.0
 11
0.419780416400208
 21
0.4465531112817108
 31
0.0
  0
LINE
  5
3AA2
330
17
100
AcDbEntity
  8
0
100
AcDbLine
 10
-0.7052195835997921
 20
0.3125394721817347
 30
0.0
 11
-0.7052195835997921
 21
0.4465531112817108
 31
0.0
  0
ARC
  5
3AA3
330
17
100
AcDbEntity
  8
0
100
AcDbCircle
 10
-1.192719583599789
 20
0.6465531112816994
 30
0.0
 40
0.2
100
AcDbArc
 50
180.0
 51
270.0000000000004
  0
ARC
  5
3AA4
330
17
100
AcDbEntity
  8
0
100
AcDbCircle
 10
-1.192719583599789
 20
0.6465531112816994
 30
0.0
 40
0.335
100
AcDbArc
 50
180.0
 51
270.0
  0
LINE
  5
3AA5
330
17
100
AcDbEntity
  8
0
100
AcDbLine
 10
2.094580416400312
 20
0.3115531112817198
 30
0.0
 11
2.094580416400312
 21
1.855491266288206
 31
0.0
  0
LINE
  5
3AA6
330
17
100
AcDbEntity
  8
0
100
AcDbLine
 10
-1.192719583599789
 20
0.3115531112817198
 30
0.0
 11
2.094580416400326
 21
0.3115531112817482
 31
0.0
  0
LINE
  5
3AA7
330
17
100
AcDbEntity
  8
0
100
AcDbLine
 10
-1.192719583599789
 20
0.4465531112817108
 30
0.0
 11
2.094580416400326
 21
0.4465531112817392
 31
0.0
  0
ARC
  5
3AA8
330
17
100
AcDbEntity
  8
0
100
AcDbCircle
 10
1.594580416400312
 20
1.855491266288149
 30
0.0
 40
0.5
100
AcDbArc
 50
0.0000000000065208
 51
20.00000000000698
  0
CIRCLE
  5
3AA9
330
17
100
AcDbEntity
  8
0
100
AcDbCircle
 10
-0.1427195835997921
 20
1.675299163866393
 30
0.0
 40
0.3225
  0
CIRCLE
  5
3AAA
330
17
100
AcDbEntity
  8
0
100
AcDbCircle
 10
-0.1427195835997921
 20
1.675299163866393
 30
0.0
 40
0.1875
  0
LINE
  5
3AAB
330
17
100
AcDbEntity
  8
0
100
AcDbLine
 10
-1.392719583599792
 20
0.6965531112817108
 30
0.0
 11
-1.527719583599782
 21
0.6965531112817108
 31
0.0
  0
ARC
  5
3AAC
330
17
100
AcDbEntity
  8
0
100
AcDbCircle
 10
1.303862851855889
 20
5.578035610476158
 30
0.0
 40
0.4999999999999222
100
AcDbArc
 50
186.0000000000026
 51
200.0
  0
LINE
  5
3AAD
330
17
100
AcDbEntity
  8
0
100
AcDbLine
 10
0.419780416400208
 20
1.47780311128171
 30
0.0
 11
-0.7052195835997921
 21
1.47780311128171
 31
0.0
  0
LINE
  5
3AAE
330
17
100
AcDbEntity
  8
0
100
AcDbLine
 10
0.419780416400208
 20
1.242803111281697
 30
0.0
 11
-0.7052195835997921
 21
1.242803111281697
 31
0.0
  0
LINE
  5
3AAF
330
17
100
AcDbEntity
  8
0
100
AcDbLine
 10
0.3260304164002079
 20
1.242803111281697
 30
0.0
 11
0.3260304164002079
 21
1.47780311128171
 31
0.0
  0
LINE
  5
3AB0
330
17
100
AcDbEntity
  8
0
100
AcDbLine
 10
0.669780416400208
 20
0.992803111281697
 30
0.0
 11
0.669780416400208
 21
0.4465531112817108
 31
0.0
  0
LINE
  5
3AB1
330
17
100
AcDbEntity
  8
0
100
AcDbLine
 10
0.9047804164002215
 20
0.992803111281697
 30
0.0
 11
0.9047804164002215
 21
0.4465531112817108
 31
0.0
  0
ARC
  5
3AB2
330
17
100
AcDbEntity
  8
0
100
AcDbCircle
 10
0.419780416400208
 20
0.992803111281697
 30
0.0
 40
0.25
100
AcDbArc
 50
0.000000000000007
 51
90.0
  0
ARC
  5
3AB3
330
17
100
AcDbEntity
  8
0
100
AcDbCircle
 10
0.419780416400208
 20
0.992803111281697
 30
0.0
 40
0.485
100
AcDbArc
 50
0.000000000000007
 51
89.88782289409959
  0
LINE
  5
3AB4
330
17
100
AcDbEntity
  8
0
100
AcDbLine
 10
-1.190219583599805
 20
0.992803111281697
 30
0.0
 11
-1.190219583599748
 21
0.4465531112817108
 31
0.0
  0
LINE
  5
3AB5
330
17
100
AcDbEntity
  8
0
100
AcDbLine
 10
-0.955219583599792
 20
0.992803111281697
 30
0.0
 11
-0.9552195835997352
 21
0.4465531112817108
 31
0.0
  0
LINE
  5
3AB6
330
17
100
AcDbEntity
  8
0
100
AcDbLine
 10
-0.6114695835997921
 20
1.242803111281697
 30
0.0
 11
-0.6114695835997921
 21
1.47780311128171
 31
0.0
  0
ARC
  5
3AB7
330
17
100
AcDbEntity
  8
0
100
AcDbCircle
 10
-0.7052195835997921
 20
0.992803111281697
 30
0.0
 40
0.25
100
AcDbArc
 50
90.0
 51
180.0
  0
ARC
  5
3AB8
330
17
100
AcDbEntity
  8
0
100
AcDbCircle
 10
-0.7052195835997921
 20
0.992803111281697
 30
0.0
 40
0.485
100
AcDbArc
 50
90.11218579649931
 51
180.0
  0
LINE
  5
3AB9
330
17
100
AcDbEntity
  8
0
100
AcDbLine
 10
0.2947804164002221
 20
13.24905311128157
 30
0.0
 11
-1.527719583599782
 21
13.24905311128157
 31
0.0
  0
CIRCLE
  5
3ABB
330
17
100
AcDbEntity
  8
0
100
AcDbCircle
 10
-0.3667148750696256
 20
12.0005531112813
 30
0.0
 40
0.3435
  0
LINE
  5
3ABC
330
17
100
AcDbEntity
  8
0
100
AcDbLine
 10
1.093530416400888
 20
0.4465531112816823
 30
0.0
 11
1.468530416400888
 21
0.4465531112816823
 31
0.0
  0
LINE
  5
3ABD
330
17
100
AcDbEntity
  8
0
100
AcDbLine
 10
1.485236558000444
 20
0.6393530633276488
 30
0.0
 11
1.494580416400431
 21
0.6153507807276402
 31
0.0
  0
POLYLINE
  5
3ABE
330
17
100
AcDbEntity
  8
0
100
AcDb2dPolyline
 66
     1
 10
0.0
 20
0.0
 30
0.0
  0
VERTEX
  5
3ABF
330
3ABE
100
AcDbEntity
  8
0
100
AcDbVertex
100
AcDb2dVertex
 10
1.194580416400434
 20
0.6153507807276402
 30
0.0
  0
VERTEX
  5
3AC0
330
3ABE
100
AcDbEntity
  8
0
100
AcDbVertex
100
AcDb2dVertex
 10
1.205956399200438
 20
0.5880659771276431
 30
0.0
  0
VERTEX
  5
3AC1
330
3ABE
100
AcDbEntity
  8
0
100
AcDbVertex
100
AcDb2dVertex
 10
1.238063961800428
 20
0.5662208930276496
 30
0.0
  0
VERTEX
  5
3AC2
330
3ABE
100
AcDbEntity
  8
0
100
AcDbVertex
100
AcDb2dVertex
 10
1.286805782100437
 20
0.5524321912276538
 30
0.0
  0
VERTEX
  5
3AC3
330
3ABE
100
AcDbEntity
  8
0
100
AcDbVertex
100
AcDb2dVertex
 10
1.34458041640044
 20
0.547636372227645
 30
0.0
  0
SEQEND
  5
3AC4
330
3ABE
100
AcDbEntity
  8
0
  0
LINE
  5
3AC5
330
17
100
AcDbEntity
  8
0
100
AcDbLine
 10
1.203931171100443
 20
0.639370778427649
 30
0.0
 11
1.194580416400434
 21
0.6153507807276402
 31
0.0
  0
POLYLINE
  5
3AC6
330
17
100
AcDbEntity
  8
0
100
AcDb2dPolyline
 66
     1
 10
0.0
 20
0.0
 30
0.0
  0
VERTEX
  5
3AC7
330
3AC6
100
AcDbEntity
  8
0
100
AcDbVertex
100
AcDb2dVertex
 10
1.174541186600428
 20
0.6136711354276532
 30
0.0
  0
VERTEX
  5
3AC8
330
3AC6
100
AcDbEntity
  8
0
100
AcDbVertex
100
AcDb2dVertex
 10
1.16008041640044
 20
0.5756366675276344
 30
0.0
  0
VERTEX
  5
3AC9
330
3AC6
100
AcDbEntity
  8
0
100
AcDbVertex
100
AcDb2dVertex
 10
1.174541186600428
 20
0.5407285774276307
 30
0.0
  0
VERTEX
  5
3ACA
330
3AC6
100
AcDbEntity
  8
0
100
AcDbVertex
100
AcDb2dVertex
 10
1.214753182200432
 20
0.5137138467276419
 30
0.0
  0
VERTEX
  5
3ACB
330
3AC6
100
AcDbEntity
  8
0
100
AcDbVertex
100
AcDb2dVertex
 10
1.274678197900435
 20
0.4972469423276369
 30
0.0
  0
VERTEX
  5
3ACC
330
3AC6
100
AcDbEntity
  8
0
100
AcDbVertex
100
AcDb2dVertex
 10
1.34458041640044
 20
0.4916627431276357
 30
0.0
  0
SEQEND
  5
3ACD
330
3AC6
100
AcDbEntity
  8
0
  0
POLYLINE
  5
3ACE
330
17
100
AcDbEntity
  8
0
100
AcDb2dPolyline
 66
     1
 10
0.0
 20
0.0
 30
0.0
  0
VERTEX
  5
3ACF
330
3ACE
100
AcDbEntity
  8
0
100
AcDbVertex
100
AcDb2dVertex
 10
1.494580416400431
 20
0.6153507807276402
 30
0.0
  0
VERTEX
  5
3AD0
330
3ACE
100
AcDbEntity
  8
0
100
AcDbVertex
100
AcDb2dVertex
 10
1.483204433700443
 20
0.5880659771276431
 30
0.0
  0
VERTEX
  5
3AD1
330
3ACE
100
AcDbEntity
  8
0
100
AcDbVertex
100
AcDb2dVertex
 10
1.451096871000437
 20
0.5662208930276496
 30
0.0
  0
VERTEX
  5
3AD2
330
3ACE
100
AcDbEntity
  8
0
100
AcDbVertex
100
AcDb2dVertex
 10
1.402355050700442
 20
0.5524321912276538
 30
0.0
  0
VERTEX
  5
3AD3
330
3ACE
100
AcDbEntity
  8
0
100
AcDbVertex
100
AcDb2dVertex
 10
1.34458041640044
 20
0.547636372227645
 30
0.0
  0
SEQEND
  5
3AD4
330
3ACE
100
AcDbEntity
  8
0
  0
POLYLINE
  5
3AD5
330
17
100
AcDbEntity
  8
0
100
AcDb2dPolyline
 66
     1
 10
0.0
 20
0.0
 30
0.0
  0
VERTEX
  5
3AD6
330
3AD5
100
AcDbEntity
  8
0
100
AcDbVertex
100
AcDb2dVertex
 10
1.501846631400432
 20
0.627865199627637
 30
0.0
  0
VERTEX
  5
3AD7
330
3AD5
100
AcDbEntity
  8
0
100
AcDbVertex
100
AcDb2dVertex
 10
1.514619646300438
 20
0.6136711354276532
 30
0.0
  0
VERTEX
  5
3AD8
330
3AD5
100
AcDbEntity
  8
0
100
AcDbVertex
100
AcDb2dVertex
 10
1.529080416400439
 20
0.5756366675276344
 30
0.0
  0
VERTEX
  5
3AD9
330
3AD5
100
AcDbEntity
  8
0
100
AcDbVertex
100
AcDb2dVertex
 10
1.514619646300438
 20
0.5407285774276307
 30
0.0
  0
VERTEX
  5
3ADA
330
3AD5
100
AcDbEntity
  8
0
100
AcDbVertex
100
AcDb2dVertex
 10
1.474407650700435
 20
0.5137138467276419
 30
0.0
  0
VERTEX
  5
3ADB
330
3AD5
100
AcDbEntity
  8
0
100
AcDbVertex
100
AcDb2dVertex
 10
1.41448263490043
 20
0.4972469423276369
 30
0.0
  0
VERTEX
  5
3ADC
330
3AD5
100
AcDbEntity
  8
0
100
AcDbVertex
100
AcDb2dVertex
 10
1.34458041640044
 20
0.4916627431276357
 30
0.0
  0
SEQEND
  5
3ADD
330
3AD5
100
AcDbEntity
  8
0
  0
POLYLINE
  5
3ADE
330
17
100
AcDbEntity
  8
0
100
AcDb2dPolyline
 66
     1
 10
0.0
 20
0.0
 30
0.0
  0
VERTEX
  5
3ADF
330
3ADE
100
AcDbEntity
  8
0
100
AcDbVertex
100
AcDb2dVertex
 10
1.501769081800439
 20
0.6279383497276445
 30
0.0
  0
VERTEX
  5
3AE0
330
3ADE
100
AcDbEntity
  8
0
100
AcDbVertex
100
AcDb2dVertex
 10
1.494767951900435
 20
0.633808889727634
 30
0.0
  0
VERTEX
  5
3AE1
330
3ADE
100
AcDbEntity
  8
0
100
AcDbVertex
100
AcDb2dVertex
 10
1.465204963200442
 20
0.6510049415276331
 30
0.0
  0
SEQEND
  5
3AE2
330
3ADE
100
AcDbEntity
  8
0
  0
LINE
  5
3AE3
330
17
100
AcDbEntity
  8
0
100
AcDbLine
 10
1.187314201400432
 20
0.627865199627637
 30
0.0
 11
1.174541186600428
 21
0.6136711354276532
 31
0.0
  0
POLYLINE
  5
3AE4
330
17
100
AcDbEntity
  8
0
100
AcDb2dPolyline
 66
     1
 10
0.0
 20
0.0
 30
0.0
  0
VERTEX
  5
3AE5
330
3AE4
100
AcDbEntity
  8
0
100
AcDbVertex
100
AcDb2dVertex
 10
1.544394729500432
 20
0.6697748315276489
 30
0.0
  0
VERTEX
  5
3AE6
330
3AE4
100
AcDbEntity
  8
0
100
AcDbVertex
100
AcDb2dVertex
 10
1.448375644300433
 20
0.7070963556276287
 30
0.0
  0
VERTEX
  5
3AE7
330
3AE4
100
AcDbEntity
  8
0
100
AcDbVertex
100
AcDb2dVertex
 10
1.34458041640044
 20
0.7199559003276353
 30
0.0
  0
SEQEND
  5
3AE8
330
3AE4
100
AcDbEntity
  8
0
  0
LINE
  5
3AE9
330
17
100
AcDbEntity
  8
0
100
AcDbLine
 10
1.465204963200442
 20
0.6510049415276331
 30
0.0
 11
1.418907122300431
 21
0.6668727603276512
 31
0.0
  0
LINE
  5
3AEA
330
17
100
AcDbEntity
  8
0
100
AcDbLine
 10
1.362844639200439
 20
0.6752923672276428
 30
0.0
 11
1.34458041640044
 21
0.675830563927649
 31
0.0
  0
LINE
  5
3AEB
330
17
100
AcDbEntity
  8
0
100
AcDbLine
 10
1.34458041640044
 20
0.6758305642276401
 30
0.0
 11
1.323243125600434
 21
0.6750966663276348
 31
0.0
  0
POLYLINE
  5
3AEC
330
17
100
AcDbEntity
  8
0
100
AcDb2dPolyline
 66
     1
 10
0.0
 20
0.0
 30
0.0
  0
VERTEX
  5
3AED
330
3AEC
100
AcDbEntity
  8
0
100
AcDbVertex
100
AcDb2dVertex
 10
1.34458041640044
 20
0.3815798549276383
 30
0.0
  0
VERTEX
  5
3AEE
330
3AEC
100
AcDbEntity
  8
0
100
AcDbVertex
100
AcDb2dVertex
 10
1.448375644300433
 20
0.387379441927651
 30
0.0
  0
VERTEX
  5
3AEF
330
3AEC
100
AcDbEntity
  8
0
100
AcDbVertex
100
AcDb2dVertex
 10
1.544394729500432
 20
0.4060217238276369
 30
0.0
  0
VERTEX
  5
3AF0
330
3AEC
100
AcDbEntity
  8
0
100
AcDbVertex
100
AcDb2dVertex
 10
1.61687864300044
 20
0.4395527465276406
 30
0.0
  0
VERTEX
  5
3AF1
330
3AEC
100
AcDbEntity
  8
0
100
AcDbVertex
100
AcDb2dVertex
 10
1.656774915200436
 20
0.4887710363276359
 30
0.0
  0
VERTEX
  5
3AF2
330
3AEC
100
AcDbEntity
  8
0
100
AcDbVertex
100
AcDb2dVertex
 10
1.656774915200436
 20
0.5497660528276516
 30
0.0
  0
VERTEX
  5
3AF3
330
3AEC
100
AcDbEntity
  8
0
100
AcDbVertex
100
AcDb2dVertex
 10
1.61687864300044
 20
0.6140433086276449
 30
0.0
  0
VERTEX
  5
3AF4
330
3AEC
100
AcDbEntity
  8
0
100
AcDbVertex
100
AcDb2dVertex
 10
1.544394729500432
 20
0.6697748315276489
 30
0.0
  0
SEQEND
  5
3AF5
330
3AEC
100
AcDbEntity
  8
0
  0
LINE
  5
3AF6
330
17
100
AcDbEntity
  8
0
100
AcDbLine
 10
1.34458041640044
 20
0.7199559003276353
 30
0.0
 11
1.240785188500431
 21
0.7070963556276571
 31
0.0
  0
LINE
  5
3AF7
330
17
100
AcDbEntity
  8
0
100
AcDbLine
 10
1.323243125600434
 20
0.6750966663276348
 30
0.0
 11
1.268062541000439
 21
0.6663252302276579
 31
0.0
  0
LINE
  5
3AF8
330
17
100
AcDbEntity
  8
0
100
AcDbLine
 10
1.268062541000439
 20
0.6663252302276579
 30
0.0
 11
1.222862973600435
 21
0.6505006137276315
 31
0.0
  0
POLYLINE
  5
3AF9
330
17
100
AcDbEntity
  8
0
100
AcDb2dPolyline
 66
     1
 10
0.0
 20
0.0
 30
0.0
  0
VERTEX
  5
3AFA
330
3AF9
100
AcDbEntity
  8
0
100
AcDbVertex
100
AcDb2dVertex
 10
1.240785188500431
 20
0.7070963556276287
 30
0.0
  0
VERTEX
  5
3AFB
330
3AF9
100
AcDbEntity
  8
0
100
AcDbVertex
100
AcDb2dVertex
 10
1.144766103400435
 20
0.6697748315276489
 30
0.0
  0
VERTEX
  5
3AFC
330
3AF9
100
AcDbEntity
  8
0
100
AcDbVertex
100
AcDb2dVertex
 10
1.072282189900441
 20
0.6140433086276449
 30
0.0
  0
VERTEX
  5
3AFD
330
3AF9
100
AcDbEntity
  8
0
100
AcDbVertex
100
AcDb2dVertex
 10
1.032385917700445
 20
0.5497660528276516
 30
0.0
  0
VERTEX
  5
3AFE
330
3AF9
100
AcDbEntity
  8
0
100
AcDbVertex
100
AcDb2dVertex
 10
1.032385917700445
 20
0.4887710363276359
 30
0.0
  0
VERTEX
  5
3AFF
330
3AF9
100
AcDbEntity
  8
0
100
AcDbVertex
100
AcDb2dVertex
 10
1.072282189900441
 20
0.4395527465276406
 30
0.0
  0
VERTEX
  5
3B00
330
3AF9
100
AcDbEntity
  8
0
100
AcDbVertex
100
AcDb2dVertex
 10
1.144766103400435
 20
0.4060217238276369
 30
0.0
  0
VERTEX
  5
3B01
330
3AF9
100
AcDbEntity
  8
0
100
AcDbVertex
100
AcDb2dVertex
 10
1.240785188500431
 20
0.387379441927651
 30
0.0
  0
VERTEX
  5
3B02
330
3AF9
100
AcDbEntity
  8
0
100
AcDbVertex
100
AcDb2dVertex
 10
1.34458041640044
 20
0.3815798549276383
 30
0.0
  0
SEQEND
  5
3B03
330
3AF9
100
AcDbEntity
  8
0
  0
LINE
  5
3B04
330
17
100
AcDbEntity
  8
0
100
AcDbLine
 10
1.222862973600435
 20
0.6505006137276315
 30
0.0
 11
1.194130022100431
 21
0.6336087716276371
 31
0.0
  0
LINE
  5
3B05
330
17
100
AcDbEntity
  8
0
100
AcDbLine
 10
1.418907122300431
 20
0.6668727603276512
 30
0.0
 11
1.362844639200439
 21
0.6752923672276428
 31
0.0
  0
ENDSEC
  0
SECTION
  2
OBJECTS
  0
DICTIONARY
  5
C
330
0
100
AcDbDictionary
281
     1
  3
ACAD_COLOR
350
28FA
  3
ACAD_GROUP
350
D
  3
ACAD_LAYOUT
350
47B
  3
ACAD_MATERIAL
350
28F9
  3
ACAD_MLINESTYLE
350
1A
  3
ACAD_PLOTSETTINGS
350
47C
  3
ACAD_PLOTSTYLENAME
350
479
  3
ACAD_TABLESTYLE
350
28FB
  3
ACDBHEADERROUNDTRIPXREC
350
3B2F
  3
ACDBVARIABLEDICTIONARY
350
49
  0
DICTIONARY
  5
2ABF
330
2
100
AcDbDictionary
280
     1
281
     1
  3
ACAD_LAYERFILTERS
360
2F66
  3
ACAD_LAYERSTATES
360
2C63
  3
ACLYDICTIONARY
360
2F65
  0
DICTIONARY
  5
7D0
330
17
100
AcDbDictionary
280
     1
281
     1
  3
ACAD_LAYOUTSELFREF
360
1071
  3
ACAD_SORTENTS
360
2D11
  0
DICTIONARY
  5
7CE
330
14
100
AcDbDictionary
280
     1
281
     1
  3
ACAD_LAYOUTSELFREF
360
1070
  0
DICTIONARY
  5
28FA
102
{ACAD_REACTORS
330
C
102
}
330
C
100
AcDbDictionary
281
     1
  0
DICTIONARY
  5
D
102
{ACAD_REACTORS
330
C
102
}
330
C
100
AcDbDictionary
281
     1
  0
DICTIONARY
  5
47B
102
{ACAD_REACTORS
330
C
102
}
330
C
100
AcDbDictionary
281
     1
  3
Layout1
350
47E
  3
Model
350
47D
  0
DICTIONARY
  5
28F9
102
{ACAD_REACTORS
330
C
102
}
330
C
100
AcDbDictionary
281
     1
  0
DICTIONARY
  5
1A
102
{ACAD_REACTORS
330
C
102
}
330
C
100
AcDbDictionary
281
     1
  3
STANDARD
350
1B
  0
DICTIONARY
  5
47C
102
{ACAD_REACTORS
330
C
102
}
330
C
100
AcDbDictionary
281
     1
  0
ACDBDICTIONARYWDFLT
  5
479
102
{ACAD_REACTORS
330
C
102
}
330
C
100
AcDbDictionary
281
     1
  3
Normal
350
47A
100
AcDbDictionaryWithDefault
340
47A
  0
DICTIONARY
  5
28FB
102
{ACAD_REACTORS
330
C
102
}
330
C
100
AcDbDictionary
281
     1
  3
Standard
350
28FC
  0
DICTIONARY
  5
3B2F
102
{ACAD_REACTORS
330
C
102
}
330
C
100
AcDbDictionary
281
     1
  0
DICTIONARY
  5
49
102
{ACAD_REACTORS
330
C
102
}
330
C
100
AcDbDictionary
281
     1
  3
CTABLESTYLE
350
2AA3
  3
DIMADEC
350
4A
  3
DIMASSOC
350
708
  3
PROJECTNAME
350
2F3C
  0
DICTIONARY
  5
2F66
102
{ACAD_REACTORS
330
2ABF
102
}
330
2ABF
100
AcDbDictionary
281
     1
  0
DICTIONARY
  5
2C63
102
{ACAD_REACTORS
330
2ABF
102
}
330
2ABF
100
AcDbDictionary
281
     1
  0
DICTIONARY
  5
2F65
102
{ACAD_REACTORS
330
2ABF
102
}
330
2ABF
100
AcDbDictionary
281
     1
1001
ACAD
1000
<All
  0
XRECORD
  5
1071
102
{ACAD_REACTORS
330
7D0
102
}
330
7D0
100
AcDbXrecord
280
     1
340
17
  0
SORTENTSTABLE
  5
2D11
102
{ACAD_REACTORS
330
7D0
102
}
330
7D0
100
AcDbSortentsTable
330
17
331
3A7
  5
3A7
331
400
  5
400
  0
XRECORD
  5
1070
102
{ACAD_REACTORS
330
7CE
102
}
330
7CE
100
AcDbXrecord
280
     1
340
14
  0
LAYOUT
  5
47E
102
{ACAD_XDICTIONARY
360
3B32
102
}
102
{ACAD_REACTORS
330
47B
102
}
330
47B
100
AcDbPlotSettings
  1

  2
hp psc 2100 series
  4

  6

 40
0.0
 41
0.0
 42
0.0
 43
0.0
 44
0.0
 45
0.0
 46
0.0
 47
0.0
 48
0.0
 49
0.0
140
0.0
141
0.0
142
1.0
143
1.0
 70
   688
 72
     0
 73
     0
 74
     5
  7
monochrome.ctb
 75
    16
147
1.0
148
0.0
149
0.0
100
AcDbLayout
  1
Layout1
 70
     0
 71
     1
 10
0.0
 20
0.0
 11
12.0
 21
9.0
 12
0.0
 22
0.0
 32
0.0
 14
1.000000000000000E+20
 24
1.000000000000000E+20
 34
1.000000000000000E+20
 15
-1.000000000000000E+20
 25
-1.000000000000000E+20
 35
-1.000000000000000E+20
146
0.0
 13
0.0
 23
0.0
 33
0.0
 16
1.0
 26
0.0
 36
0.0
 17
0.0
 27
1.0
 37
0.0
 76
     0
330
14
  0
LAYOUT
  5
47D
102
{ACAD_XDICTIONARY
360
3B30
102
}
102
{ACAD_REACTORS
330
47B
102
}
330
47B
100
AcDbPlotSettings
  1

  2
HP LaserJet 2100 Series PS
  4
Letter
  6

 40
5.365749835968017
 41
5.408073902130126
 42
5.132904052734375
 43
5.090576171875
 44
215.8999938964844
 45
279.3999938964844
 46
0.0
 47
0.0
 48
0.0
 49
0.0
140
0.0
141
0.0
142
1.0
143
3.967254253308121
 70
 11952
 72
     0
 73
     0
 74
     2
  7
monochrome.ctb
 75
     0
147
0.2520635018958373
148
0.0
149
0.0
100
AcDbLayout
  1
Model
 70
     1
 71
     0
 10
0.0
 20
0.0
 11
12.0
 21
9.0
 12
0.0
 22
0.0
 32
0.0
 14
0.0
 24
0.0
 34
0.0
 15
0.0
 25
0.0
 35
0.0
146
0.0
 13
0.0
 23
0.0
 33
0.0
 16
1.0
 26
0.0
 36
0.0
 17
0.0
 27
1.0
 37
0.0
 76
     0
330
17
1001
ACAD_PSEXT
1000
HP LaserJet 2100 Series PS
1000
HP LaserJet 2100 Series PS
1000
LPT1:
1000

1070
     0
  0
MLINESTYLE
  5
1B
102
{ACAD_REACTORS
330
1A
102
}
330
1A
100
AcDbMlineStyle
  2
STANDARD
 70
     0
  3

 62
   256
 51
90.0
 52
90.0
 71
     2
 49
0.5
 62
   256
  6
BYLAYER
 49
-0.5
 62
   256
  6
BYLAYER
  0
ACDBPLACEHOLDER
  5
47A
102
{ACAD_REACTORS
330
479
102
}
330
479
  0
TABLESTYLE
  5
28FC
102
{ACAD_REACTORS
330
28FB
102
}
330
28FB
100
AcDbTableStyle
  3
Standard
 70
     0
 71
     0
 40
0.06
 41
0.06
280
     0
281
     0
  7
STANDARD
140
0.18
170
     2
 62
     0
 63
     7
283
     0
274
    -2
284
     1
 64
     0
275
    -2
285
     1
 65
     0
276
    -2
286
     1
 66
     0
277
    -2
287
     1
 67
     0
278
    -2
288
     1
 68
     0
279
    -2
289
     1
 69
     0
  7
STANDARD
140
0.25
170
     5
 62
     0
 63
     7
283
     0
274
    -2
284
     1
 64
     0
275
    -2
285
     1
 65
     0
276
    -2
286
     1
 66
     0
277
    -2
287
     1
 67
     0
278
    -2
288
     1
 68
     0
279
    -2
289
     1
 69
     0
  7
STANDARD
140
0.18
170
     5
 62
     0
 63
     7
283
     0
274
    -2
284
     1
 64
     0
275
    -2
285
     1
 65
     0
276
    -2
286
     1
 66
     0
277
    -2
287
     1
 67
     0
278
    -2
288
     1
 68
     0
279
    -2
289
     1
 69
     0
  0
DICTIONARYVAR
  5
2AA3
102
{ACAD_REACTORS
330
49
102
}
330
49
100
DictionaryVariables
280
     0
  1
STANDARD
  0
DICTIONARYVAR
  5
4A
102
{ACAD_REACTORS
330
49
102
}
330
49
100
DictionaryVariables
280
     0
  1
0
  0
DICTIONARYVAR
  5
708
102
{ACAD_REACTORS
330
49
102
}
330
49
100
DictionaryVariables
280
     0
  1
0
  0
DICTIONARYVAR
  5
2F3C
102
{ACAD_REACTORS
330
49
102
}
330
49
100
DictionaryVariables
280
     0
  1

  0
DICTIONARY
  5
3B32
330
47E
100
AcDbDictionary
280
     1
281
     1
  3
ACAD_XREC_ROUNDTRIP
360
3B33
  0
DICTIONARY
  5
3B30
330
47D
100
AcDbDictionary
280
     1
281
     1
  3
ACAD_XREC_ROUNDTRIP
360
3B31
  0
XRECORD
  5
3B33
102
{ACAD_REACTORS
330
3B32
102
}
330
3B32
100
AcDbXrecord
280
     1
102
SHADEPLOT
 70
     0
102
SHADEPLOTRESLEVEL
 70
     2
102
SHADEPLOTCUSTOMDPI
 70
   300
  0
XRECORD
  5
3B31
102
{ACAD_REACTORS
330
3B30
102
}
330
3B30
100
AcDbXrecord
280
     1
102
SHADEPLOT
 70
     0
102
SHADEPLOTRESLEVEL
 70
     2
102
SHADEPLOTCUSTOMDPI
 70
   300
  0
ENDSEC
  0
EOF
