  0
SECTION
  2
HEADER
  9
$ACADVER
  1
AC1015
  9
$ACADMAINTVER
 70
    20
  9
$DWGCODEPAGE
  3
ANSI_1252
  9
$INSBASE
 10
0.0
 20
0.0
 30
0.0
  9
$EXTMIN
 10
0.3384624114734713
 20
0.0983780594094748
 30
0.0
  9
$EXTMAX
 10
4.037623904480692
 20
13.10525883110684
 30
0.0
  9
$LIMMIN
 10
0.0
 20
0.0
  9
$LIMMAX
 10
32.0
 20
42.0
  9
$ORTHOMODE
 70
     1
  9
$REGENMODE
 70
     1
  9
$FILLMODE
 70
     1
  9
$QTEXTMODE
 70
     0
  9
$MIRRTEXT
 70
     0
  9
$LTSCALE
 40
0.5
  9
$ATTMODE
 70
     1
  9
$TEXTSIZE
 40
0.36
  9
$TRACEWID
 40
0.05
  9
$TEXTSTYLE
  7
STANDARD
  9
$CLAYER
  8
0
  9
$CELTYPE
  6
BYLAYER
  9
$CECOLOR
 62
   256
  9
$CELTSCALE
 40
1.0
  9
$DISPSILH
 70
     0
  9
$DIMSCALE
 40
4.0
  9
$DIMASZ
 40
0.1
  9
$DIMEXO
 40
0.062
  9
$DIMDLI
 40
0.375
  9
$DIMRND
 40
0.0
  9
$DIMDLE
 40
0.0
  9
$DIMEXE
 40
0.08
  9
$DIMTP
 40
0.0
  9
$DIMTM
 40
0.0
  9
$DIMTXT
 40
0.075
  9
$DIMCEN
 40
-0.0078125
  9
$DIMTSZ
 40
0.0
  9
$DIMTOL
 70
     0
  9
$DIMLIM
 70
     0
  9
$DIMTIH
 70
     1
  9
$DIMTOH
 70
     1
  9
$DIMSE1
 70
     0
  9
$DIMSE2
 70
     0
  9
$DIMTAD
 70
     0
  9
$DIMZIN
 70
     0
  9
$DIMBLK
  1

  9
$DIMASO
 70
     0
  9
$DIMSHO
 70
     0
  9
$DIMPOST
  1

  9
$DIMAPOST
  1

  9
$DIMALT
 70
     0
  9
$DIMALTD
 70
     2
  9
$DIMALTF
 40
25.4
  9
$DIMLFAC
 40
1.0
  9
$DIMTOFL
 70
     0
  9
$DIMTVP
 40
0.0
  9
$DIMTIX
 70
     0
  9
$DIMSOXD
 70
     0
  9
$DIMSAH
 70
     0
  9
$DIMBLK1
  1

  9
$DIMBLK2
  1

  9
$DIMSTYLE
  2
STANDARD
  9
$DIMCLRD
 70
     0
  9
$DIMCLRE
 70
     0
  9
$DIMCLRT
 70
     0
  9
$DIMTFAC
 40
1.0
  9
$DIMGAP
 40
0.09
  9
$DIMJUST
 70
     0
  9
$DIMSD1
 70
     0
  9
$DIMSD2
 70
     0
  9
$DIMTOLJ
 70
     1
  9
$DIMTZIN
 70
     0
  9
$DIMALTZ
 70
     0
  9
$DIMALTTZ
 70
     0
  9
$DIMUPT
 70
     0
  9
$DIMDEC
 70
     5
  9
$DIMTDEC
 70
     5
  9
$DIMALTU
 70
     2
  9
$DIMALTTD
 70
     2
  9
$DIMTXSTY
  7
STANDARD
  9
$DIMAUNIT
 70
     0
  9
$DIMADEC
 70
     0
  9
$DIMALTRND
 40
0.0
  9
$DIMAZIN
 70
     0
  9
$DIMDSEP
 70
    46
  9
$DIMATFIT
 70
     3
  9
$DIMFRAC
 70
     2
  9
$DIMLDRBLK
  1

  9
$DIMLUNIT
 70
     5
  9
$DIMLWD
 70
    -2
  9
$DIMLWE
 70
    -2
  9
$DIMTMOVE
 70
     2
  9
$LUNITS
 70
     2
  9
$LUPREC
 70
     4
  9
$SKETCHINC
 40
0.1
  9
$FILLETRAD
 40
0.0
  9
$AUNITS
 70
     0
  9
$AUPREC
 70
     0
  9
$MENU
  1
qa
  9
$ELEVATION
 40
0.0
  9
$PELEVATION
 40
0.0
  9
$THICKNESS
 40
0.0
  9
$LIMCHECK
 70
     0
  9
$CHAMFERA
 40
0.4375
  9
$CHAMFERB
 40
0.4375
  9
$CHAMFERC
 40
0.0
  9
$CHAMFERD
 40
0.0
  9
$SKPOLY
 70
     0
  9
$TDCREATE
 40
2452872.401862616
  9
$TDUCREATE
 40
2452872.693529283
  9
$TDUPDATE
 40
2454579.503118913
  9
$TDUUPDATE
 40
2454579.794785579
  9
$TDINDWG
 40
0.6528020602
  9
$TDUSRTIMER
 40
0.6528020602
  9
$USRTIMER
 70
     1
  9
$ANGBASE
 50
0.0
  9
$ANGDIR
 70
     0
  9
$PDMODE
 70
     0
  9
$PDSIZE
 40
0.0
  9
$PLINEWID
 40
0.0
  9
$SPLFRAME
 70
     0
  9
$SPLINETYPE
 70
     6
  9
$SPLINESEGS
 70
     8
  9
$HANDSEED
  5
3B34
  9
$SURFTAB1
 70
     6
  9
$SURFTAB2
 70
     6
  9
$SURFTYPE
 70
     6
  9
$SURFU
 70
     6
  9
$SURFV
 70
     6
  9
$UCSBASE
  2

  9
$UCSNAME
  2

  9
$UCSORG
 10
0.0
 20
0.0
 30
0.0
  9
$UCSXDIR
 10
1.0
 20
0.0
 30
0.0
  9
$UCSYDIR
 10
0.0
 20
1.0
 30
0.0
  9
$UCSORTHOREF
  2

  9
$UCSORTHOVIEW
 70
     0
  9
$UCSORGTOP
 10
0.0
 20
0.0
 30
0.0
  9
$UCSORGBOTTOM
 10
0.0
 20
0.0
 30
0.0
  9
$UCSORGLEFT
 10
0.0
 20
0.0
 30
0.0
  9
$UCSORGRIGHT
 10
0.0
 20
0.0
 30
0.0
  9
$UCSORGFRONT
 10
0.0
 20
0.0
 30
0.0
  9
$UCSORGBACK
 10
0.0
 20
0.0
 30
0.0
  9
$PUCSBASE
  2

  9
$PUCSNAME
  2

  9
$PUCSORG
 10
0.0
 20
0.0
 30
0.0
  9
$PUCSXDIR
 10
1.0
 20
0.0
 30
0.0
  9
$PUCSYDIR
 10
0.0
 20
1.0
 30
0.0
  9
$PUCSORTHOREF
  2

  9
$PUCSORTHOVIEW
 70
     0
  9
$PUCSORGTOP
 10
0.0
 20
0.0
 30
0.0
  9
$PUCSORGBOTTOM
 10
0.0
 20
0.0
 30
0.0
  9
$PUCSORGLEFT
 10
0.0
 20
0.0
 30
0.0
  9
$PUCSORGRIGHT
 10
0.0
 20
0.0
 30
0.0
  9
$PUCSORGFRONT
 10
0.0
 20
0.0
 30
0.0
  9
$PUCSORGBACK
 10
0.0
 20
0.0
 30
0.0
  9
$USERI1
 70
     0
  9
$USERI2
 70
     0
  9
$USERI3
 70
     0
  9
$USERI4
 70
     0
  9
$USERI5
 70
     0
  9
$USERR1
 40
0.0
  9
$USERR2
 40
0.0
  9
$USERR3
 40
0.0
  9
$USERR4
 40
0.0
  9
$USERR5
 40
0.0
  9
$WORLDVIEW
 70
     1
  9
$SHADEDGE
 70
     3
  9
$SHADEDIF
 70
    70
  9
$TILEMODE
 70
     1
  9
$MAXACTVP
 70
    16
  9
$PINSBASE
 10
0.0
 20
0.0
 30
0.0
  9
$PLIMCHECK
 70
     0
  9
$PEXTMIN
 10
1.000000000000000E+20
 20
1.000000000000000E+20
 30
1.000000000000000E+20
  9
$PEXTMAX
 10
-1.000000000000000E+20
 20
-1.000000000000000E+20
 30
-1.000000000000000E+20
  9
$PLIMMIN
 10
0.0
 20
0.0
  9
$PLIMMAX
 10
12.0
 20
9.0
  9
$UNITMODE
 70
     0
  9
$VISRETAIN
 70
     0
  9
$PLINEGEN
 70
     0
  9
$PSLTSCALE
 70
     0
  9
$TREEDEPTH
 70
  3020
  9
$CMLSTYLE
  2
STANDARD
  9
$CMLJUST
 70
     0
  9
$CMLSCALE
 40
1.0
  9
$PROXYGRAPHICS
 70
     1
  9
$MEASUREMENT
 70
     0
  9
$CELWEIGHT
370
    -1
  9
$ENDCAPS
280
     0
  9
$JOINSTYLE
280
     0
  9
$LWDISPLAY
290
     0
  9
$INSUNITS
 70
     0
  9
$HYPERLINKBASE
  1

  9
$STYLESHEET
  1
monochrome.ctb
  9
$XEDIT
290
     1
  9
$CEPSNTYPE
380
     0
  9
$PSTYLEMODE
290
     1
  9
$FINGERPRINTGUID
  2
{3F8EE252-4A01-453C-A5F5-5678F9528411}
  9
$VERSIONGUID
  2
{7DB6CAFD-51C3-4037-8FFB-F8D95941478B}
  9
$EXTNAMES
290
     1
  9
$PSVPSCALE
 40
0.0
  9
$OLESTARTUP
290
     0
  0
ENDSEC
  0
SECTION
  2
CLASSES
  0
CLASS
  1
DICTIONARYVAR
  2
AcDbDictionaryVar
  3
ObjectDBX Classes
 90
        0
280
     0
281
     0
  0
CLASS
  1
ACDBDICTIONARYWDFLT
  2
AcDbDictionaryWithDefault
  3
ObjectDBX Classes
 90
        0
280
     0
281
     0
  0
CLASS
  1
ACDBPLACEHOLDER
  2
AcDbPlaceHolder
  3
ObjectDBX Classes
 90
        0
280
     0
281
     0
  0
CLASS
  1
LAYOUT
  2
AcDbLayout
  3
ObjectDBX Classes
 90
        0
280
     0
281
     0
  0
CLASS
  1
TABLESTYLE
  2
AcDbTableStyle
  3
ObjectDBX Classes
 90
     2047
280
     0
281
     0
  0
CLASS
  1
SORTENTSTABLE
  2
AcDbSortentsTable
  3
ObjectDBX Classes
 90
        0
280
     0
281
     0
  0
ENDSEC
  0
SECTION
  2
TABLES
  0
TABLE
  2
VPORT
  5
8
330
0
100
AcDbSymbolTable
 70
     2
  0
VPORT
  5
3B2E
330
8
100
AcDbSymbolTableRecord
100
AcDbViewportTableRecord
  2
*Active
 70
     0
 10
0.0
 20
0.0
 11
1.0
 21
1.0
 12
2.377747620576602
 22
10.56888226827743
 13
0.0
 23
0.0
 14
0.063
 24
0.063
 15
0.25
 25
0.25
 16
0.0
 26
0.0
 36
1.0
 17
0.0
 27
0.0
 37
0.0
 40
23.63019663246675
 41
1.760162601626016
 42
50.0
 43
0.0
 44
0.0
 50
0.0
 51
0.0
 71
     0
 72
   100
 73
     1
 74
     0
 75
     0
 76
     0
 77
     0
 78
     0
281
     0
 65
     1
110
0.0
120
0.0
130
0.0
111
1.0
121
0.0
131
0.0
112
0.0
122
1.0
132
0.0
 79
     0
146
0.0
  0
ENDTAB
  0
TABLE
  2
LTYPE
  5
5
330
0
100
AcDbSymbolTable
 70
     3
  0
LTYPE
  5
11
330
5
100
AcDbSymbolTableRecord
100
AcDbLinetypeTableRecord
  2
BYBLOCK
 70
     0
  3

 72
    65
 73
     0
 40
0.0
  0
LTYPE
  5
12
330
5
100
AcDbSymbolTableRecord
100
AcDbLinetypeTableRecord
  2
BYLAYER
 70
     0
  3

 72
    65
 73
     0
 40
0.0
  0
LTYPE
  5
13
330
5
100
AcDbSymbolTableRecord
100
AcDbLinetypeTableRecord
  2
CONTINUOUS
 70
     0
  3
Solid line
 72
    65
 73
     0
 40
0.0
  0
LTYPE
  5
2B
330
5
100
AcDbSymbolTableRecord
100
AcDbLinetypeTableRecord
  2
HIDDEN
 70
     0
  3
_ _ _ _ _ _ _ _ _ _ _ _ _ _ _ _ _ _ _ _ _ _ _
 72
    65
 73
     2
 40
0.375
 49
0.25
 74
     0
 49
-0.125
 74
     0
  0
LTYPE
  5
302A
330
5
100
AcDbSymbolTableRecord
100
AcDbLinetypeTableRecord
  2
THD
 70
     0
  3
_ _ _ _ _ _ _ _ _ _ _ _ _ _ _ _ _ _ _ _ _ _ _ _
 72
    65
 73
     2
 40
0.15
 49
0.11
 74
     0
 49
-0.04
 74
     0
  0
ENDTAB
  0
TABLE
  2
LAYER
  5
2
102
{ACAD_XDICTIONARY
360
2ABF
102
}
330
0
100
AcDbSymbolTable
 70
     3
  0
LAYER
  5
E
330
2
100
AcDbSymbolTableRecord
100
AcDbLayerTableRecord
  2
0
 70
     0
 62
     7
  6
CONTINUOUS
370
    -3
390
47A
  0
LAYER
  5
37
330
2
100
AcDbSymbolTableRecord
100
AcDbLayerTableRecord
  2
DIM
 70
     0
 62
     5
  6
CONTINUOUS
370
    -3
390
47A
  0
LAYER
  5
2DFD
330
2
100
AcDbSymbolTableRecord
100
AcDbLayerTableRecord
  2
Defpoints
 70
     0
 62
     7
  6
CONTINUOUS
290
     0
370
    -3
390
47A
  0
ENDTAB
  0
TABLE
  2
STYLE
  5
3
330
0
100
AcDbSymbolTable
 70
     1
  0
STYLE
  5
F
330
3
100
AcDbSymbolTableRecord
100
AcDbTextStyleTableRecord
  2
STANDARD
 70
     0
 40
0.0
 41
1.0
 50
0.0
 71
     0
 42
0.36
  3
TXT
  4

  0
ENDTAB
  0
TABLE
  2
VIEW
  5
6
330
0
100
AcDbSymbolTable
 70
     0
  0
ENDTAB
  0
TABLE
  2
UCS
  5
7
330
0
100
AcDbSymbolTable
 70
     0
  0
ENDTAB
  0
TABLE
  2
APPID
  5
9
330
0
100
AcDbSymbolTable
 70
     4
  0
APPID
  5
10
330
9
100
AcDbSymbolTableRecord
100
AcDbRegAppTableRecord
  2
ACAD
 70
     0
  0
APPID
  5
DA7
330
9
100
AcDbSymbolTableRecord
100
AcDbRegAppTableRecord
  2
RAK
 70
     0
  0
APPID
  5
2C62
330
9
100
AcDbSymbolTableRecord
100
AcDbRegAppTableRecord
  2
ACAD_PSEXT
 70
     0
  0
APPID
  5
2C6B
330
9
100
AcDbSymbolTableRecord
100
AcDbRegAppTableRecord
  2
ACAD_DSTYLE_DIMTEXT_FILL
 70
     0
  0
ENDTAB
  0
TABLE
  2
DIMSTYLE
  5
A
330
0
100
AcDbSymbolTable
 70
     1
100
AcDbDimStyleTable
 71
     1
340
465
  0
DIMSTYLE
105
465
330
A
100
AcDbSymbolTableRecord
100
AcDbDimStyleTableRecord
  2
STANDARD
 70
     0
340
F
  0
ENDTAB
  0
TABLE
  2
BLOCK_RECORD
  5
1
330
0
100
AcDbSymbolTable
 70
     0
  0
BLOCK_RECORD
  5
17
102
{ACAD_XDICTIONARY
360
7D0
102
}
330
1
100
AcDbSymbolTableRecord
100
AcDbBlockTableRecord
  2
*MODEL_SPACE
340
47D
  0
BLOCK_RECORD
  5
14
102
{ACAD_XDICTIONARY
360
7CE
102
}
330
1
100
AcDbSymbolTableRecord
100
AcDbBlockTableRecord
  2
*PAPER_SPACE
340
47E
  0
ENDTAB
  0
ENDSEC
  0
SECTION
  2
BLOCKS
  0
BLOCK
  5
47
330
17
100
AcDbEntity
  8
0
100
AcDbBlockBegin
  2
*MODEL_SPACE
 70
     0
 10
0.0
 20
0.0
 30
0.0
  3
*MODEL_SPACE
  1

  0
ENDBLK
  5
48
330
17
100
AcDbEntity
  8
0
100
AcDbBlockEnd
  0
BLOCK
  5
45
330
14
100
AcDbEntity
 67
     1
  8
0
100
AcDbBlockBegin
  2
*PAPER_SPACE
 70
     0
 10
0.0
 20
0.0
 30
0.0
  3
*PAPER_SPACE
  1

  0
ENDBLK
  5
46
330
14
100
AcDbEntity
 67
     1
  8
0
100
AcDbBlockEnd
  0
ENDSEC
  0
SECTION
  2
ENTITIES
  0
TEXT
  5
3A7
330
17
100
AcDbEntity
  8
DIM
100
AcDbText
 10
14.93846334400804
 20
21.0944638759405
 30
0.0
 40
0.36
  1
   
 50
359.9999999999988
 11
14.93846334400805
 21
21.2744638759405
 31
0.0
100
AcDbText
 73
     2
  0
TEXT
  5
400
330
17
100
AcDbEntity
  8
DIM
100
AcDbText
 10
13.55232669162668
 20
10.34149078419336
 30
0.0
 40
0.36
  1
   
 72
     1
 11
14.09232669162668
 21
10.52149078419336
 31
0.0
100
AcDbText
 73
     2
  0
LINE
  5
1ACD
330
17
100
AcDbEntity
  8
0
100
AcDbLine
 10
0.3459431327830984
 20
0.1677588311069886
 30
0.0
 11
0.3459431327831126
 21
1.336727747539024
 31
0.0
  0
LINE
  5
25D0
330
17
100
AcDbEntity
  8
0
100
AcDbLine
 10
0.3459431327829705
 20
0.1677588311069744
 30
0.0
 11
0.3459431327829705
 21
1.667758831106974
 31
0.0
  0
LINE
  5
25E9
330
17
100
AcDbEntity
  8
0
100
AcDbLine
 10
1.346993132782522
 20
0.3027588311069227
 30
0.0
 11
0.9719931327825221
 21
0.3027588311069227
 31
0.0
  0
LINE
  5
29D5
330
17
100
AcDbEntity
  8
0
  6
HIDDEN
100
AcDbLine
 10
3.833243132783195
 20
13.10525883110684
 30
0.0
 11
3.833243132783202
 21
0.5027588311069682
 31
0.0
  0
LINE
  5
29DC
330
17
100
AcDbEntity
  8
0
100
AcDbLine
 10
3.9682431327832
 20
13.10525883110684
 30
0.0
 11
3.968243132783193
 21
0.5027588311069682
 31
0.0
  0
LINE
  5
29DD
330
17
100
AcDbEntity
  8
0
100
AcDbLine
 10
1.633921645011575
 20
5.381977098667585
 30
0.0
 11
2.145743132783188
 21
13.10525883110683
 31
0.0
  0
LINE
  5
29DE
330
17
100
AcDbEntity
  8
0
100
AcDbLine
 10
0.37609682239016
 20
1.882707057776309
 30
0.0
 11
1.606507007720402
 21
5.26323125863862
 31
0.0
  0
LINE
  5
2A0E
330
17
100
AcDbEntity
  8
0
100
AcDbLine
 10
2.020743132783202
 20
0.1687443139069789
 30
0.0
 11
2.020743132783202
 21
0.3027588311069795
 31
0.0
  0
LINE
  5
2A0F
330
17
100
AcDbEntity
  8
0
100
AcDbLine
 10
3.145743132783202
 20
0.1687451920070035
 30
0.0
 11
3.145743132783202
 21
0.3027588311069795
 31
0.0
  0
ARC
  5
2A10
330
17
100
AcDbEntity
  8
0
100
AcDbCircle
 10
3.633243132783199
 20
0.5027588311069682
 30
0.0
 40
0.2
100
AcDbArc
 50
269.9999999999996
 51
0.0
  0
ARC
  5
2A11
330
17
100
AcDbEntity
  8
0
100
AcDbCircle
 10
3.633243132783199
 20
0.5027588311069682
 30
0.0
 40
0.335
100
AcDbArc
 50
270.0
 51
0.0
  0
LINE
  5
2A12
330
17
100
AcDbEntity
  8
0
100
AcDbLine
 10
0.3459431327830984
 20
0.1677588311069886
 30
0.0
 11
0.3459431327830984
 21
1.711696986113475
 31
0.0
  0
LINE
  5
2A13
330
17
100
AcDbEntity
  8
0
100
AcDbLine
 10
3.633243132783199
 20
0.1677588311069886
 30
0.0
 11
0.3459431327830842
 21
0.1677588311070171
 31
0.0
  0
LINE
  5
2A15
330
17
100
AcDbEntity
  8
0
100
AcDbLine
 10
3.633243132783199
 20
0.3027588311069795
 30
0.0
 11
0.3459431327830842
 21
0.302758831107008
 31
0.0
  0
ARC
  5
2A21
330
17
100
AcDbEntity
  8
0
100
AcDbCircle
 10
0.8459431327830984
 20
1.711696986113418
 30
0.0
 40
0.5
100
AcDbArc
 50
159.999999999993
 51
179.9999999999935
  0
CIRCLE
  5
2A22
330
17
100
AcDbEntity
  8
0
100
AcDbCircle
 10
2.583243132783202
 20
1.531504883691662
 30
0.0
 40
0.3225
  0
CIRCLE
  5
2A23
330
17
100
AcDbEntity
  8
0
100
AcDbCircle
 10
2.583243132783202
 20
1.531504883691662
 30
0.0
 40
0.1875
  0
LINE
  5
2A24
330
17
100
AcDbEntity
  8
0
100
AcDbLine
 10
3.833243132783202
 20
0.5527588311069796
 30
0.0
 11
3.968243132783193
 21
0.5527588311069796
 31
0.0
  0
ARC
  5
2A79
330
17
100
AcDbEntity
  8
0
100
AcDbCircle
 10
1.136660697327521
 20
5.434241330301427
 30
0.0
 40
0.4999999999999222
100
AcDbArc
 50
339.9999999999999
 51
353.9999999999974
  0
LINE
  5
2A8E
330
17
100
AcDbEntity
  8
0
100
AcDbLine
 10
2.020743132783202
 20
1.334008831106979
 30
0.0
 11
3.145743132783202
 21
1.334008831106979
 31
0.0
  0
LINE
  5
2A8F
330
17
100
AcDbEntity
  8
0
100
AcDbLine
 10
2.020743132783202
 20
1.099008831106965
 30
0.0
 11
3.145743132783202
 21
1.099008831106965
 31
0.0
  0
LINE
  5
2A90
330
17
100
AcDbEntity
  8
0
100
AcDbLine
 10
2.114493132783202
 20
1.099008831106965
 30
0.0
 11
2.114493132783202
 21
1.334008831106979
 31
0.0
  0
LINE
  5
2A91
330
17
100
AcDbEntity
  8
0
100
AcDbLine
 10
1.770743132783202
 20
0.8490088311069658
 30
0.0
 11
1.770743132783202
 21
0.3027588311069795
 31
0.0
  0
LINE
  5
2A92
330
17
100
AcDbEntity
  8
0
100
AcDbLine
 10
1.535743132783188
 20
0.8490088311069658
 30
0.0
 11
1.535743132783188
 21
0.3027588311069795
 31
0.0
  0
ARC
  5
2A94
330
17
100
AcDbEntity
  8
0
100
AcDbCircle
 10
2.020743132783202
 20
0.8490088311069658
 30
0.0
 40
0.25
100
AcDbArc
 50
90.0
 51
180.0
  0
ARC
  5
2A95
330
17
100
AcDbEntity
  8
0
100
AcDbCircle
 10
2.020743132783202
 20
0.8490088311069658
 30
0.0
 40
0.485
100
AcDbArc
 50
90.11217710590043
 51
180.0
  0
LINE
  5
2A96
330
17
100
AcDbEntity
  8
0
100
AcDbLine
 10
3.630743132783216
 20
0.8490088311069658
 30
0.0
 11
3.630743132783159
 21
0.3027588311069795
 31
0.0
  0
LINE
  5
2A97
330
17
100
AcDbEntity
  8
0
100
AcDbLine
 10
3.395743132783202
 20
0.8490088311069658
 30
0.0
 11
3.395743132783145
 21
0.3027588311069795
 31
0.0
  0
LINE
  5
2A99
330
17
100
AcDbEntity
  8
0
100
AcDbLine
 10
3.051993132783202
 20
1.099008831106965
 30
0.0
 11
3.051993132783202
 21
1.334008831106979
 31
0.0
  0
ARC
  5
2A9A
330
17
100
AcDbEntity
  8
0
100
AcDbCircle
 10
3.145743132783202
 20
0.8490088311069658
 30
0.0
 40
0.25
100
AcDbArc
 50
0.0
 51
90.0
  0
ARC
  5
2A9B
330
17
100
AcDbEntity
  8
0
100
AcDbCircle
 10
3.145743132783202
 20
0.8490088311069658
 30
0.0
 40
0.485
100
AcDbArc
 50
0.0
 51
89.8878142035007
  0
LINE
  5
2AA0
330
17
100
AcDbEntity
  8
0
100
AcDbLine
 10
2.145743132783188
 20
13.10525883110683
 30
0.0
 11
3.968243132783193
 21
13.10525883110684
 31
0.0
  0
CIRCLE
  5
2AA1
330
17
100
AcDbEntity
  8
0
100
AcDbCircle
 10
2.807238424253039
 20
10.60525883110696
 30
0.0
 40
0.3435
  0
LINE
  5
3A17
330
17
100
AcDbEntity
  8
0
100
AcDbLine
 10
1.346993132782522
 20
0.3027588311069511
 30
0.0
 11
0.9719931327825221
 21
0.3027588311069511
 31
0.0
  0
LINE
  5
3A19
330
17
100
AcDbEntity
  8
0
100
AcDbLine
 10
0.955286991182966
 20
0.4955587831529176
 30
0.0
 11
0.945943132782979
 21
0.471556500552909
 31
0.0
  0
POLYLINE
  5
3A1A
330
17
100
AcDbEntity
  8
0
100
AcDb2dPolyline
 66
     1
 10
0.0
 20
0.0
 30
0.0
  0
VERTEX
  5
3A1B
330
3A1A
100
AcDbEntity
  8
0
100
AcDbVertex
100
AcDb2dVertex
 10
1.245943132782976
 20
0.471556500552909
 30
0.0
  0
VERTEX
  5
3A1C
330
3A1A
100
AcDbEntity
  8
0
100
AcDbVertex
100
AcDb2dVertex
 10
1.234567149982972
 20
0.4442716969529119
 30
0.0
  0
VERTEX
  5
3A1D
330
3A1A
100
AcDbEntity
  8
0
100
AcDbVertex
100
AcDb2dVertex
 10
1.202459587382982
 20
0.4224266128529184
 30
0.0
  0
VERTEX
  5
3A1E
330
3A1A
100
AcDbEntity
  8
0
100
AcDbVertex
100
AcDb2dVertex
 10
1.153717767082973
 20
0.4086379110529226
 30
0.0
  0
VERTEX
  5
3A1F
330
3A1A
100
AcDbEntity
  8
0
100
AcDbVertex
100
AcDb2dVertex
 10
1.09594313278297
 20
0.4038420920529138
 30
0.0
  0
SEQEND
  5
3A20
330
3A1A
100
AcDbEntity
  8
0
  0
LINE
  5
3A21
330
17
100
AcDbEntity
  8
0
100
AcDbLine
 10
1.236592378082967
 20
0.4955764982529179
 30
0.0
 11
1.245943132782976
 21
0.471556500552909
 31
0.0
  0
POLYLINE
  5
3A22
330
17
100
AcDbEntity
  8
0
100
AcDb2dPolyline
 66
     1
 10
0.0
 20
0.0
 30
0.0
  0
VERTEX
  5
3A23
330
3A22
100
AcDbEntity
  8
0
100
AcDbVertex
100
AcDb2dVertex
 10
1.265982362582981
 20
0.469876855252922
 30
0.0
  0
VERTEX
  5
3A24
330
3A22
100
AcDbEntity
  8
0
100
AcDbVertex
100
AcDb2dVertex
 10
1.28044313278297
 20
0.4318423873529032
 30
0.0
  0
VERTEX
  5
3A25
330
3A22
100
AcDbEntity
  8
0
100
AcDbVertex
100
AcDb2dVertex
 10
1.265982362582981
 20
0.3969342972528995
 30
0.0
  0
VERTEX
  5
3A26
330
3A22
100
AcDbEntity
  8
0
100
AcDbVertex
100
AcDb2dVertex
 10
1.225770366982978
 20
0.3699195665529107
 30
0.0
  0
VERTEX
  5
3A27
330
3A22
100
AcDbEntity
  8
0
100
AcDbVertex
100
AcDb2dVertex
 10
1.165845351282975
 20
0.3534526621529057
 30
0.0
  0
VERTEX
  5
3A28
330
3A22
100
AcDbEntity
  8
0
100
AcDbVertex
100
AcDb2dVertex
 10
1.09594313278297
 20
0.3478684629529045
 30
0.0
  0
SEQEND
  5
3A29
330
3A22
100
AcDbEntity
  8
0
  0
POLYLINE
  5
3A2A
330
17
100
AcDbEntity
  8
0
100
AcDb2dPolyline
 66
     1
 10
0.0
 20
0.0
 30
0.0
  0
VERTEX
  5
3A2B
330
3A2A
100
AcDbEntity
  8
0
100
AcDbVertex
100
AcDb2dVertex
 10
0.945943132782979
 20
0.471556500552909
 30
0.0
  0
VERTEX
  5
3A2C
330
3A2A
100
AcDbEntity
  8
0
100
AcDbVertex
100
AcDb2dVertex
 10
0.9573191154829672
 20
0.4442716969529119
 30
0.0
  0
VERTEX
  5
3A2D
330
3A2A
100
AcDbEntity
  8
0
100
AcDbVertex
100
AcDb2dVertex
 10
0.9894266781829728
 20
0.4224266128529184
 30
0.0
  0
VERTEX
  5
3A2E
330
3A2A
100
AcDbEntity
  8
0
100
AcDbVertex
100
AcDb2dVertex
 10
1.038168498482967
 20
0.4086379110529226
 30
0.0
  0
VERTEX
  5
3A2F
330
3A2A
100
AcDbEntity
  8
0
100
AcDbVertex
100
AcDb2dVertex
 10
1.09594313278297
 20
0.4038420920529138
 30
0.0
  0
SEQEND
  5
3A30
330
3A2A
100
AcDbEntity
  8
0
  0
POLYLINE
  5
3A31
330
17
100
AcDbEntity
  8
0
100
AcDb2dPolyline
 66
     1
 10
0.0
 20
0.0
 30
0.0
  0
VERTEX
  5
3A32
330
3A31
100
AcDbEntity
  8
0
100
AcDbVertex
100
AcDb2dVertex
 10
0.9386769177829776
 20
0.4840709194529059
 30
0.0
  0
VERTEX
  5
3A33
330
3A31
100
AcDbEntity
  8
0
100
AcDbVertex
100
AcDb2dVertex
 10
0.9259039028829718
 20
0.469876855252922
 30
0.0
  0
VERTEX
  5
3A34
330
3A31
100
AcDbEntity
  8
0
100
AcDbVertex
100
AcDb2dVertex
 10
0.9114431327829706
 20
0.4318423873529032
 30
0.0
  0
VERTEX
  5
3A35
330
3A31
100
AcDbEntity
  8
0
100
AcDbVertex
100
AcDb2dVertex
 10
0.9259039028829718
 20
0.3969342972528995
 30
0.0
  0
VERTEX
  5
3A36
330
3A31
100
AcDbEntity
  8
0
100
AcDbVertex
100
AcDb2dVertex
 10
0.9661158984829754
 20
0.3699195665529107
 30
0.0
  0
VERTEX
  5
3A37
330
3A31
100
AcDbEntity
  8
0
100
AcDbVertex
100
AcDb2dVertex
 10
1.02604091428298
 20
0.3534526621529057
 30
0.0
  0
VERTEX
  5
3A38
330
3A31
100
AcDbEntity
  8
0
100
AcDbVertex
100
AcDb2dVertex
 10
1.09594313278297
 20
0.3478684629529045
 30
0.0
  0
SEQEND
  5
3A39
330
3A31
100
AcDbEntity
  8
0
  0
POLYLINE
  5
3A3A
330
17
100
AcDbEntity
  8
0
100
AcDb2dPolyline
 66
     1
 10
0.0
 20
0.0
 30
0.0
  0
VERTEX
  5
3A3B
330
3A3A
100
AcDbEntity
  8
0
100
AcDbVertex
100
AcDb2dVertex
 10
0.9387544673829708
 20
0.4841440695529134
 30
0.0
  0
VERTEX
  5
3A3C
330
3A3A
100
AcDbEntity
  8
0
100
AcDbVertex
100
AcDb2dVertex
 10
0.9457555972829752
 20
0.4900146095529028
 30
0.0
  0
VERTEX
  5
3A3D
330
3A3A
100
AcDbEntity
  8
0
100
AcDbVertex
100
AcDb2dVertex
 10
0.9753185859829685
 20
0.507210661352902
 30
0.0
  0
SEQEND
  5
3A3E
330
3A3A
100
AcDbEntity
  8
0
  0
LINE
  5
3A3F
330
17
100
AcDbEntity
  8
0
100
AcDbLine
 10
1.253209347782977
 20
0.4840709194529059
 30
0.0
 11
1.265982362582981
 21
0.469876855252922
 31
0.0
  0
POLYLINE
  5
3A40
330
17
100
AcDbEntity
  8
0
100
AcDb2dPolyline
 66
     1
 10
0.0
 20
0.0
 30
0.0
  0
VERTEX
  5
3A41
330
3A40
100
AcDbEntity
  8
0
100
AcDbVertex
100
AcDb2dVertex
 10
0.8961288196829784
 20
0.5259805513529177
 30
0.0
  0
VERTEX
  5
3A42
330
3A40
100
AcDbEntity
  8
0
100
AcDbVertex
100
AcDb2dVertex
 10
0.9921479048829766
 20
0.5633020754528975
 30
0.0
  0
VERTEX
  5
3A43
330
3A40
100
AcDbEntity
  8
0
100
AcDbVertex
100
AcDb2dVertex
 10
1.09594313278297
 20
0.5761616201529041
 30
0.0
  0
SEQEND
  5
3A44
330
3A40
100
AcDbEntity
  8
0
  0
LINE
  5
3A45
330
17
100
AcDbEntity
  8
0
100
AcDbLine
 10
0.9753185859829685
 20
0.507210661352902
 30
0.0
 11
1.021616426882978
 21
0.5230784801529201
 31
0.0
  0
LINE
  5
3A46
330
17
100
AcDbEntity
  8
0
100
AcDbLine
 10
1.077678909982971
 20
0.5314980870529116
 30
0.0
 11
1.09594313278297
 21
0.5320362837529178
 31
0.0
  0
LINE
  5
3A47
330
17
100
AcDbEntity
  8
0
100
AcDbLine
 10
1.09594313278297
 20
0.532036284052909
 30
0.0
 11
1.117280423582975
 21
0.5313023861529036
 31
0.0
  0
POLYLINE
  5
3A48
330
17
100
AcDbEntity
  8
0
100
AcDb2dPolyline
 66
     1
 10
0.0
 20
0.0
 30
0.0
  0
VERTEX
  5
3A49
330
3A48
100
AcDbEntity
  8
0
100
AcDbVertex
100
AcDb2dVertex
 10
1.09594313278297
 20
0.2377855747529072
 30
0.0
  0
VERTEX
  5
3A4A
330
3A48
100
AcDbEntity
  8
0
100
AcDbVertex
100
AcDb2dVertex
 10
0.9921479048829766
 20
0.2435851617529199
 30
0.0
  0
VERTEX
  5
3A4B
330
3A48
100
AcDbEntity
  8
0
100
AcDbVertex
100
AcDb2dVertex
 10
0.8961288196829784
 20
0.2622274436529057
 30
0.0
  0
VERTEX
  5
3A4C
330
3A48
100
AcDbEntity
  8
0
100
AcDbVertex
100
AcDb2dVertex
 10
0.8236449061829702
 20
0.2957584663529094
 30
0.0
  0
VERTEX
  5
3A4D
330
3A48
100
AcDbEntity
  8
0
100
AcDbVertex
100
AcDb2dVertex
 10
0.7837486339829738
 20
0.3449767561529047
 30
0.0
  0
VERTEX
  5
3A4E
330
3A48
100
AcDbEntity
  8
0
100
AcDbVertex
100
AcDb2dVertex
 10
0.7837486339829738
 20
0.4059717726529204
 30
0.0
  0
VERTEX
  5
3A4F
330
3A48
100
AcDbEntity
  8
0
100
AcDbVertex
100
AcDb2dVertex
 10
0.8236449061829702
 20
0.4702490284529138
 30
0.0
  0
VERTEX
  5
3A50
330
3A48
100
AcDbEntity
  8
0
100
AcDbVertex
100
AcDb2dVertex
 10
0.8961288196829784
 20
0.5259805513529177
 30
0.0
  0
SEQEND
  5
3A51
330
3A48
100
AcDbEntity
  8
0
  0
LINE
  5
3A52
330
17
100
AcDbEntity
  8
0
100
AcDbLine
 10
1.09594313278297
 20
0.5761616201529041
 30
0.0
 11
1.199738360682978
 21
0.5633020754529259
 31
0.0
  0
LINE
  5
3A53
330
17
100
AcDbEntity
  8
0
100
AcDbLine
 10
1.117280423582975
 20
0.5313023861529036
 30
0.0
 11
1.17246100818297
 21
0.5225309500529268
 31
0.0
  0
LINE
  5
3A54
330
17
100
AcDbEntity
  8
0
100
AcDbLine
 10
1.17246100818297
 20
0.5225309500529268
 30
0.0
 11
1.217660575582975
 21
0.5067063335529003
 31
0.0
  0
POLYLINE
  5
3A55
330
17
100
AcDbEntity
  8
0
100
AcDb2dPolyline
 66
     1
 10
0.0
 20
0.0
 30
0.0
  0
VERTEX
  5
3A56
330
3A55
100
AcDbEntity
  8
0
100
AcDbVertex
100
AcDb2dVertex
 10
1.199738360682978
 20
0.5633020754528975
 30
0.0
  0
VERTEX
  5
3A57
330
3A55
100
AcDbEntity
  8
0
100
AcDbVertex
100
AcDb2dVertex
 10
1.295757445782975
 20
0.5259805513529177
 30
0.0
  0
VERTEX
  5
3A58
330
3A55
100
AcDbEntity
  8
0
100
AcDbVertex
100
AcDb2dVertex
 10
1.368241359282968
 20
0.4702490284529138
 30
0.0
  0
VERTEX
  5
3A59
330
3A55
100
AcDbEntity
  8
0
100
AcDbVertex
100
AcDb2dVertex
 10
1.408137631482965
 20
0.4059717726529204
 30
0.0
  0
VERTEX
  5
3A5A
330
3A55
100
AcDbEntity
  8
0
100
AcDbVertex
100
AcDb2dVertex
 10
1.408137631482965
 20
0.3449767561529047
 30
0.0
  0
VERTEX
  5
3A5B
330
3A55
100
AcDbEntity
  8
0
100
AcDbVertex
100
AcDb2dVertex
 10
1.368241359282968
 20
0.2957584663529094
 30
0.0
  0
VERTEX
  5
3A5C
330
3A55
100
AcDbEntity
  8
0
100
AcDbVertex
100
AcDb2dVertex
 10
1.295757445782975
 20
0.2622274436529057
 30
0.0
  0
VERTEX
  5
3A5D
330
3A55
100
AcDbEntity
  8
0
100
AcDbVertex
100
AcDb2dVertex
 10
1.199738360682978
 20
0.2435851617529199
 30
0.0
  0
VERTEX
  5
3A5E
330
3A55
100
AcDbEntity
  8
0
100
AcDbVertex
100
AcDb2dVertex
 10
1.09594313278297
 20
0.2377855747529072
 30
0.0
  0
SEQEND
  5
3A5F
330
3A55
100
AcDbEntity
  8
0
  0
LINE
  5
3A60
330
17
100
AcDbEntity
  8
0
100
AcDbLine
 10
1.217660575582975
 20
0.5067063335529003
 30
0.0
 11
1.246393527082979
 21
0.4898144914529059
 31
0.0
  0
LINE
  5
3A61
330
17
100
AcDbEntity
  8
0
100
AcDbLine
 10
1.021616426882978
 20
0.5230784801529201
 30
0.0
 11
1.077678909982971
 21
0.5314980870529116
 31
0.0
  0
ENDSEC
  0
SECTION
  2
OBJECTS
  0
DICTIONARY
  5
C
330
0
100
AcDbDictionary
281
     1
  3
ACAD_COLOR
350
28FA
  3
ACAD_GROUP
350
D
  3
ACAD_LAYOUT
350
47B
  3
ACAD_MATERIAL
350
28F9
  3
ACAD_MLINESTYLE
350
1A
  3
ACAD_PLOTSETTINGS
350
47C
  3
ACAD_PLOTSTYLENAME
350
479
  3
ACAD_TABLESTYLE
350
28FB
  3
ACDBHEADERROUNDTRIPXREC
350
3B2F
  3
ACDBVARIABLEDICTIONARY
350
49
  0
DICTIONARY
  5
2ABF
330
2
100
AcDbDictionary
280
     1
281
     1
  3
ACAD_LAYERFILTERS
360
2F66
  3
ACAD_LAYERSTATES
360
2C63
  3
ACLYDICTIONARY
360
2F65
  0
DICTIONARY
  5
7D0
330
17
100
AcDbDictionary
280
     1
281
     1
  3
ACAD_LAYOUTSELFREF
360
1071
  3
ACAD_SORTENTS
360
2D11
  0
DICTIONARY
  5
7CE
330
14
100
AcDbDictionary
280
     1
281
     1
  3
ACAD_LAYOUTSELFREF
360
1070
  0
DICTIONARY
  5
28FA
102
{ACAD_REACTORS
330
C
102
}
330
C
100
AcDbDictionary
281
     1
  0
DICTIONARY
  5
D
102
{ACAD_REACTORS
330
C
102
}
330
C
100
AcDbDictionary
281
     1
  0
DICTIONARY
  5
47B
102
{ACAD_REACTORS
330
C
102
}
330
C
100
AcDbDictionary
281
     1
  3
Layout1
350
47E
  3
Model
350
47D
  0
DICTIONARY
  5
28F9
102
{ACAD_REACTORS
330
C
102
}
330
C
100
AcDbDictionary
281
     1
  0
DICTIONARY
  5
1A
102
{ACAD_REACTORS
330
C
102
}
330
C
100
AcDbDictionary
281
     1
  3
STANDARD
350
1B
  0
DICTIONARY
  5
47C
102
{ACAD_REACTORS
330
C
102
}
330
C
100
AcDbDictionary
281
     1
  0
ACDBDICTIONARYWDFLT
  5
479
102
{ACAD_REACTORS
330
C
102
}
330
C
100
AcDbDictionary
281
     1
  3
Normal
350
47A
100
AcDbDictionaryWithDefault
340
47A
  0
DICTIONARY
  5
28FB
102
{ACAD_REACTORS
330
C
102
}
330
C
100
AcDbDictionary
281
     1
  3
Standard
350
28FC
  0
DICTIONARY
  5
3B2F
102
{ACAD_REACTORS
330
C
102
}
330
C
100
AcDbDictionary
281
     1
  0
DICTIONARY
  5
49
102
{ACAD_REACTORS
330
C
102
}
330
C
100
AcDbDictionary
281
     1
  3
CTABLESTYLE
350
2AA3
  3
DIMADEC
350
4A
  3
DIMASSOC
350
708
  3
PROJECTNAME
350
2F3C
  0
DICTIONARY
  5
2F66
102
{ACAD_REACTORS
330
2ABF
102
}
330
2ABF
100
AcDbDictionary
281
     1
  0
DICTIONARY
  5
2C63
102
{ACAD_REACTORS
330
2ABF
102
}
330
2ABF
100
AcDbDictionary
281
     1
  0
DICTIONARY
  5
2F65
102
{ACAD_REACTORS
330
2ABF
102
}
330
2ABF
100
AcDbDictionary
281
     1
1001
ACAD
1000
<All
  0
XRECORD
  5
1071
102
{ACAD_REACTORS
330
7D0
102
}
330
7D0
100
AcDbXrecord
280
     1
340
17
  0
SORTENTSTABLE
  5
2D11
102
{ACAD_REACTORS
330
7D0
102
}
330
7D0
100
AcDbSortentsTable
330
17
331
2A91
  5
2A91
331
2A99
  5
2A99
331
2AA1
  5
2AA1
331
2A12
  5
2A12
331
2A22
  5
2A22
331
2A92
  5
2A92
331
2A9A
  5
2A9A
331
2A13
  5
2A13
331
2A23
  5
2A23
331
2A9B
  5
2A9B
331
29DC
  5
29DC
331
2A24
  5
2A24
331
1ACD
  5
1ACD
331
2A94
  5
2A94
331
29D5
  5
29D5
331
29DD
  5
29DD
331
3A7
  5
3A7
331
2A15
  5
2A15
331
2A95
  5
2A95
331
29DE
  5
29DE
331
400
  5
400
331
2A0E
  5
2A0E
331
2A8E
  5
2A8E
331
2A96
  5
2A96
331
2A0F
  5
2A0F
331
25D0
  5
25D0
331
2A8F
  5
2A8F
331
2A97
  5
2A97
331
2A10
  5
2A10
331
25E9
  5
25E9
331
2A90
  5
2A90
331
2AA0
  5
2AA0
331
2A11
  5
2A11
331
2A21
  5
2A21
331
2A79
  5
2A79
  0
XRECORD
  5
1070
102
{ACAD_REACTORS
330
7CE
102
}
330
7CE
100
AcDbXrecord
280
     1
340
14
  0
LAYOUT
  5
47E
102
{ACAD_XDICTIONARY
360
3B32
102
}
102
{ACAD_REACTORS
330
47B
102
}
330
47B
100
AcDbPlotSettings
  1

  2
hp psc 2100 series
  4

  6

 40
0.0
 41
0.0
 42
0.0
 43
0.0
 44
0.0
 45
0.0
 46
0.0
 47
0.0
 48
0.0
 49
0.0
140
0.0
141
0.0
142
1.0
143
1.0
 70
   688
 72
     0
 73
     0
 74
     5
  7
monochrome.ctb
 75
    16
147
1.0
148
0.0
149
0.0
100
AcDbLayout
  1
Layout1
 70
     0
 71
     1
 10
0.0
 20
0.0
 11
12.0
 21
9.0
 12
0.0
 22
0.0
 32
0.0
 14
1.000000000000000E+20
 24
1.000000000000000E+20
 34
1.000000000000000E+20
 15
-1.000000000000000E+20
 25
-1.000000000000000E+20
 35
-1.000000000000000E+20
146
0.0
 13
0.0
 23
0.0
 33
0.0
 16
1.0
 26
0.0
 36
0.0
 17
0.0
 27
1.0
 37
0.0
 76
     0
330
14
  0
LAYOUT
  5
47D
102
{ACAD_XDICTIONARY
360
3B30
102
}
102
{ACAD_REACTORS
330
47B
102
}
330
47B
100
AcDbPlotSettings
  1

  2
HP LaserJet 2100 Series PS
  4
Letter
  6

 40
5.365749835968017
 41
5.408073902130126
 42
5.132904052734375
 43
5.090576171875
 44
215.8999938964844
 45
279.3999938964844
 46
0.0
 47
0.0
 48
0.0
 49
0.0
140
0.0
141
0.0
142
1.0
143
3.967254253308121
 70
 11952
 72
     0
 73
     0
 74
     2
  7
monochrome.ctb
 75
     0
147
0.2520635018958373
148
0.0
149
0.0
100
AcDbLayout
  1
Model
 70
     1
 71
     0
 10
0.0
 20
0.0
 11
12.0
 21
9.0
 12
0.0
 22
0.0
 32
0.0
 14
0.0
 24
0.0
 34
0.0
 15
0.0
 25
0.0
 35
0.0
146
0.0
 13
0.0
 23
0.0
 33
0.0
 16
1.0
 26
0.0
 36
0.0
 17
0.0
 27
1.0
 37
0.0
 76
     0
330
17
1001
ACAD_PSEXT
1000
HP LaserJet 2100 Series PS
1000
HP LaserJet 2100 Series PS
1000
LPT1:
1000

1070
     0
  0
MLINESTYLE
  5
1B
102
{ACAD_REACTORS
330
1A
102
}
330
1A
100
AcDbMlineStyle
  2
STANDARD
 70
     0
  3

 62
   256
 51
90.0
 52
90.0
 71
     2
 49
0.5
 62
   256
  6
BYLAYER
 49
-0.5
 62
   256
  6
BYLAYER
  0
ACDBPLACEHOLDER
  5
47A
102
{ACAD_REACTORS
330
479
102
}
330
479
  0
TABLESTYLE
  5
28FC
102
{ACAD_REACTORS
330
28FB
102
}
330
28FB
100
AcDbTableStyle
  3
Standard
 70
     0
 71
     0
 40
0.06
 41
0.06
280
     0
281
     0
  7
STANDARD
140
0.18
170
     2
 62
     0
 63
     7
283
     0
274
    -2
284
     1
 64
     0
275
    -2
285
     1
 65
     0
276
    -2
286
     1
 66
     0
277
    -2
287
     1
 67
     0
278
    -2
288
     1
 68
     0
279
    -2
289
     1
 69
     0
  7
STANDARD
140
0.25
170
     5
 62
     0
 63
     7
283
     0
274
    -2
284
     1
 64
     0
275
    -2
285
     1
 65
     0
276
    -2
286
     1
 66
     0
277
    -2
287
     1
 67
     0
278
    -2
288
     1
 68
     0
279
    -2
289
     1
 69
     0
  7
STANDARD
140
0.18
170
     5
 62
     0
 63
     7
283
     0
274
    -2
284
     1
 64
     0
275
    -2
285
     1
 65
     0
276
    -2
286
     1
 66
     0
277
    -2
287
     1
 67
     0
278
    -2
288
     1
 68
     0
279
    -2
289
     1
 69
     0
  0
DICTIONARYVAR
  5
2AA3
102
{ACAD_REACTORS
330
49
102
}
330
49
100
DictionaryVariables
280
     0
  1
STANDARD
  0
DICTIONARYVAR
  5
4A
102
{ACAD_REACTORS
330
49
102
}
330
49
100
DictionaryVariables
280
     0
  1
0
  0
DICTIONARYVAR
  5
708
102
{ACAD_REACTORS
330
49
102
}
330
49
100
DictionaryVariables
280
     0
  1
0
  0
DICTIONARYVAR
  5
2F3C
102
{ACAD_REACTORS
330
49
102
}
330
49
100
DictionaryVariables
280
     0
  1

  0
DICTIONARY
  5
3B32
330
47E
100
AcDbDictionary
280
     1
281
     1
  3
ACAD_XREC_ROUNDTRIP
360
3B33
  0
DICTIONARY
  5
3B30
330
47D
100
AcDbDictionary
280
     1
281
     1
  3
ACAD_XREC_ROUNDTRIP
360
3B31
  0
XRECORD
  5
3B33
102
{ACAD_REACTORS
330
3B32
102
}
330
3B32
100
AcDbXrecord
280
     1
102
SHADEPLOT
 70
     0
102
SHADEPLOTRESLEVEL
 70
     2
102
SHADEPLOTCUSTOMDPI
 70
   300
  0
XRECORD
  5
3B31
102
{ACAD_REACTORS
330
3B30
102
}
330
3B30
100
AcDbXrecord
280
     1
102
SHADEPLOT
 70
     0
102
SHADEPLOTRESLEVEL
 70
     2
102
SHADEPLOTCUSTOMDPI
 70
   300
  0
ENDSEC
  0
EOF
