  0
SECTION
  2
HEADER
  9
$ACADVER
  1
AC1015
  9
$ACADMAINTVER
 70
    20
  9
$DWGCODEPAGE
  3
ANSI_1252
  9
$INSBASE
 10
0.0
 20
0.0
 30
0.0
  9
$EXTMIN
 10
-1.214705510582501
 20
0.4493258247749026
 30
0.0
  9
$EXTMAX
 10
1.256556032812543
 20
4.141006596472404
 30
0.0
  9
$LIMMIN
 10
0.0
 20
0.0
  9
$LIMMAX
 10
32.0
 20
42.0
  9
$ORTHOMODE
 70
     1
  9
$REGENMODE
 70
     1
  9
$FILLMODE
 70
     1
  9
$QTEXTMODE
 70
     0
  9
$MIRRTEXT
 70
     0
  9
$LTSCALE
 40
0.5
  9
$ATTMODE
 70
     1
  9
$TEXTSIZE
 40
0.36
  9
$TRACEWID
 40
0.05
  9
$TEXTSTYLE
  7
STANDARD
  9
$CLAYER
  8
0
  9
$CELTYPE
  6
BYLAYER
  9
$CECOLOR
 62
   256
  9
$CELTSCALE
 40
1.0
  9
$DISPSILH
 70
     0
  9
$DIMSCALE
 40
4.0
  9
$DIMASZ
 40
0.1
  9
$DIMEXO
 40
0.062
  9
$DIMDLI
 40
0.375
  9
$DIMRND
 40
0.0
  9
$DIMDLE
 40
0.0
  9
$DIMEXE
 40
0.08
  9
$DIMTP
 40
0.0
  9
$DIMTM
 40
0.0
  9
$DIMTXT
 40
0.075
  9
$DIMCEN
 40
-0.0078125
  9
$DIMTSZ
 40
0.0
  9
$DIMTOL
 70
     0
  9
$DIMLIM
 70
     0
  9
$DIMTIH
 70
     1
  9
$DIMTOH
 70
     1
  9
$DIMSE1
 70
     0
  9
$DIMSE2
 70
     0
  9
$DIMTAD
 70
     0
  9
$DIMZIN
 70
     0
  9
$DIMBLK
  1

  9
$DIMASO
 70
     0
  9
$DIMSHO
 70
     0
  9
$DIMPOST
  1

  9
$DIMAPOST
  1

  9
$DIMALT
 70
     0
  9
$DIMALTD
 70
     2
  9
$DIMALTF
 40
25.4
  9
$DIMLFAC
 40
1.0
  9
$DIMTOFL
 70
     0
  9
$DIMTVP
 40
0.0
  9
$DIMTIX
 70
     0
  9
$DIMSOXD
 70
     0
  9
$DIMSAH
 70
     0
  9
$DIMBLK1
  1

  9
$DIMBLK2
  1

  9
$DIMSTYLE
  2
STANDARD
  9
$DIMCLRD
 70
     0
  9
$DIMCLRE
 70
     0
  9
$DIMCLRT
 70
     0
  9
$DIMTFAC
 40
1.0
  9
$DIMGAP
 40
0.09
  9
$DIMJUST
 70
     0
  9
$DIMSD1
 70
     0
  9
$DIMSD2
 70
     0
  9
$DIMTOLJ
 70
     1
  9
$DIMTZIN
 70
     0
  9
$DIMALTZ
 70
     0
  9
$DIMALTTZ
 70
     0
  9
$DIMUPT
 70
     0
  9
$DIMDEC
 70
     5
  9
$DIMTDEC
 70
     5
  9
$DIMALTU
 70
     2
  9
$DIMALTTD
 70
     2
  9
$DIMTXSTY
  7
STANDARD
  9
$DIMAUNIT
 70
     0
  9
$DIMADEC
 70
     0
  9
$DIMALTRND
 40
0.0
  9
$DIMAZIN
 70
     0
  9
$DIMDSEP
 70
    46
  9
$DIMATFIT
 70
     3
  9
$DIMFRAC
 70
     2
  9
$DIMLDRBLK
  1

  9
$DIMLUNIT
 70
     5
  9
$DIMLWD
 70
    -2
  9
$DIMLWE
 70
    -2
  9
$DIMTMOVE
 70
     2
  9
$LUNITS
 70
     2
  9
$LUPREC
 70
     4
  9
$SKETCHINC
 40
0.1
  9
$FILLETRAD
 40
0.0
  9
$AUNITS
 70
     0
  9
$AUPREC
 70
     0
  9
$MENU
  1
qa
  9
$ELEVATION
 40
0.0
  9
$PELEVATION
 40
0.0
  9
$THICKNESS
 40
0.0
  9
$LIMCHECK
 70
     0
  9
$CHAMFERA
 40
0.4375
  9
$CHAMFERB
 40
0.4375
  9
$CHAMFERC
 40
0.0
  9
$CHAMFERD
 40
0.0
  9
$SKPOLY
 70
     0
  9
$TDCREATE
 40
2452872.401862616
  9
$TDUCREATE
 40
2452872.693529283
  9
$TDUPDATE
 40
2454579.503252187
  9
$TDUUPDATE
 40
2454579.794918854
  9
$TDINDWG
 40
0.6527653356
  9
$TDUSRTIMER
 40
0.6527653356
  9
$USRTIMER
 70
     1
  9
$ANGBASE
 50
0.0
  9
$ANGDIR
 70
     0
  9
$PDMODE
 70
     0
  9
$PDSIZE
 40
0.0
  9
$PLINEWID
 40
0.0
  9
$SPLFRAME
 70
     0
  9
$SPLINETYPE
 70
     6
  9
$SPLINESEGS
 70
     8
  9
$HANDSEED
  5
3B34
  9
$SURFTAB1
 70
     6
  9
$SURFTAB2
 70
     6
  9
$SURFTYPE
 70
     6
  9
$SURFU
 70
     6
  9
$SURFV
 70
     6
  9
$UCSBASE
  2

  9
$UCSNAME
  2

  9
$UCSORG
 10
0.0
 20
0.0
 30
0.0
  9
$UCSXDIR
 10
1.0
 20
0.0
 30
0.0
  9
$UCSYDIR
 10
0.0
 20
1.0
 30
0.0
  9
$UCSORTHOREF
  2

  9
$UCSORTHOVIEW
 70
     0
  9
$UCSORGTOP
 10
0.0
 20
0.0
 30
0.0
  9
$UCSORGBOTTOM
 10
0.0
 20
0.0
 30
0.0
  9
$UCSORGLEFT
 10
0.0
 20
0.0
 30
0.0
  9
$UCSORGRIGHT
 10
0.0
 20
0.0
 30
0.0
  9
$UCSORGFRONT
 10
0.0
 20
0.0
 30
0.0
  9
$UCSORGBACK
 10
0.0
 20
0.0
 30
0.0
  9
$PUCSBASE
  2

  9
$PUCSNAME
  2

  9
$PUCSORG
 10
0.0
 20
0.0
 30
0.0
  9
$PUCSXDIR
 10
1.0
 20
0.0
 30
0.0
  9
$PUCSYDIR
 10
0.0
 20
1.0
 30
0.0
  9
$PUCSORTHOREF
  2

  9
$PUCSORTHOVIEW
 70
     0
  9
$PUCSORGTOP
 10
0.0
 20
0.0
 30
0.0
  9
$PUCSORGBOTTOM
 10
0.0
 20
0.0
 30
0.0
  9
$PUCSORGLEFT
 10
0.0
 20
0.0
 30
0.0
  9
$PUCSORGRIGHT
 10
0.0
 20
0.0
 30
0.0
  9
$PUCSORGFRONT
 10
0.0
 20
0.0
 30
0.0
  9
$PUCSORGBACK
 10
0.0
 20
0.0
 30
0.0
  9
$USERI1
 70
     0
  9
$USERI2
 70
     0
  9
$USERI3
 70
     0
  9
$USERI4
 70
     0
  9
$USERI5
 70
     0
  9
$USERR1
 40
0.0
  9
$USERR2
 40
0.0
  9
$USERR3
 40
0.0
  9
$USERR4
 40
0.0
  9
$USERR5
 40
0.0
  9
$WORLDVIEW
 70
     1
  9
$SHADEDGE
 70
     3
  9
$SHADEDIF
 70
    70
  9
$TILEMODE
 70
     1
  9
$MAXACTVP
 70
    16
  9
$PINSBASE
 10
0.0
 20
0.0
 30
0.0
  9
$PLIMCHECK
 70
     0
  9
$PEXTMIN
 10
1.000000000000000E+20
 20
1.000000000000000E+20
 30
1.000000000000000E+20
  9
$PEXTMAX
 10
-1.000000000000000E+20
 20
-1.000000000000000E+20
 30
-1.000000000000000E+20
  9
$PLIMMIN
 10
0.0
 20
0.0
  9
$PLIMMAX
 10
12.0
 20
9.0
  9
$UNITMODE
 70
     0
  9
$VISRETAIN
 70
     0
  9
$PLINEGEN
 70
     0
  9
$PSLTSCALE
 70
     0
  9
$TREEDEPTH
 70
  3020
  9
$CMLSTYLE
  2
STANDARD
  9
$CMLJUST
 70
     0
  9
$CMLSCALE
 40
1.0
  9
$PROXYGRAPHICS
 70
     1
  9
$MEASUREMENT
 70
     0
  9
$CELWEIGHT
370
    -1
  9
$ENDCAPS
280
     0
  9
$JOINSTYLE
280
     0
  9
$LWDISPLAY
290
     0
  9
$INSUNITS
 70
     0
  9
$HYPERLINKBASE
  1

  9
$STYLESHEET
  1
monochrome.ctb
  9
$XEDIT
290
     1
  9
$CEPSNTYPE
380
     0
  9
$PSTYLEMODE
290
     1
  9
$FINGERPRINTGUID
  2
{3F8EE252-4A01-453C-A5F5-5678F9528411}
  9
$VERSIONGUID
  2
{7CB8236C-3E04-40CB-9CED-5E1CD4B2B7A4}
  9
$EXTNAMES
290
     1
  9
$PSVPSCALE
 40
0.0
  9
$OLESTARTUP
290
     0
  0
ENDSEC
  0
SECTION
  2
CLASSES
  0
CLASS
  1
DICTIONARYVAR
  2
AcDbDictionaryVar
  3
ObjectDBX Classes
 90
        0
280
     0
281
     0
  0
CLASS
  1
ACDBDICTIONARYWDFLT
  2
AcDbDictionaryWithDefault
  3
ObjectDBX Classes
 90
        0
280
     0
281
     0
  0
CLASS
  1
ACDBPLACEHOLDER
  2
AcDbPlaceHolder
  3
ObjectDBX Classes
 90
        0
280
     0
281
     0
  0
CLASS
  1
LAYOUT
  2
AcDbLayout
  3
ObjectDBX Classes
 90
        0
280
     0
281
     0
  0
CLASS
  1
TABLESTYLE
  2
AcDbTableStyle
  3
ObjectDBX Classes
 90
     2047
280
     0
281
     0
  0
CLASS
  1
SORTENTSTABLE
  2
AcDbSortentsTable
  3
ObjectDBX Classes
 90
        0
280
     0
281
     0
  0
ENDSEC
  0
SECTION
  2
TABLES
  0
TABLE
  2
VPORT
  5
8
330
0
100
AcDbSymbolTable
 70
     2
  0
VPORT
  5
3B2E
330
8
100
AcDbSymbolTableRecord
100
AcDbViewportTableRecord
  2
*Active
 70
     0
 10
0.0
 20
0.0
 11
1.0
 21
1.0
 12
2.377747620576602
 22
10.56888226827743
 13
0.0
 23
0.0
 14
0.063
 24
0.063
 15
0.25
 25
0.25
 16
0.0
 26
0.0
 36
1.0
 17
0.0
 27
0.0
 37
0.0
 40
23.63019663246675
 41
1.760162601626016
 42
50.0
 43
0.0
 44
0.0
 50
0.0
 51
0.0
 71
     0
 72
   100
 73
     1
 74
     0
 75
     0
 76
     0
 77
     0
 78
     0
281
     0
 65
     1
110
0.0
120
0.0
130
0.0
111
1.0
121
0.0
131
0.0
112
0.0
122
1.0
132
0.0
 79
     0
146
0.0
  0
ENDTAB
  0
TABLE
  2
LTYPE
  5
5
330
0
100
AcDbSymbolTable
 70
     3
  0
LTYPE
  5
11
330
5
100
AcDbSymbolTableRecord
100
AcDbLinetypeTableRecord
  2
BYBLOCK
 70
     0
  3

 72
    65
 73
     0
 40
0.0
  0
LTYPE
  5
12
330
5
100
AcDbSymbolTableRecord
100
AcDbLinetypeTableRecord
  2
BYLAYER
 70
     0
  3

 72
    65
 73
     0
 40
0.0
  0
LTYPE
  5
13
330
5
100
AcDbSymbolTableRecord
100
AcDbLinetypeTableRecord
  2
CONTINUOUS
 70
     0
  3
Solid line
 72
    65
 73
     0
 40
0.0
  0
LTYPE
  5
2B
330
5
100
AcDbSymbolTableRecord
100
AcDbLinetypeTableRecord
  2
HIDDEN
 70
     0
  3
_ _ _ _ _ _ _ _ _ _ _ _ _ _ _ _ _ _ _ _ _ _ _
 72
    65
 73
     2
 40
0.375
 49
0.25
 74
     0
 49
-0.125
 74
     0
  0
LTYPE
  5
302A
330
5
100
AcDbSymbolTableRecord
100
AcDbLinetypeTableRecord
  2
THD
 70
     0
  3
_ _ _ _ _ _ _ _ _ _ _ _ _ _ _ _ _ _ _ _ _ _ _ _
 72
    65
 73
     2
 40
0.15
 49
0.11
 74
     0
 49
-0.04
 74
     0
  0
ENDTAB
  0
TABLE
  2
LAYER
  5
2
102
{ACAD_XDICTIONARY
360
2ABF
102
}
330
0
100
AcDbSymbolTable
 70
     3
  0
LAYER
  5
E
330
2
100
AcDbSymbolTableRecord
100
AcDbLayerTableRecord
  2
0
 70
     0
 62
     7
  6
CONTINUOUS
370
    -3
390
47A
  0
LAYER
  5
37
330
2
100
AcDbSymbolTableRecord
100
AcDbLayerTableRecord
  2
DIM
 70
     0
 62
     5
  6
CONTINUOUS
370
    -3
390
47A
  0
LAYER
  5
2DFD
330
2
100
AcDbSymbolTableRecord
100
AcDbLayerTableRecord
  2
Defpoints
 70
     0
 62
     7
  6
CONTINUOUS
290
     0
370
    -3
390
47A
  0
ENDTAB
  0
TABLE
  2
STYLE
  5
3
330
0
100
AcDbSymbolTable
 70
     1
  0
STYLE
  5
F
330
3
100
AcDbSymbolTableRecord
100
AcDbTextStyleTableRecord
  2
STANDARD
 70
     0
 40
0.0
 41
1.0
 50
0.0
 71
     0
 42
0.36
  3
TXT
  4

  0
ENDTAB
  0
TABLE
  2
VIEW
  5
6
330
0
100
AcDbSymbolTable
 70
     0
  0
ENDTAB
  0
TABLE
  2
UCS
  5
7
330
0
100
AcDbSymbolTable
 70
     0
  0
ENDTAB
  0
TABLE
  2
APPID
  5
9
330
0
100
AcDbSymbolTable
 70
     4
  0
APPID
  5
10
330
9
100
AcDbSymbolTableRecord
100
AcDbRegAppTableRecord
  2
ACAD
 70
     0
  0
APPID
  5
DA7
330
9
100
AcDbSymbolTableRecord
100
AcDbRegAppTableRecord
  2
RAK
 70
     0
  0
APPID
  5
2C62
330
9
100
AcDbSymbolTableRecord
100
AcDbRegAppTableRecord
  2
ACAD_PSEXT
 70
     0
  0
APPID
  5
2C6B
330
9
100
AcDbSymbolTableRecord
100
AcDbRegAppTableRecord
  2
ACAD_DSTYLE_DIMTEXT_FILL
 70
     0
  0
ENDTAB
  0
TABLE
  2
DIMSTYLE
  5
A
330
0
100
AcDbSymbolTable
 70
     1
100
AcDbDimStyleTable
 71
     1
340
465
  0
DIMSTYLE
105
465
330
A
100
AcDbSymbolTableRecord
100
AcDbDimStyleTableRecord
  2
STANDARD
 70
     0
340
F
  0
ENDTAB
  0
TABLE
  2
BLOCK_RECORD
  5
1
330
0
100
AcDbSymbolTable
 70
     0
  0
BLOCK_RECORD
  5
17
102
{ACAD_XDICTIONARY
360
7D0
102
}
330
1
100
AcDbSymbolTableRecord
100
AcDbBlockTableRecord
  2
*MODEL_SPACE
340
47D
  0
BLOCK_RECORD
  5
14
102
{ACAD_XDICTIONARY
360
7CE
102
}
330
1
100
AcDbSymbolTableRecord
100
AcDbBlockTableRecord
  2
*PAPER_SPACE
340
47E
  0
ENDTAB
  0
ENDSEC
  0
SECTION
  2
BLOCKS
  0
BLOCK
  5
47
330
17
100
AcDbEntity
  8
0
100
AcDbBlockBegin
  2
*MODEL_SPACE
 70
     0
 10
0.0
 20
0.0
 30
0.0
  3
*MODEL_SPACE
  1

  0
ENDBLK
  5
48
330
17
100
AcDbEntity
  8
0
100
AcDbBlockEnd
  0
BLOCK
  5
45
330
14
100
AcDbEntity
 67
     1
  8
0
100
AcDbBlockBegin
  2
*PAPER_SPACE
 70
     0
 10
0.0
 20
0.0
 30
0.0
  3
*PAPER_SPACE
  1

  0
ENDBLK
  5
46
330
14
100
AcDbEntity
 67
     1
  8
0
100
AcDbBlockEnd
  0
ENDSEC
  0
SECTION
  2
ENTITIES
  0
TEXT
  5
3A7
330
17
100
AcDbEntity
  8
DIM
100
AcDbText
 10
14.93846334400804
 20
21.0944638759405
 30
0.0
 40
0.36
  1
   
 50
359.9999999999988
 11
14.93846334400805
 21
21.2744638759405
 31
0.0
100
AcDbText
 73
     2
  0
TEXT
  5
400
330
17
100
AcDbEntity
  8
DIM
100
AcDbText
 10
13.55232669162668
 20
10.34149078419336
 30
0.0
 40
0.36
  1
   
 72
     1
 11
14.09232669162668
 21
10.52149078419336
 31
0.0
100
AcDbText
 73
     2
  0
LINE
  5
3765
330
17
100
AcDbEntity
  8
0
100
AcDbLine
 10
1.187175261115058
 20
0.4493258247749026
 30
0.0
 11
0.3084252611148557
 21
0.4493258247749026
 31
0.0
  0
LINE
  5
3766
330
17
100
AcDbEntity
  8
0
100
AcDbLine
 10
-0.2665747388851543
 20
0.4493258247749026
 30
0.0
 11
-1.145324738885008
 21
0.4493258247749026
 31
0.0
  0
LINE
  5
3767
330
17
100
AcDbEntity
  8
0
100
AcDbLine
 10
0.8521752611150503
 20
3.936625824774907
 30
0.0
 11
-0.8103247388850078
 21
3.936625824774907
 31
0.0
  0
LINE
  5
3768
330
17
100
AcDbEntity
  8
0
100
AcDbLine
 10
-1.010324738885003
 20
3.736625824774904
 30
0.0
 11
-1.010324738885003
 21
0.4493258247749026
 31
0.0
  0
ARC
  5
3769
330
17
100
AcDbEntity
  8
0
100
AcDbCircle
 10
-0.8103247388850078
 20
3.736625824774904
 30
0.0
 40
0.2
100
AcDbArc
 50
90.0
 51
180.0
  0
ARC
  5
376A
330
17
100
AcDbEntity
  8
0
100
AcDbCircle
 10
-0.8103247388850078
 20
3.736625824774904
 30
0.0
 40
0.335
100
AcDbArc
 50
90.0
 51
180.0
  0
LINE
  5
376B
330
17
100
AcDbEntity
  8
0
100
AcDbLine
 10
1.052175261115053
 20
3.736625824774911
 30
0.0
 11
1.052175261115053
 21
0.4493258247749026
 31
0.0
  0
ARC
  5
376C
330
17
100
AcDbEntity
  8
0
100
AcDbCircle
 10
0.8521752611150503
 20
3.736625824774911
 30
0.0
 40
0.2
100
AcDbArc
 50
0.0
 51
90.0
  0
ARC
  5
376D
330
17
100
AcDbEntity
  8
0
100
AcDbCircle
 10
0.8521752611150503
 20
3.736625824774911
 30
0.0
 40
0.335
100
AcDbArc
 50
0.0
 51
90.0
  0
LINE
  5
3772
330
17
100
AcDbEntity
  8
0
100
AcDbLine
 10
-0.2665747388851471
 20
0.4605758247749066
 30
0.0
 11
-0.2665747388851543
 21
0.4493258247749097
 31
0.0
  0
ARC
  5
3773
330
17
100
AcDbEntity
  8
0
100
AcDbCircle
 10
-0.246574738885144
 20
0.4605758247749066
 30
0.0
 40
0.02
100
AcDbArc
 50
90.0
 51
180.0
  0
LINE
  5
3774
330
17
100
AcDbEntity
  8
0
100
AcDbLine
 10
0.3084252611148557
 20
0.4493258247749026
 30
0.0
 11
0.3084252611148628
 21
0.4605758247749066
 31
0.0
  0
ARC
  5
3775
330
17
100
AcDbEntity
  8
0
100
AcDbCircle
 10
0.2884252611148597
 20
0.4605758247749066
 30
0.0
 40
0.02
100
AcDbArc
 50
0.0
 51
90.0
  0
LINE
  5
3776
330
17
100
AcDbEntity
  8
0
100
AcDbLine
 10
0.2884252611148597
 20
0.4805758247749026
 30
0.0
 11
-0.246574738885144
 21
0.4805758247749026
 31
0.0
  0
LINE
  5
3777
330
17
100
AcDbEntity
  8
0
100
AcDbLine
 10
0.8521752611150503
 20
4.071625824774912
 30
0.0
 11
-0.8103247388850149
 21
4.071625824774912
 31
0.0
  0
LINE
  5
3778
330
17
100
AcDbEntity
  8
0
100
AcDbLine
 10
-1.145324738885008
 20
3.736625824774904
 30
0.0
 11
-1.145324738885001
 21
0.4493258247749026
 31
0.0
  0
LINE
  5
3779
330
17
100
AcDbEntity
  8
0
100
AcDbLine
 10
1.187175261115058
 20
3.736625824774911
 30
0.0
 11
1.187175261115058
 21
0.4493258247749026
 31
0.0
  0
ARC
  5
377A
330
17
100
AcDbEntity
  8
0
100
AcDbCircle
 10
-0.9790747388850036
 20
2.961625824774884
 30
0.0
 40
0.03125
100
AcDbArc
 50
180.0000000000227
 51
221.3954130506539
  0
ARC
  5
377B
330
17
100
AcDbEntity
  8
0
  6
THD
100
AcDbCircle
 10
-0.9790747388850036
 20
2.961625824774884
 30
0.0
 40
0.16625
100
AcDbArc
 50
180.0000000000227
 51
221.3954130506539
  0
ARC
  5
377C
330
17
100
AcDbEntity
  8
0
  6
THD
100
AcDbCircle
 10
-1.166574738884918
 20
2.686625824774907
 30
0.0
 40
0.1562500000000203
100
AcDbArc
 50
318.6045869493546
 51
41.39541305064532
  0
ARC
  5
377D
330
17
100
AcDbEntity
  8
0
100
AcDbCircle
 10
-1.166574738884918
 20
2.686625824774907
 30
0.0
 40
0.2912500000000203
100
AcDbArc
 50
318.6045869493633
 51
41.39541305063779
  0
LINE
  5
377E
330
17
100
AcDbEntity
  8
0
100
AcDbLine
 10
-1.002517364201082
 20
2.940961705672222
 30
0.0
 11
-0.9480894709390099
 21
2.879215414811895
 31
0.0
  0
LINE
  5
377F
330
17
100
AcDbEntity
  8
0
  6
THD
100
AcDbLine
 10
-1.103789505566538
 20
2.851692711148629
 30
0.0
 11
-1.049361612304466
 21
2.789946420288302
 31
0.0
  0
ARC
  5
3780
330
17
100
AcDbEntity
  8
0
100
AcDbCircle
 10
-0.9790747388850036
 20
2.411625824774901
 30
0.0
 40
0.03125
100
AcDbArc
 50
138.604586949346
 51
179.9999999999772
  0
ARC
  5
3781
330
17
100
AcDbEntity
  8
0
  6
THD
100
AcDbCircle
 10
-0.9790747388850036
 20
2.411625824774901
 30
0.0
 40
0.16625
100
AcDbArc
 50
138.604586949346
 51
179.9999999999772
  0
LINE
  5
3782
330
17
100
AcDbEntity
  8
0
100
AcDbLine
 10
-1.002517364201082
 20
2.432289943877592
 30
0.0
 11
-0.9480894709390099
 21
2.49403623473789
 31
0.0
  0
LINE
  5
3783
330
17
100
AcDbEntity
  8
0
  6
THD
100
AcDbLine
 10
-1.103789505566538
 20
2.521558938401184
 30
0.0
 11
-1.049361612304466
 21
2.583305229261483
 31
0.0
  0
ARC
  5
3784
330
17
100
AcDbEntity
  8
0
100
AcDbCircle
 10
1.020925261115024
 20
2.961625824774884
 30
0.0
 40
0.03125
100
AcDbArc
 50
318.604586949346
 51
359.9999999999771
  0
ARC
  5
3785
330
17
100
AcDbEntity
  8
0
  6
THD
100
AcDbCircle
 10
1.020925261115024
 20
2.961625824774884
 30
0.0
 40
0.16625
100
AcDbArc
 50
318.604586949346
 51
359.9999999999771
  0
ARC
  5
3786
330
17
100
AcDbEntity
  8
0
  6
THD
100
AcDbCircle
 10
1.208425261114939
 20
2.686625824774907
 30
0.0
 40
0.1562500000000203
100
AcDbArc
 50
138.6045869493547
 51
221.3954130506453
  0
ARC
  5
3787
330
17
100
AcDbEntity
  8
0
100
AcDbCircle
 10
1.208425261114939
 20
2.686625824774907
 30
0.0
 40
0.2912500000000203
100
AcDbArc
 50
138.6045869493622
 51
221.3954130506367
  0
LINE
  5
3788
330
17
100
AcDbEntity
  8
0
100
AcDbLine
 10
1.044367886431103
 20
2.940961705672222
 30
0.0
 11
0.9899399931690311
 21
2.879215414811895
 31
0.0
  0
LINE
  5
3789
330
17
100
AcDbEntity
  8
0
  6
THD
100
AcDbLine
 10
1.145640027796559
 20
2.851692711148629
 30
0.0
 11
1.091212134534487
 21
2.789946420288302
 31
0.0
  0
ARC
  5
378A
330
17
100
AcDbEntity
  8
0
100
AcDbCircle
 10
1.020925261115024
 20
2.411625824774901
 30
0.0
 40
0.03125
100
AcDbArc
 50
0.0000000000227982
 51
41.39541305065399
  0
ARC
  5
378B
330
17
100
AcDbEntity
  8
0
  6
THD
100
AcDbCircle
 10
1.020925261115024
 20
2.411625824774901
 30
0.0
 40
0.16625
100
AcDbArc
 50
0.0000000000227982
 51
41.39541305065399
  0
LINE
  5
378C
330
17
100
AcDbEntity
  8
0
100
AcDbLine
 10
1.044367886431103
 20
2.432289943877592
 30
0.0
 11
0.9899399931690311
 21
2.49403623473789
 31
0.0
  0
LINE
  5
378D
330
17
100
AcDbEntity
  8
0
  6
THD
100
AcDbLine
 10
1.145640027796559
 20
2.521558938401184
 30
0.0
 11
1.091212134534487
 21
2.583305229261483
 31
0.0
  0
POLYLINE
  5
380B
330
17
100
AcDbEntity
  8
0
100
AcDb2dPolyline
 66
     1
 10
0.0
 20
0.0
 30
0.0
  0
VERTEX
  5
380C
330
380B
100
AcDbEntity
  8
0
100
AcDbVertex
100
AcDb2dVertex
 10
0.913238581712541
 20
1.199325824774902
 30
0.0
  0
VERTEX
  5
380D
330
380B
100
AcDbEntity
  8
0
100
AcDbVertex
100
AcDb2dVertex
 10
0.8993394084125512
 20
1.30312105267491
 30
0.0
  0
VERTEX
  5
380E
330
380B
100
AcDbEntity
  8
0
100
AcDbVertex
100
AcDb2dVertex
 10
0.8569227380125497
 20
1.399140137774892
 30
0.0
  0
VERTEX
  5
380F
330
380B
100
AcDbEntity
  8
0
100
AcDbVertex
100
AcDb2dVertex
 10
0.7870489929125384
 20
1.471624051274901
 30
0.0
  0
VERTEX
  5
3810
330
380B
100
AcDbEntity
  8
0
100
AcDbVertex
100
AcDb2dVertex
 10
0.6943575949125389
 20
1.511520323474897
 30
0.0
  0
VERTEX
  5
3811
330
380B
100
AcDbEntity
  8
0
100
AcDbVertex
100
AcDb2dVertex
 10
0.589998626212541
 20
1.511520323474897
 30
0.0
  0
VERTEX
  5
3812
330
380B
100
AcDbEntity
  8
0
100
AcDbVertex
100
AcDb2dVertex
 10
0.4885056667125483
 20
1.471624051274901
 30
0.0
  0
VERTEX
  5
3813
330
380B
100
AcDbEntity
  8
0
100
AcDbVertex
100
AcDb2dVertex
 10
0.4056563250125365
 20
1.399140137774892
 30
0.0
  0
VERTEX
  5
3814
330
380B
100
AcDbEntity
  8
0
100
AcDbVertex
100
AcDb2dVertex
 10
0.3523221389125481
 20
1.30312105267491
 30
0.0
  0
VERTEX
  5
3815
330
380B
100
AcDbEntity
  8
0
100
AcDbVertex
100
AcDb2dVertex
 10
0.3342966098125331
 20
1.199325824774902
 30
0.0
  0
SEQEND
  5
3816
330
380B
100
AcDbEntity
  8
0
  0
POLYLINE
  5
3817
330
17
100
AcDbEntity
  8
0
100
AcDb2dPolyline
 66
     1
 10
0.0
 20
0.0
 30
0.0
  0
VERTEX
  5
3818
330
3817
100
AcDbEntity
  8
0
100
AcDbVertex
100
AcDb2dVertex
 10
0.7647739334125348
 20
1.199325824774902
 30
0.0
  0
VERTEX
  5
3819
330
3817
100
AcDbEntity
  8
0
100
AcDbVertex
100
AcDb2dVertex
 10
0.7534935442125388
 20
1.269228043274907
 30
0.0
  0
VERTEX
  5
381A
330
3817
100
AcDbEntity
  8
0
100
AcDbVertex
100
AcDb2dVertex
 10
0.7211740479125482
 20
1.32915305897491
 30
0.0
  0
VERTEX
  5
381B
330
3817
100
AcDbEntity
  8
0
100
AcDbVertex
100
AcDb2dVertex
 10
0.6707190763125439
 20
1.369365054574885
 30
0.0
  0
VERTEX
  5
381C
330
3817
100
AcDbEntity
  8
0
100
AcDbVertex
100
AcDb2dVertex
 10
0.6092324555125473
 20
1.383825824774888
 30
0.0
  0
VERTEX
  5
381D
330
3817
100
AcDbEntity
  8
0
100
AcDbVertex
100
AcDb2dVertex
 10
0.5459185507125497
 20
1.369365054574885
 30
0.0
  0
VERTEX
  5
381E
330
3817
100
AcDbEntity
  8
0
100
AcDbVertex
100
AcDb2dVertex
 10
0.4910695918125399
 20
1.32915305897491
 30
0.0
  0
VERTEX
  5
381F
330
3817
100
AcDbEntity
  8
0
100
AcDbVertex
100
AcDb2dVertex
 10
0.4544482053125379
 20
1.269228043274907
 30
0.0
  0
VERTEX
  5
3820
330
3817
100
AcDbEntity
  8
0
100
AcDbVertex
100
AcDb2dVertex
 10
0.441376581112543
 20
1.199325824774902
 30
0.0
  0
SEQEND
  5
3821
330
3817
100
AcDbEntity
  8
0
  0
POLYLINE
  5
3822
330
17
100
AcDbEntity
  8
0
100
AcDb2dPolyline
 66
     1
 10
0.0
 20
0.0
 30
0.0
  0
VERTEX
  5
3823
330
3822
100
AcDbEntity
  8
0
100
AcDbVertex
100
AcDb2dVertex
 10
0.7094735812125422
 20
1.199325824774902
 30
0.0
  0
VERTEX
  5
3824
330
3822
100
AcDbEntity
  8
0
100
AcDbVertex
100
AcDb2dVertex
 10
0.7001261547125424
 20
1.257100459074891
 30
0.0
  0
VERTEX
  5
3825
330
3822
100
AcDbEntity
  8
0
100
AcDbVertex
100
AcDb2dVertex
 10
0.6738471904125518
 20
1.305842279374886
 30
0.0
  0
VERTEX
  5
3826
330
3822
100
AcDbEntity
  8
0
100
AcDbVertex
100
AcDb2dVertex
 10
0.633794649912538
 20
1.337949841974889
 30
0.0
  0
VERTEX
  5
3827
330
3822
100
AcDbEntity
  8
0
100
AcDbVertex
100
AcDb2dVertex
 10
0.5860206221125353
 20
1.349325824774908
 30
0.0
  0
VERTEX
  5
3828
330
3822
100
AcDbEntity
  8
0
100
AcDbVertex
100
AcDb2dVertex
 10
0.5371141472125416
 20
1.337949841974889
 30
0.0
  0
VERTEX
  5
3829
330
3822
100
AcDbEntity
  8
0
100
AcDbVertex
100
AcDb2dVertex
 10
0.4942838110125436
 20
1.305842279374886
 30
0.0
  0
VERTEX
  5
382A
330
3822
100
AcDbEntity
  8
0
100
AcDbVertex
100
AcDb2dVertex
 10
0.4652162267125349
 20
1.257100459074891
 30
0.0
  0
VERTEX
  5
382B
330
3822
100
AcDbEntity
  8
0
100
AcDbVertex
100
AcDb2dVertex
 10
0.4546836795125344
 20
1.199325824774902
 30
0.0
  0
SEQEND
  5
382C
330
3822
100
AcDbEntity
  8
0
  0
POLYLINE
  5
382D
330
17
100
AcDbEntity
  8
0
100
AcDb2dPolyline
 66
     1
 10
0.0
 20
0.0
 30
0.0
  0
VERTEX
  5
382E
330
382D
100
AcDbEntity
  8
0
100
AcDbVertex
100
AcDb2dVertex
 10
0.7094735812125422
 20
1.199325824774902
 30
0.0
  0
VERTEX
  5
382F
330
382D
100
AcDbEntity
  8
0
100
AcDbVertex
100
AcDb2dVertex
 10
0.7001261547125424
 20
1.141551190474885
 30
0.0
  0
VERTEX
  5
3830
330
382D
100
AcDbEntity
  8
0
100
AcDbVertex
100
AcDb2dVertex
 10
0.6738471904125518
 20
1.09280937017489
 30
0.0
  0
VERTEX
  5
3831
330
382D
100
AcDbEntity
  8
0
100
AcDbVertex
100
AcDb2dVertex
 10
0.633794649912538
 20
1.060701807474899
 30
0.0
  0
VERTEX
  5
3832
330
382D
100
AcDbEntity
  8
0
100
AcDbVertex
100
AcDb2dVertex
 10
0.5860206221125353
 20
1.049325824774896
 30
0.0
  0
VERTEX
  5
3833
330
382D
100
AcDbEntity
  8
0
100
AcDbVertex
100
AcDb2dVertex
 10
0.5371141472125416
 20
1.060701807474899
 30
0.0
  0
VERTEX
  5
3834
330
382D
100
AcDbEntity
  8
0
100
AcDbVertex
100
AcDb2dVertex
 10
0.4942838110125436
 20
1.09280937017489
 30
0.0
  0
VERTEX
  5
3835
330
382D
100
AcDbEntity
  8
0
100
AcDbVertex
100
AcDb2dVertex
 10
0.4652162267125349
 20
1.141551190474885
 30
0.0
  0
VERTEX
  5
3836
330
382D
100
AcDbEntity
  8
0
100
AcDbVertex
100
AcDb2dVertex
 10
0.4546836795125344
 20
1.199325824774902
 30
0.0
  0
SEQEND
  5
3837
330
382D
100
AcDbEntity
  8
0
  0
POLYLINE
  5
3838
330
17
100
AcDbEntity
  8
0
100
AcDb2dPolyline
 66
     1
 10
0.0
 20
0.0
 30
0.0
  0
VERTEX
  5
3839
330
3838
100
AcDbEntity
  8
0
100
AcDbVertex
100
AcDb2dVertex
 10
0.7647739334125348
 20
1.199325824774902
 30
0.0
  0
VERTEX
  5
383A
330
3838
100
AcDbEntity
  8
0
100
AcDbVertex
100
AcDb2dVertex
 10
0.7534935442125388
 20
1.129423606274897
 30
0.0
  0
VERTEX
  5
383B
330
3838
100
AcDbEntity
  8
0
100
AcDbVertex
100
AcDb2dVertex
 10
0.7211740479125482
 20
1.069498590474907
 30
0.0
  0
VERTEX
  5
383C
330
3838
100
AcDbEntity
  8
0
100
AcDbVertex
100
AcDb2dVertex
 10
0.6707190763125439
 20
1.029286594874903
 30
0.0
  0
VERTEX
  5
383D
330
3838
100
AcDbEntity
  8
0
100
AcDbVertex
100
AcDb2dVertex
 10
0.6092324555125473
 20
1.014825824774888
 30
0.0
  0
VERTEX
  5
383E
330
3838
100
AcDbEntity
  8
0
100
AcDbVertex
100
AcDb2dVertex
 10
0.5459185507125497
 20
1.029286594874903
 30
0.0
  0
VERTEX
  5
383F
330
3838
100
AcDbEntity
  8
0
100
AcDbVertex
100
AcDb2dVertex
 10
0.4910695918125399
 20
1.069498590474907
 30
0.0
  0
VERTEX
  5
3840
330
3838
100
AcDbEntity
  8
0
100
AcDbVertex
100
AcDb2dVertex
 10
0.4544482053125379
 20
1.129423606274897
 30
0.0
  0
VERTEX
  5
3841
330
3838
100
AcDbEntity
  8
0
100
AcDbVertex
100
AcDb2dVertex
 10
0.441376581112543
 20
1.199325824774902
 30
0.0
  0
SEQEND
  5
3842
330
3838
100
AcDbEntity
  8
0
  0
POLYLINE
  5
3843
330
17
100
AcDbEntity
  8
0
100
AcDb2dPolyline
 66
     1
 10
0.0
 20
0.0
 30
0.0
  0
VERTEX
  5
3844
330
3843
100
AcDbEntity
  8
0
100
AcDbVertex
100
AcDb2dVertex
 10
0.3342966098125331
 20
1.199325824774902
 30
0.0
  0
VERTEX
  5
3845
330
3843
100
AcDbEntity
  8
0
100
AcDbVertex
100
AcDb2dVertex
 10
0.3523221389125481
 20
1.095530596874894
 30
0.0
  0
VERTEX
  5
3846
330
3843
100
AcDbEntity
  8
0
100
AcDbVertex
100
AcDb2dVertex
 10
0.4056563250125365
 20
0.9995115116748962
 30
0.0
  0
VERTEX
  5
3847
330
3843
100
AcDbEntity
  8
0
100
AcDbVertex
100
AcDb2dVertex
 10
0.4885056667125483
 20
0.9270275981748881
 30
0.0
  0
VERTEX
  5
3848
330
3843
100
AcDbEntity
  8
0
100
AcDbVertex
100
AcDb2dVertex
 10
0.589998626212541
 20
0.8871313259748916
 30
0.0
  0
VERTEX
  5
3849
330
3843
100
AcDbEntity
  8
0
100
AcDbVertex
100
AcDb2dVertex
 10
0.6943575949125389
 20
0.8871313259748916
 30
0.0
  0
VERTEX
  5
384A
330
3843
100
AcDbEntity
  8
0
100
AcDbVertex
100
AcDb2dVertex
 10
0.7870489929125384
 20
0.9270275981748881
 30
0.0
  0
VERTEX
  5
384B
330
3843
100
AcDbEntity
  8
0
100
AcDbVertex
100
AcDb2dVertex
 10
0.8569227380125497
 20
0.9995115116748962
 30
0.0
  0
VERTEX
  5
384C
330
3843
100
AcDbEntity
  8
0
100
AcDbVertex
100
AcDb2dVertex
 10
0.8993394084125512
 20
1.095530596874894
 30
0.0
  0
VERTEX
  5
384D
330
3843
100
AcDbEntity
  8
0
100
AcDbVertex
100
AcDb2dVertex
 10
0.913238581712541
 20
1.199325824774902
 30
0.0
  0
SEQEND
  5
384E
330
3843
100
AcDbEntity
  8
0
  0
POLYLINE
  5
384F
330
17
100
AcDbEntity
  8
0
100
AcDb2dPolyline
 66
     1
 10
0.0
 20
0.0
 30
0.0
  0
VERTEX
  5
3850
330
384F
100
AcDbEntity
  8
0
100
AcDbVertex
100
AcDb2dVertex
 10
-0.8713880594825198
 20
1.199325824774902
 30
0.0
  0
VERTEX
  5
3851
330
384F
100
AcDbEntity
  8
0
100
AcDbVertex
100
AcDb2dVertex
 10
-0.85748888618253
 20
1.30312105267491
 30
0.0
  0
VERTEX
  5
3852
330
384F
100
AcDbEntity
  8
0
100
AcDbVertex
100
AcDb2dVertex
 10
-0.8150722157825285
 20
1.399140137774892
 30
0.0
  0
VERTEX
  5
3853
330
384F
100
AcDbEntity
  8
0
100
AcDbVertex
100
AcDb2dVertex
 10
-0.7451984706825172
 20
1.471624051274901
 30
0.0
  0
VERTEX
  5
3854
330
384F
100
AcDbEntity
  8
0
100
AcDbVertex
100
AcDb2dVertex
 10
-0.6525070726825178
 20
1.511520323474897
 30
0.0
  0
VERTEX
  5
3855
330
384F
100
AcDbEntity
  8
0
100
AcDbVertex
100
AcDb2dVertex
 10
-0.5481481039825198
 20
1.511520323474897
 30
0.0
  0
VERTEX
  5
3856
330
384F
100
AcDbEntity
  8
0
100
AcDbVertex
100
AcDb2dVertex
 10
-0.4466551444825271
 20
1.471624051274901
 30
0.0
  0
VERTEX
  5
3857
330
384F
100
AcDbEntity
  8
0
100
AcDbVertex
100
AcDb2dVertex
 10
-0.3638058027825153
 20
1.399140137774892
 30
0.0
  0
VERTEX
  5
3858
330
384F
100
AcDbEntity
  8
0
100
AcDbVertex
100
AcDb2dVertex
 10
-0.310471616682527
 20
1.30312105267491
 30
0.0
  0
VERTEX
  5
3859
330
384F
100
AcDbEntity
  8
0
100
AcDbVertex
100
AcDb2dVertex
 10
-0.2924460875825119
 20
1.199325824774902
 30
0.0
  0
SEQEND
  5
385A
330
384F
100
AcDbEntity
  8
0
  0
POLYLINE
  5
385B
330
17
100
AcDbEntity
  8
0
100
AcDb2dPolyline
 66
     1
 10
0.0
 20
0.0
 30
0.0
  0
VERTEX
  5
385C
330
385B
100
AcDbEntity
  8
0
100
AcDbVertex
100
AcDb2dVertex
 10
-0.7229234111825136
 20
1.199325824774902
 30
0.0
  0
VERTEX
  5
385D
330
385B
100
AcDbEntity
  8
0
100
AcDbVertex
100
AcDb2dVertex
 10
-0.7116430219825176
 20
1.269228043274907
 30
0.0
  0
VERTEX
  5
385E
330
385B
100
AcDbEntity
  8
0
100
AcDbVertex
100
AcDb2dVertex
 10
-0.679323525682527
 20
1.32915305897491
 30
0.0
  0
VERTEX
  5
385F
330
385B
100
AcDbEntity
  8
0
100
AcDbVertex
100
AcDb2dVertex
 10
-0.6288685540825228
 20
1.369365054574885
 30
0.0
  0
VERTEX
  5
3860
330
385B
100
AcDbEntity
  8
0
100
AcDbVertex
100
AcDb2dVertex
 10
-0.5673819332825261
 20
1.383825824774888
 30
0.0
  0
VERTEX
  5
3861
330
385B
100
AcDbEntity
  8
0
100
AcDbVertex
100
AcDb2dVertex
 10
-0.5040680284825286
 20
1.369365054574885
 30
0.0
  0
VERTEX
  5
3862
330
385B
100
AcDbEntity
  8
0
100
AcDbVertex
100
AcDb2dVertex
 10
-0.4492190695825187
 20
1.32915305897491
 30
0.0
  0
VERTEX
  5
3863
330
385B
100
AcDbEntity
  8
0
100
AcDbVertex
100
AcDb2dVertex
 10
-0.4125976830825167
 20
1.269228043274907
 30
0.0
  0
VERTEX
  5
3864
330
385B
100
AcDbEntity
  8
0
100
AcDbVertex
100
AcDb2dVertex
 10
-0.3995260588825218
 20
1.199325824774902
 30
0.0
  0
SEQEND
  5
3865
330
385B
100
AcDbEntity
  8
0
  0
POLYLINE
  5
3866
330
17
100
AcDbEntity
  8
0
100
AcDb2dPolyline
 66
     1
 10
0.0
 20
0.0
 30
0.0
  0
VERTEX
  5
3867
330
3866
100
AcDbEntity
  8
0
100
AcDbVertex
100
AcDb2dVertex
 10
-0.667623058982521
 20
1.199325824774902
 30
0.0
  0
VERTEX
  5
3868
330
3866
100
AcDbEntity
  8
0
100
AcDbVertex
100
AcDb2dVertex
 10
-0.6582756324825212
 20
1.257100459074891
 30
0.0
  0
VERTEX
  5
3869
330
3866
100
AcDbEntity
  8
0
100
AcDbVertex
100
AcDb2dVertex
 10
-0.6319966681825307
 20
1.305842279374886
 30
0.0
  0
VERTEX
  5
386A
330
3866
100
AcDbEntity
  8
0
100
AcDbVertex
100
AcDb2dVertex
 10
-0.5919441276825168
 20
1.337949841974889
 30
0.0
  0
VERTEX
  5
386B
330
3866
100
AcDbEntity
  8
0
100
AcDbVertex
100
AcDb2dVertex
 10
-0.5441700998825141
 20
1.349325824774908
 30
0.0
  0
VERTEX
  5
386C
330
3866
100
AcDbEntity
  8
0
100
AcDbVertex
100
AcDb2dVertex
 10
-0.4952636249825205
 20
1.337949841974889
 30
0.0
  0
VERTEX
  5
386D
330
3866
100
AcDbEntity
  8
0
100
AcDbVertex
100
AcDb2dVertex
 10
-0.4524332887825225
 20
1.305842279374886
 30
0.0
  0
VERTEX
  5
386E
330
3866
100
AcDbEntity
  8
0
100
AcDbVertex
100
AcDb2dVertex
 10
-0.4233657044825137
 20
1.257100459074891
 30
0.0
  0
VERTEX
  5
386F
330
3866
100
AcDbEntity
  8
0
100
AcDbVertex
100
AcDb2dVertex
 10
-0.4128331572825133
 20
1.199325824774902
 30
0.0
  0
SEQEND
  5
3870
330
3866
100
AcDbEntity
  8
0
  0
POLYLINE
  5
3871
330
17
100
AcDbEntity
  8
0
100
AcDb2dPolyline
 66
     1
 10
0.0
 20
0.0
 30
0.0
  0
VERTEX
  5
3872
330
3871
100
AcDbEntity
  8
0
100
AcDbVertex
100
AcDb2dVertex
 10
-0.667623058982521
 20
1.199325824774902
 30
0.0
  0
VERTEX
  5
3873
330
3871
100
AcDbEntity
  8
0
100
AcDbVertex
100
AcDb2dVertex
 10
-0.6582756324825212
 20
1.141551190474885
 30
0.0
  0
VERTEX
  5
3874
330
3871
100
AcDbEntity
  8
0
100
AcDbVertex
100
AcDb2dVertex
 10
-0.6319966681825307
 20
1.09280937017489
 30
0.0
  0
VERTEX
  5
3875
330
3871
100
AcDbEntity
  8
0
100
AcDbVertex
100
AcDb2dVertex
 10
-0.5919441276825168
 20
1.060701807474899
 30
0.0
  0
VERTEX
  5
3876
330
3871
100
AcDbEntity
  8
0
100
AcDbVertex
100
AcDb2dVertex
 10
-0.5441700998825141
 20
1.049325824774896
 30
0.0
  0
VERTEX
  5
3877
330
3871
100
AcDbEntity
  8
0
100
AcDbVertex
100
AcDb2dVertex
 10
-0.4952636249825205
 20
1.060701807474899
 30
0.0
  0
VERTEX
  5
3878
330
3871
100
AcDbEntity
  8
0
100
AcDbVertex
100
AcDb2dVertex
 10
-0.4524332887825225
 20
1.09280937017489
 30
0.0
  0
VERTEX
  5
3879
330
3871
100
AcDbEntity
  8
0
100
AcDbVertex
100
AcDb2dVertex
 10
-0.4233657044825137
 20
1.141551190474885
 30
0.0
  0
VERTEX
  5
387A
330
3871
100
AcDbEntity
  8
0
100
AcDbVertex
100
AcDb2dVertex
 10
-0.4128331572825133
 20
1.199325824774902
 30
0.0
  0
SEQEND
  5
387B
330
3871
100
AcDbEntity
  8
0
  0
POLYLINE
  5
387C
330
17
100
AcDbEntity
  8
0
100
AcDb2dPolyline
 66
     1
 10
0.0
 20
0.0
 30
0.0
  0
VERTEX
  5
387D
330
387C
100
AcDbEntity
  8
0
100
AcDbVertex
100
AcDb2dVertex
 10
-0.7229234111825136
 20
1.199325824774902
 30
0.0
  0
VERTEX
  5
387E
330
387C
100
AcDbEntity
  8
0
100
AcDbVertex
100
AcDb2dVertex
 10
-0.7116430219825176
 20
1.129423606274897
 30
0.0
  0
VERTEX
  5
387F
330
387C
100
AcDbEntity
  8
0
100
AcDbVertex
100
AcDb2dVertex
 10
-0.679323525682527
 20
1.069498590474907
 30
0.0
  0
VERTEX
  5
3880
330
387C
100
AcDbEntity
  8
0
100
AcDbVertex
100
AcDb2dVertex
 10
-0.6288685540825228
 20
1.029286594874903
 30
0.0
  0
VERTEX
  5
3881
330
387C
100
AcDbEntity
  8
0
100
AcDbVertex
100
AcDb2dVertex
 10
-0.5673819332825261
 20
1.014825824774888
 30
0.0
  0
VERTEX
  5
3882
330
387C
100
AcDbEntity
  8
0
100
AcDbVertex
100
AcDb2dVertex
 10
-0.5040680284825286
 20
1.029286594874903
 30
0.0
  0
VERTEX
  5
3883
330
387C
100
AcDbEntity
  8
0
100
AcDbVertex
100
AcDb2dVertex
 10
-0.4492190695825187
 20
1.069498590474907
 30
0.0
  0
VERTEX
  5
3884
330
387C
100
AcDbEntity
  8
0
100
AcDbVertex
100
AcDb2dVertex
 10
-0.4125976830825167
 20
1.129423606274897
 30
0.0
  0
VERTEX
  5
3885
330
387C
100
AcDbEntity
  8
0
100
AcDbVertex
100
AcDb2dVertex
 10
-0.3995260588825218
 20
1.199325824774902
 30
0.0
  0
SEQEND
  5
3886
330
387C
100
AcDbEntity
  8
0
  0
POLYLINE
  5
3887
330
17
100
AcDbEntity
  8
0
100
AcDb2dPolyline
 66
     1
 10
0.0
 20
0.0
 30
0.0
  0
VERTEX
  5
3888
330
3887
100
AcDbEntity
  8
0
100
AcDbVertex
100
AcDb2dVertex
 10
-0.2924460875825119
 20
1.199325824774902
 30
0.0
  0
VERTEX
  5
3889
330
3887
100
AcDbEntity
  8
0
100
AcDbVertex
100
AcDb2dVertex
 10
-0.310471616682527
 20
1.095530596874894
 30
0.0
  0
VERTEX
  5
388A
330
3887
100
AcDbEntity
  8
0
100
AcDbVertex
100
AcDb2dVertex
 10
-0.3638058027825153
 20
0.9995115116748962
 30
0.0
  0
VERTEX
  5
388B
330
3887
100
AcDbEntity
  8
0
100
AcDbVertex
100
AcDb2dVertex
 10
-0.4466551444825271
 20
0.9270275981748881
 30
0.0
  0
VERTEX
  5
388C
330
3887
100
AcDbEntity
  8
0
100
AcDbVertex
100
AcDb2dVertex
 10
-0.5481481039825198
 20
0.8871313259748916
 30
0.0
  0
VERTEX
  5
388D
330
3887
100
AcDbEntity
  8
0
100
AcDbVertex
100
AcDb2dVertex
 10
-0.6525070726825178
 20
0.8871313259748916
 30
0.0
  0
VERTEX
  5
388E
330
3887
100
AcDbEntity
  8
0
100
AcDbVertex
100
AcDb2dVertex
 10
-0.7451984706825172
 20
0.9270275981748881
 30
0.0
  0
VERTEX
  5
388F
330
3887
100
AcDbEntity
  8
0
100
AcDbVertex
100
AcDb2dVertex
 10
-0.8150722157825285
 20
0.9995115116748962
 30
0.0
  0
VERTEX
  5
3890
330
3887
100
AcDbEntity
  8
0
100
AcDbVertex
100
AcDb2dVertex
 10
-0.85748888618253
 20
1.095530596874894
 30
0.0
  0
VERTEX
  5
3891
330
3887
100
AcDbEntity
  8
0
100
AcDbVertex
100
AcDb2dVertex
 10
-0.8713880594825198
 20
1.199325824774902
 30
0.0
  0
SEQEND
  5
3892
330
3887
100
AcDbEntity
  8
0
  0
LINE
  5
3961
330
17
100
AcDbEntity
  8
0
100
AcDbLine
 10
-0.8849435845848319
 20
1.641625824774898
 30
0.0
 11
0.9267942548237186
 21
1.641625824774898
 31
0.0
  0
LINE
  5
3962
330
17
100
AcDbEntity
  8
0
100
AcDbLine
 10
-0.884943584584839
 20
1.875889176928865
 30
0.0
 11
0.9267942548237186
 21
1.875889176928865
 31
0.0
  0
LINE
  5
3963
330
17
100
AcDbEntity
  8
0
100
AcDbLine
 10
-0.8362612765274377
 20
3.501625824774855
 30
0.0
 11
0.9268929774581096
 21
3.501625824774855
 31
0.0
  0
LWPOLYLINE
  5
3964
330
17
100
AcDbEntity
  8
0
100
AcDbPolyline
 90
       10
 70
     0
 43
0.0
 10
-0.9790588652848413
 20
3.292132994174856
 10
-0.9788324453848389
 20
3.330912552874856
 10
-0.9779099069848413
 20
3.367150362074859
 10
-0.9755924052848428
 20
3.400145941874853
 10
-0.9709545987848429
 20
3.429774859374859
 10
-0.9630800521848428
 20
3.454964567874853
 10
-0.9512348241848442
 20
3.474956025574854
 10
-0.9344832041848434
 20
3.489686716774855
 10
-0.9123141444848457
 20
3.498662444874852
 10
-0.884943584584839
 20
3.501625824774855
  0
LWPOLYLINE
  5
3965
330
17
100
AcDbEntity
  8
0
100
AcDbPolyline
 90
       11
 70
     0
 43
0.0
 10
-0.9790747388848402
 20
3.240114464474906
 10
-0.9790588652848413
 20
3.320140163574905
 10
-0.9788324453848389
 20
3.397699280974904
 10
-0.9779099069848413
 20
3.47017489937491
 10
-0.9755924052848428
 20
3.536166058974913
 10
-0.9709545987848429
 20
3.59542389397491
 10
-0.9630800521848428
 20
3.64580331087491
 10
-0.9512348241848442
 20
3.685786226274913
 10
-0.9344832041848434
 20
3.715247608674907
 10
-0.9123141444848457
 20
3.733199064974911
 10
-0.884943584584839
 20
3.739125824774909
  0
LWPOLYLINE
  5
3966
330
17
100
AcDbEntity
  8
0
100
AcDbPolyline
 90
       10
 70
     0
 43
0.0
 10
-0.884943584584839
 20
1.875889176928865
 10
-0.9123141473848406
 20
1.878852557528865
 10
-0.9344832086848384
 20
1.887828287728865
 10
-0.9512348290848464
 20
1.90255898222886
 10
-0.9630800566848378
 20
1.922550444328862
 10
-0.9709546022848414
 20
1.947740158228867
 10
-0.9755924075848412
 20
1.977369081628864
 10
-0.9779099081848414
 20
2.010364667628863
 10
-0.9788324457848389
 20
2.046602483528864
 10
-0.9790588653848431
 20
2.085382048628865
  0
LWPOLYLINE
  5
3967
330
17
100
AcDbEntity
  8
0
100
AcDbPolyline
 90
       11
 70
     0
 43
0.0
 10
-0.884943584584839
 20
1.641625824774898
 10
-0.9123141473848406
 20
1.647552585974899
 10
-0.9344832086848384
 20
1.665504046374898
 10
-0.9512348290848464
 20
1.694965435374896
 10
-0.9630800566848378
 20
1.7349483595749
 10
-0.9709546022848414
 20
1.785327787374896
 10
-0.9755924075848412
 20
1.844585634074896
 10
-0.9779099081848414
 20
1.910576806174901
 10
-0.9788324457848389
 20
1.983052437974905
 10
-0.9790588653848431
 20
2.060611568074897
 10
-0.9790747388848402
 20
2.140637277874901
  0
LWPOLYLINE
  5
3968
330
17
100
AcDbEntity
  8
0
100
AcDbPolyline
 90
       11
 70
     0
 43
0.0
 10
0.9268929774581096
 20
3.739125824774909
 10
0.9542635432581079
 20
3.733199062174904
 10
0.9764326062581147
 20
3.715247597374904
 10
0.9931842271581103
 20
3.685786201474904
 10
1.005029454358108
 20
3.645803267774908
 10
1.012903998958108
 20
3.595423828574908
 10
1.017541802958113
 20
3.536165969274904
 10
1.019859302358113
 20
3.470174783874902
 10
1.020781839158111
 20
3.39769913797491
 10
1.021008258258106
 20
3.320139994274903
 10
1.02102413175811
 20
3.240114273074908
  0
LWPOLYLINE
  5
3969
330
17
100
AcDbEntity
  8
0
100
AcDbPolyline
 90
       10
 70
     0
 43
0.0
 10
0.9268929774581096
 20
3.501625824774855
 10
0.9542635432581079
 20
3.498662443474856
 10
0.9764326062581147
 20
3.489686711074853
 10
0.9931842271581103
 20
3.474956013074859
 10
1.005029454358108
 20
3.454964546274851
 10
1.012903998958108
 20
3.429774826674858
 10
1.017541802958113
 20
3.40014589707485
 10
1.019859302358113
 20
3.36715030437486
 10
1.020781839158111
 20
3.330912481374852
 10
1.021008258258106
 20
3.29213290957486
  0
LWPOLYLINE
  5
396A
330
17
100
AcDbEntity
  8
0
100
AcDbPolyline
 90
       10
 70
     0
 43
0.0
 10
1.020909535623715
 20
2.085382041928866
 10
1.020683115923723
 20
2.046602477928864
 10
1.019760578323719
 20
2.010364663128861
 10
1.017443077523722
 20
1.977369078028864
 10
1.012805272023719
 20
1.947740155628864
 10
1.004930726223719
 20
1.922550442628867
 10
0.9930854985237189
 20
1.902558981228864
 10
0.976333878123718
 20
1.887828287328865
 10
0.9541648171237184
 20
1.878852557428864
 10
0.9267942548237186
 20
1.875889176928865
  0
LWPOLYLINE
  5
396B
330
17
100
AcDbEntity
  8
0
100
AcDbPolyline
 90
       11
 70
     0
 43
0.0
 10
1.020925409123719
 20
2.140637262874896
 10
1.020909535623715
 20
2.060611554774894
 10
1.020683115923723
 20
1.983052426674902
 10
1.019760578323719
 20
1.910576797074895
 10
1.017443077523722
 20
1.844585627074899
 10
1.012805272023719
 20
1.785327782174896
 10
1.004930726223719
 20
1.734948356174896
 10
0.9930854985237189
 20
1.694965433374903
 10
0.976333878123718
 20
1.665504045474904
 10
0.9541648171237184
 20
1.647552585774896
 10
0.9267942548237186
 20
1.641625824774898
  0
LINE
  5
396C
330
17
100
AcDbEntity
  8
0
100
AcDbLine
 10
1.020925261115216
 20
3.200114273074909
 30
0.0
 11
1.02092525639658
 21
2.914366969666687
 31
0.0
  0
LINE
  5
396D
330
17
100
AcDbEntity
  8
0
100
AcDbLine
 10
1.020925248875059
 20
2.458884688415992
 30
0.0
 11
1.020925244805894
 21
2.212466967668191
 31
0.0
  0
LINE
  5
396E
330
17
100
AcDbEntity
  8
0
100
AcDbLine
 10
-0.8414192675026299
 20
3.736162444874906
 30
0.0
 11
0.9268929774581096
 21
3.739125824774909
 31
0.0
  0
LINE
  5
396F
330
17
100
AcDbEntity
  8
0
100
AcDbLine
 10
-0.9790747388848402
 20
2.140637277874901
 30
0.0
 11
-0.9790747388848473
 21
2.45888467453043
 31
0.0
  0
LINE
  5
3970
330
17
100
AcDbEntity
  8
0
100
AcDbLine
 10
-0.9790747388848473
 20
2.914366975019383
 30
0.0
 11
-0.9790747388848402
 21
3.240114464474906
 31
0.0
  0
LINE
  5
3971
330
17
100
AcDbEntity
  8
0
100
AcDbLine
 10
-0.9790747388848473
 20
2.914366975019383
 30
0.0
 11
-0.9790747388848473
 21
2.458884674530416
 31
0.0
  0
LINE
  5
3972
330
17
100
AcDbEntity
  8
0
100
AcDbLine
 10
1.02092525639658
 20
2.914366969666687
 30
0.0
 11
1.020925248875059
 21
2.458884688415992
 31
0.0
  0
ARC
  5
3982
330
17
100
AcDbEntity
  8
0
100
AcDbCircle
 10
0.0209252611150106
 20
2.592875824774907
 30
0.0
 40
0.46875
100
AcDbArc
 50
180.0
 51
0.0
  0
ARC
  5
3983
330
17
100
AcDbEntity
  8
0
100
AcDbCircle
 10
0.0209252611150106
 20
2.780375824774907
 30
0.0
 40
0.46875
100
AcDbArc
 50
0.0
 51
180.0
  0
LINE
  5
3984
330
17
100
AcDbEntity
  8
0
100
AcDbLine
 10
-0.4478247388849859
 20
2.780375824774907
 30
0.0
 11
-0.4478247388849859
 21
2.592875824774907
 31
0.0
  0
LINE
  5
3985
330
17
100
AcDbEntity
  8
0
100
AcDbLine
 10
0.4896752611150106
 20
2.780375824774907
 30
0.0
 11
0.4896752611150106
 21
2.592875824774907
 31
0.0
  0
CIRCLE
  5
3A6E
330
17
100
AcDbEntity
  8
0
100
AcDbCircle
 10
0.0209252611150141
 20
2.686625824774907
 30
0.0
 40
0.46875
  0
ENDSEC
  0
SECTION
  2
OBJECTS
  0
DICTIONARY
  5
C
330
0
100
AcDbDictionary
281
     1
  3
ACAD_COLOR
350
28FA
  3
ACAD_GROUP
350
D
  3
ACAD_LAYOUT
350
47B
  3
ACAD_MATERIAL
350
28F9
  3
ACAD_MLINESTYLE
350
1A
  3
ACAD_PLOTSETTINGS
350
47C
  3
ACAD_PLOTSTYLENAME
350
479
  3
ACAD_TABLESTYLE
350
28FB
  3
ACDBHEADERROUNDTRIPXREC
350
3B2F
  3
ACDBVARIABLEDICTIONARY
350
49
  0
DICTIONARY
  5
2ABF
330
2
100
AcDbDictionary
280
     1
281
     1
  3
ACAD_LAYERFILTERS
360
2F66
  3
ACAD_LAYERSTATES
360
2C63
  3
ACLYDICTIONARY
360
2F65
  0
DICTIONARY
  5
7D0
330
17
100
AcDbDictionary
280
     1
281
     1
  3
ACAD_LAYOUTSELFREF
360
1071
  3
ACAD_SORTENTS
360
2D11
  0
DICTIONARY
  5
7CE
330
14
100
AcDbDictionary
280
     1
281
     1
  3
ACAD_LAYOUTSELFREF
360
1070
  0
DICTIONARY
  5
28FA
102
{ACAD_REACTORS
330
C
102
}
330
C
100
AcDbDictionary
281
     1
  0
DICTIONARY
  5
D
102
{ACAD_REACTORS
330
C
102
}
330
C
100
AcDbDictionary
281
     1
  0
DICTIONARY
  5
47B
102
{ACAD_REACTORS
330
C
102
}
330
C
100
AcDbDictionary
281
     1
  3
Layout1
350
47E
  3
Model
350
47D
  0
DICTIONARY
  5
28F9
102
{ACAD_REACTORS
330
C
102
}
330
C
100
AcDbDictionary
281
     1
  0
DICTIONARY
  5
1A
102
{ACAD_REACTORS
330
C
102
}
330
C
100
AcDbDictionary
281
     1
  3
STANDARD
350
1B
  0
DICTIONARY
  5
47C
102
{ACAD_REACTORS
330
C
102
}
330
C
100
AcDbDictionary
281
     1
  0
ACDBDICTIONARYWDFLT
  5
479
102
{ACAD_REACTORS
330
C
102
}
330
C
100
AcDbDictionary
281
     1
  3
Normal
350
47A
100
AcDbDictionaryWithDefault
340
47A
  0
DICTIONARY
  5
28FB
102
{ACAD_REACTORS
330
C
102
}
330
C
100
AcDbDictionary
281
     1
  3
Standard
350
28FC
  0
DICTIONARY
  5
3B2F
102
{ACAD_REACTORS
330
C
102
}
330
C
100
AcDbDictionary
281
     1
  0
DICTIONARY
  5
49
102
{ACAD_REACTORS
330
C
102
}
330
C
100
AcDbDictionary
281
     1
  3
CTABLESTYLE
350
2AA3
  3
DIMADEC
350
4A
  3
DIMASSOC
350
708
  3
PROJECTNAME
350
2F3C
  0
DICTIONARY
  5
2F66
102
{ACAD_REACTORS
330
2ABF
102
}
330
2ABF
100
AcDbDictionary
281
     1
  0
DICTIONARY
  5
2C63
102
{ACAD_REACTORS
330
2ABF
102
}
330
2ABF
100
AcDbDictionary
281
     1
  0
DICTIONARY
  5
2F65
102
{ACAD_REACTORS
330
2ABF
102
}
330
2ABF
100
AcDbDictionary
281
     1
1001
ACAD
1000
<All
  0
XRECORD
  5
1071
102
{ACAD_REACTORS
330
7D0
102
}
330
7D0
100
AcDbXrecord
280
     1
340
17
  0
SORTENTSTABLE
  5
2D11
102
{ACAD_REACTORS
330
7D0
102
}
330
7D0
100
AcDbSortentsTable
330
17
331
3765
  5
3765
331
376D
  5
376D
331
385B
  5
385B
331
3775
  5
3775
331
3962
  5
3962
331
396A
  5
396A
331
377D
  5
377D
331
3972
  5
3972
331
3785
  5
3785
331
3982
  5
3982
331
378D
  5
378D
331
3766
  5
3766
331
3776
  5
3776
331
3963
  5
3963
331
382D
  5
382D
331
396B
  5
396B
331
377E
  5
377E
331
3786
  5
3786
331
3983
  5
3983
331
387C
  5
387C
331
3767
  5
3767
331
3777
  5
3777
331
3964
  5
3964
331
396C
  5
396C
331
377F
  5
377F
331
3787
  5
3787
331
3984
  5
3984
331
3817
  5
3817
331
3768
  5
3768
331
3866
  5
3866
331
3965
  5
3965
331
396D
  5
396D
331
3A7
  5
3A7
331
3778
  5
3778
331
3780
  5
3780
331
3788
  5
3788
331
3985
  5
3985
331
384F
  5
384F
331
3769
  5
3769
331
3966
  5
3966
331
396E
  5
396E
331
400
  5
400
331
3779
  5
3779
331
3781
  5
3781
331
3838
  5
3838
331
3789
  5
3789
331
3887
  5
3887
331
376A
  5
376A
331
3772
  5
3772
331
3967
  5
3967
331
396F
  5
396F
331
377A
  5
377A
331
3782
  5
3782
331
378A
  5
378A
331
376B
  5
376B
331
3822
  5
3822
331
3773
  5
3773
331
3968
  5
3968
331
377B
  5
377B
331
3970
  5
3970
331
3783
  5
3783
331
3871
  5
3871
331
378B
  5
378B
331
380B
  5
380B
331
376C
  5
376C
331
3774
  5
3774
331
3961
  5
3961
331
3969
  5
3969
331
377C
  5
377C
331
3971
  5
3971
331
3784
  5
3784
331
378C
  5
378C
331
3843
  5
3843
  0
XRECORD
  5
1070
102
{ACAD_REACTORS
330
7CE
102
}
330
7CE
100
AcDbXrecord
280
     1
340
14
  0
LAYOUT
  5
47E
102
{ACAD_XDICTIONARY
360
3B32
102
}
102
{ACAD_REACTORS
330
47B
102
}
330
47B
100
AcDbPlotSettings
  1

  2
hp psc 2100 series
  4

  6

 40
0.0
 41
0.0
 42
0.0
 43
0.0
 44
0.0
 45
0.0
 46
0.0
 47
0.0
 48
0.0
 49
0.0
140
0.0
141
0.0
142
1.0
143
1.0
 70
   688
 72
     0
 73
     0
 74
     5
  7
monochrome.ctb
 75
    16
147
1.0
148
0.0
149
0.0
100
AcDbLayout
  1
Layout1
 70
     0
 71
     1
 10
0.0
 20
0.0
 11
12.0
 21
9.0
 12
0.0
 22
0.0
 32
0.0
 14
1.000000000000000E+20
 24
1.000000000000000E+20
 34
1.000000000000000E+20
 15
-1.000000000000000E+20
 25
-1.000000000000000E+20
 35
-1.000000000000000E+20
146
0.0
 13
0.0
 23
0.0
 33
0.0
 16
1.0
 26
0.0
 36
0.0
 17
0.0
 27
1.0
 37
0.0
 76
     0
330
14
  0
LAYOUT
  5
47D
102
{ACAD_XDICTIONARY
360
3B30
102
}
102
{ACAD_REACTORS
330
47B
102
}
330
47B
100
AcDbPlotSettings
  1

  2
HP LaserJet 2100 Series PS
  4
Letter
  6

 40
5.365749835968017
 41
5.408073902130126
 42
5.132904052734375
 43
5.090576171875
 44
215.8999938964844
 45
279.3999938964844
 46
0.0
 47
0.0
 48
0.0
 49
0.0
140
0.0
141
0.0
142
1.0
143
3.967254253308121
 70
 11952
 72
     0
 73
     0
 74
     2
  7
monochrome.ctb
 75
     0
147
0.2520635018958373
148
0.0
149
0.0
100
AcDbLayout
  1
Model
 70
     1
 71
     0
 10
0.0
 20
0.0
 11
12.0
 21
9.0
 12
0.0
 22
0.0
 32
0.0
 14
0.0
 24
0.0
 34
0.0
 15
0.0
 25
0.0
 35
0.0
146
0.0
 13
0.0
 23
0.0
 33
0.0
 16
1.0
 26
0.0
 36
0.0
 17
0.0
 27
1.0
 37
0.0
 76
     0
330
17
1001
ACAD_PSEXT
1000
HP LaserJet 2100 Series PS
1000
HP LaserJet 2100 Series PS
1000
LPT1:
1000

1070
     0
  0
MLINESTYLE
  5
1B
102
{ACAD_REACTORS
330
1A
102
}
330
1A
100
AcDbMlineStyle
  2
STANDARD
 70
     0
  3

 62
   256
 51
90.0
 52
90.0
 71
     2
 49
0.5
 62
   256
  6
BYLAYER
 49
-0.5
 62
   256
  6
BYLAYER
  0
ACDBPLACEHOLDER
  5
47A
102
{ACAD_REACTORS
330
479
102
}
330
479
  0
TABLESTYLE
  5
28FC
102
{ACAD_REACTORS
330
28FB
102
}
330
28FB
100
AcDbTableStyle
  3
Standard
 70
     0
 71
     0
 40
0.06
 41
0.06
280
     0
281
     0
  7
STANDARD
140
0.18
170
     2
 62
     0
 63
     7
283
     0
274
    -2
284
     1
 64
     0
275
    -2
285
     1
 65
     0
276
    -2
286
     1
 66
     0
277
    -2
287
     1
 67
     0
278
    -2
288
     1
 68
     0
279
    -2
289
     1
 69
     0
  7
STANDARD
140
0.25
170
     5
 62
     0
 63
     7
283
     0
274
    -2
284
     1
 64
     0
275
    -2
285
     1
 65
     0
276
    -2
286
     1
 66
     0
277
    -2
287
     1
 67
     0
278
    -2
288
     1
 68
     0
279
    -2
289
     1
 69
     0
  7
STANDARD
140
0.18
170
     5
 62
     0
 63
     7
283
     0
274
    -2
284
     1
 64
     0
275
    -2
285
     1
 65
     0
276
    -2
286
     1
 66
     0
277
    -2
287
     1
 67
     0
278
    -2
288
     1
 68
     0
279
    -2
289
     1
 69
     0
  0
DICTIONARYVAR
  5
2AA3
102
{ACAD_REACTORS
330
49
102
}
330
49
100
DictionaryVariables
280
     0
  1
STANDARD
  0
DICTIONARYVAR
  5
4A
102
{ACAD_REACTORS
330
49
102
}
330
49
100
DictionaryVariables
280
     0
  1
0
  0
DICTIONARYVAR
  5
708
102
{ACAD_REACTORS
330
49
102
}
330
49
100
DictionaryVariables
280
     0
  1
0
  0
DICTIONARYVAR
  5
2F3C
102
{ACAD_REACTORS
330
49
102
}
330
49
100
DictionaryVariables
280
     0
  1

  0
DICTIONARY
  5
3B32
330
47E
100
AcDbDictionary
280
     1
281
     1
  3
ACAD_XREC_ROUNDTRIP
360
3B33
  0
DICTIONARY
  5
3B30
330
47D
100
AcDbDictionary
280
     1
281
     1
  3
ACAD_XREC_ROUNDTRIP
360
3B31
  0
XRECORD
  5
3B33
102
{ACAD_REACTORS
330
3B32
102
}
330
3B32
100
AcDbXrecord
280
     1
102
SHADEPLOT
 70
     0
102
SHADEPLOTRESLEVEL
 70
     2
102
SHADEPLOTCUSTOMDPI
 70
   300
  0
XRECORD
  5
3B31
102
{ACAD_REACTORS
330
3B30
102
}
330
3B30
100
AcDbXrecord
280
     1
102
SHADEPLOT
 70
     0
102
SHADEPLOTRESLEVEL
 70
     2
102
SHADEPLOTCUSTOMDPI
 70
   300
  0
ENDSEC
  0
EOF
