  0
SECTION
  2
HEADER
  9
$ACADVER
  1
AC1015
  9
$ACADMAINTVER
 70
    20
  9
$DWGCODEPAGE
  3
ANSI_1252
  9
$INSBASE
 10
0.0
 20
0.0
 30
0.0
  9
$EXTMIN
 10
-9.72554014149659
 20
-0.0693807716974979
 30
0.0
  9
$EXTMAX
 10
9.72554014149659
 20
21.46822099578324
 30
0.0
  9
$LIMMIN
 10
0.0
 20
0.0
  9
$LIMMAX
 10
32.0
 20
42.0
  9
$ORTHOMODE
 70
     1
  9
$REGENMODE
 70
     1
  9
$FILLMODE
 70
     1
  9
$QTEXTMODE
 70
     0
  9
$MIRRTEXT
 70
     0
  9
$LTSCALE
 40
0.5
  9
$ATTMODE
 70
     1
  9
$TEXTSIZE
 40
0.36
  9
$TRACEWID
 40
0.05
  9
$TEXTSTYLE
  7
STANDARD
  9
$CLAYER
  8
0
  9
$CELTYPE
  6
BYLAYER
  9
$CECOLOR
 62
   256
  9
$CELTSCALE
 40
1.0
  9
$DISPSILH
 70
     0
  9
$DIMSCALE
 40
4.0
  9
$DIMASZ
 40
0.1
  9
$DIMEXO
 40
0.062
  9
$DIMDLI
 40
0.375
  9
$DIMRND
 40
0.0
  9
$DIMDLE
 40
0.0
  9
$DIMEXE
 40
0.08
  9
$DIMTP
 40
0.0
  9
$DIMTM
 40
0.0
  9
$DIMTXT
 40
0.075
  9
$DIMCEN
 40
-0.0078125
  9
$DIMTSZ
 40
0.0
  9
$DIMTOL
 70
     0
  9
$DIMLIM
 70
     0
  9
$DIMTIH
 70
     1
  9
$DIMTOH
 70
     1
  9
$DIMSE1
 70
     0
  9
$DIMSE2
 70
     0
  9
$DIMTAD
 70
     0
  9
$DIMZIN
 70
     0
  9
$DIMBLK
  1

  9
$DIMASO
 70
     0
  9
$DIMSHO
 70
     0
  9
$DIMPOST
  1

  9
$DIMAPOST
  1

  9
$DIMALT
 70
     0
  9
$DIMALTD
 70
     2
  9
$DIMALTF
 40
25.4
  9
$DIMLFAC
 40
1.0
  9
$DIMTOFL
 70
     0
  9
$DIMTVP
 40
0.0
  9
$DIMTIX
 70
     0
  9
$DIMSOXD
 70
     0
  9
$DIMSAH
 70
     0
  9
$DIMBLK1
  1

  9
$DIMBLK2
  1

  9
$DIMSTYLE
  2
STANDARD
  9
$DIMCLRD
 70
     0
  9
$DIMCLRE
 70
     0
  9
$DIMCLRT
 70
     0
  9
$DIMTFAC
 40
1.0
  9
$DIMGAP
 40
0.09
  9
$DIMJUST
 70
     0
  9
$DIMSD1
 70
     0
  9
$DIMSD2
 70
     0
  9
$DIMTOLJ
 70
     1
  9
$DIMTZIN
 70
     0
  9
$DIMALTZ
 70
     0
  9
$DIMALTTZ
 70
     0
  9
$DIMUPT
 70
     0
  9
$DIMDEC
 70
     5
  9
$DIMTDEC
 70
     5
  9
$DIMALTU
 70
     2
  9
$DIMALTTD
 70
     2
  9
$DIMTXSTY
  7
STANDARD
  9
$DIMAUNIT
 70
     0
  9
$DIMADEC
 70
     0
  9
$DIMALTRND
 40
0.0
  9
$DIMAZIN
 70
     0
  9
$DIMDSEP
 70
    46
  9
$DIMATFIT
 70
     3
  9
$DIMFRAC
 70
     2
  9
$DIMLDRBLK
  1

  9
$DIMLUNIT
 70
     5
  9
$DIMLWD
 70
    -2
  9
$DIMLWE
 70
    -2
  9
$DIMTMOVE
 70
     2
  9
$LUNITS
 70
     2
  9
$LUPREC
 70
     4
  9
$SKETCHINC
 40
0.1
  9
$FILLETRAD
 40
0.0
  9
$AUNITS
 70
     0
  9
$AUPREC
 70
     0
  9
$MENU
  1
qa
  9
$ELEVATION
 40
0.0
  9
$PELEVATION
 40
0.0
  9
$THICKNESS
 40
0.0
  9
$LIMCHECK
 70
     0
  9
$CHAMFERA
 40
0.4375
  9
$CHAMFERB
 40
0.4375
  9
$CHAMFERC
 40
0.0
  9
$CHAMFERD
 40
0.0
  9
$SKPOLY
 70
     0
  9
$TDCREATE
 40
2452872.401862616
  9
$TDUCREATE
 40
2452872.693529283
  9
$TDUPDATE
 40
2454579.502745463
  9
$TDUUPDATE
 40
2454579.794412130
  9
$TDINDWG
 40
0.6525814236
  9
$TDUSRTIMER
 40
0.6525814236
  9
$USRTIMER
 70
     1
  9
$ANGBASE
 50
0.0
  9
$ANGDIR
 70
     0
  9
$PDMODE
 70
     0
  9
$PDSIZE
 40
0.0
  9
$PLINEWID
 40
0.0
  9
$SPLFRAME
 70
     0
  9
$SPLINETYPE
 70
     6
  9
$SPLINESEGS
 70
     8
  9
$HANDSEED
  5
3B25
  9
$SURFTAB1
 70
     6
  9
$SURFTAB2
 70
     6
  9
$SURFTYPE
 70
     6
  9
$SURFU
 70
     6
  9
$SURFV
 70
     6
  9
$UCSBASE
  2

  9
$UCSNAME
  2

  9
$UCSORG
 10
0.0
 20
0.0
 30
0.0
  9
$UCSXDIR
 10
1.0
 20
0.0
 30
0.0
  9
$UCSYDIR
 10
0.0
 20
1.0
 30
0.0
  9
$UCSORTHOREF
  2

  9
$UCSORTHOVIEW
 70
     0
  9
$UCSORGTOP
 10
0.0
 20
0.0
 30
0.0
  9
$UCSORGBOTTOM
 10
0.0
 20
0.0
 30
0.0
  9
$UCSORGLEFT
 10
0.0
 20
0.0
 30
0.0
  9
$UCSORGRIGHT
 10
0.0
 20
0.0
 30
0.0
  9
$UCSORGFRONT
 10
0.0
 20
0.0
 30
0.0
  9
$UCSORGBACK
 10
0.0
 20
0.0
 30
0.0
  9
$PUCSBASE
  2

  9
$PUCSNAME
  2

  9
$PUCSORG
 10
0.0
 20
0.0
 30
0.0
  9
$PUCSXDIR
 10
1.0
 20
0.0
 30
0.0
  9
$PUCSYDIR
 10
0.0
 20
1.0
 30
0.0
  9
$PUCSORTHOREF
  2

  9
$PUCSORTHOVIEW
 70
     0
  9
$PUCSORGTOP
 10
0.0
 20
0.0
 30
0.0
  9
$PUCSORGBOTTOM
 10
0.0
 20
0.0
 30
0.0
  9
$PUCSORGLEFT
 10
0.0
 20
0.0
 30
0.0
  9
$PUCSORGRIGHT
 10
0.0
 20
0.0
 30
0.0
  9
$PUCSORGFRONT
 10
0.0
 20
0.0
 30
0.0
  9
$PUCSORGBACK
 10
0.0
 20
0.0
 30
0.0
  9
$USERI1
 70
     0
  9
$USERI2
 70
     0
  9
$USERI3
 70
     0
  9
$USERI4
 70
     0
  9
$USERI5
 70
     0
  9
$USERR1
 40
0.0
  9
$USERR2
 40
0.0
  9
$USERR3
 40
0.0
  9
$USERR4
 40
0.0
  9
$USERR5
 40
0.0
  9
$WORLDVIEW
 70
     1
  9
$SHADEDGE
 70
     3
  9
$SHADEDIF
 70
    70
  9
$TILEMODE
 70
     1
  9
$MAXACTVP
 70
    16
  9
$PINSBASE
 10
0.0
 20
0.0
 30
0.0
  9
$PLIMCHECK
 70
     0
  9
$PEXTMIN
 10
1.000000000000000E+20
 20
1.000000000000000E+20
 30
1.000000000000000E+20
  9
$PEXTMAX
 10
-1.000000000000000E+20
 20
-1.000000000000000E+20
 30
-1.000000000000000E+20
  9
$PLIMMIN
 10
0.0
 20
0.0
  9
$PLIMMAX
 10
12.0
 20
9.0
  9
$UNITMODE
 70
     0
  9
$VISRETAIN
 70
     0
  9
$PLINEGEN
 70
     0
  9
$PSLTSCALE
 70
     0
  9
$TREEDEPTH
 70
  3020
  9
$CMLSTYLE
  2
STANDARD
  9
$CMLJUST
 70
     0
  9
$CMLSCALE
 40
1.0
  9
$PROXYGRAPHICS
 70
     1
  9
$MEASUREMENT
 70
     0
  9
$CELWEIGHT
370
    -1
  9
$ENDCAPS
280
     0
  9
$JOINSTYLE
280
     0
  9
$LWDISPLAY
290
     0
  9
$INSUNITS
 70
     0
  9
$HYPERLINKBASE
  1

  9
$STYLESHEET
  1
monochrome.ctb
  9
$XEDIT
290
     1
  9
$CEPSNTYPE
380
     0
  9
$PSTYLEMODE
290
     1
  9
$FINGERPRINTGUID
  2
{3F8EE252-4A01-453C-A5F5-5678F9528411}
  9
$VERSIONGUID
  2
{BDC5664A-2C4D-4EFF-AF64-9526D220A685}
  9
$EXTNAMES
290
     1
  9
$PSVPSCALE
 40
0.0
  9
$OLESTARTUP
290
     0
  0
ENDSEC
  0
SECTION
  2
CLASSES
  0
CLASS
  1
DICTIONARYVAR
  2
AcDbDictionaryVar
  3
ObjectDBX Classes
 90
        0
280
     0
281
     0
  0
CLASS
  1
ACDBDICTIONARYWDFLT
  2
AcDbDictionaryWithDefault
  3
ObjectDBX Classes
 90
        0
280
     0
281
     0
  0
CLASS
  1
ACDBPLACEHOLDER
  2
AcDbPlaceHolder
  3
ObjectDBX Classes
 90
        0
280
     0
281
     0
  0
CLASS
  1
LAYOUT
  2
AcDbLayout
  3
ObjectDBX Classes
 90
        0
280
     0
281
     0
  0
CLASS
  1
TABLESTYLE
  2
AcDbTableStyle
  3
ObjectDBX Classes
 90
     2047
280
     0
281
     0
  0
CLASS
  1
SORTENTSTABLE
  2
AcDbSortentsTable
  3
ObjectDBX Classes
 90
        0
280
     0
281
     0
  0
ENDSEC
  0
SECTION
  2
TABLES
  0
TABLE
  2
VPORT
  5
8
330
0
100
AcDbSymbolTable
 70
     2
  0
VPORT
  5
3B1F
330
8
100
AcDbSymbolTableRecord
100
AcDbViewportTableRecord
  2
*Active
 70
     0
 10
0.0
 20
0.0
 11
1.0
 21
1.0
 12
2.377747620576602
 22
10.56888226827743
 13
0.0
 23
0.0
 14
0.063
 24
0.063
 15
0.25
 25
0.25
 16
0.0
 26
0.0
 36
1.0
 17
0.0
 27
0.0
 37
0.0
 40
23.63019663246675
 41
1.760162601626016
 42
50.0
 43
0.0
 44
0.0
 50
0.0
 51
0.0
 71
     0
 72
   100
 73
     1
 74
     0
 75
     0
 76
     0
 77
     0
 78
     0
281
     0
 65
     1
110
0.0
120
0.0
130
0.0
111
1.0
121
0.0
131
0.0
112
0.0
122
1.0
132
0.0
 79
     0
146
0.0
  0
ENDTAB
  0
TABLE
  2
LTYPE
  5
5
330
0
100
AcDbSymbolTable
 70
     3
  0
LTYPE
  5
11
330
5
100
AcDbSymbolTableRecord
100
AcDbLinetypeTableRecord
  2
BYBLOCK
 70
     0
  3

 72
    65
 73
     0
 40
0.0
  0
LTYPE
  5
12
330
5
100
AcDbSymbolTableRecord
100
AcDbLinetypeTableRecord
  2
BYLAYER
 70
     0
  3

 72
    65
 73
     0
 40
0.0
  0
LTYPE
  5
13
330
5
100
AcDbSymbolTableRecord
100
AcDbLinetypeTableRecord
  2
CONTINUOUS
 70
     0
  3
Solid line
 72
    65
 73
     0
 40
0.0
  0
LTYPE
  5
2B
330
5
100
AcDbSymbolTableRecord
100
AcDbLinetypeTableRecord
  2
HIDDEN
 70
     0
  3
_ _ _ _ _ _ _ _ _ _ _ _ _ _ _ _ _ _ _ _ _ _ _
 72
    65
 73
     2
 40
0.375
 49
0.25
 74
     0
 49
-0.125
 74
     0
  0
LTYPE
  5
302A
330
5
100
AcDbSymbolTableRecord
100
AcDbLinetypeTableRecord
  2
THD
 70
     0
  3
_ _ _ _ _ _ _ _ _ _ _ _ _ _ _ _ _ _ _ _ _ _ _ _
 72
    65
 73
     2
 40
0.15
 49
0.11
 74
     0
 49
-0.04
 74
     0
  0
ENDTAB
  0
TABLE
  2
LAYER
  5
2
102
{ACAD_XDICTIONARY
360
2ABF
102
}
330
0
100
AcDbSymbolTable
 70
     3
  0
LAYER
  5
E
330
2
100
AcDbSymbolTableRecord
100
AcDbLayerTableRecord
  2
0
 70
     0
 62
     7
  6
CONTINUOUS
370
    -3
390
47A
  0
LAYER
  5
37
330
2
100
AcDbSymbolTableRecord
100
AcDbLayerTableRecord
  2
DIM
 70
     0
 62
     5
  6
CONTINUOUS
370
    -3
390
47A
  0
LAYER
  5
2DFD
330
2
100
AcDbSymbolTableRecord
100
AcDbLayerTableRecord
  2
Defpoints
 70
     0
 62
     7
  6
CONTINUOUS
290
     0
370
    -3
390
47A
  0
ENDTAB
  0
TABLE
  2
STYLE
  5
3
330
0
100
AcDbSymbolTable
 70
     1
  0
STYLE
  5
F
330
3
100
AcDbSymbolTableRecord
100
AcDbTextStyleTableRecord
  2
STANDARD
 70
     0
 40
0.0
 41
1.0
 50
0.0
 71
     0
 42
0.36
  3
TXT
  4

  0
ENDTAB
  0
TABLE
  2
VIEW
  5
6
330
0
100
AcDbSymbolTable
 70
     0
  0
ENDTAB
  0
TABLE
  2
UCS
  5
7
330
0
100
AcDbSymbolTable
 70
     0
  0
ENDTAB
  0
TABLE
  2
APPID
  5
9
330
0
100
AcDbSymbolTable
 70
     4
  0
APPID
  5
10
330
9
100
AcDbSymbolTableRecord
100
AcDbRegAppTableRecord
  2
ACAD
 70
     0
  0
APPID
  5
DA7
330
9
100
AcDbSymbolTableRecord
100
AcDbRegAppTableRecord
  2
RAK
 70
     0
  0
APPID
  5
2C62
330
9
100
AcDbSymbolTableRecord
100
AcDbRegAppTableRecord
  2
ACAD_PSEXT
 70
     0
  0
APPID
  5
2C6B
330
9
100
AcDbSymbolTableRecord
100
AcDbRegAppTableRecord
  2
ACAD_DSTYLE_DIMTEXT_FILL
 70
     0
  0
ENDTAB
  0
TABLE
  2
DIMSTYLE
  5
A
330
0
100
AcDbSymbolTable
 70
     1
100
AcDbDimStyleTable
 71
     1
340
465
  0
DIMSTYLE
105
465
330
A
100
AcDbSymbolTableRecord
100
AcDbDimStyleTableRecord
  2
STANDARD
 70
     0
340
F
  0
ENDTAB
  0
TABLE
  2
BLOCK_RECORD
  5
1
330
0
100
AcDbSymbolTable
 70
     0
  0
BLOCK_RECORD
  5
17
102
{ACAD_XDICTIONARY
360
7D0
102
}
330
1
100
AcDbSymbolTableRecord
100
AcDbBlockTableRecord
  2
*MODEL_SPACE
340
47D
  0
BLOCK_RECORD
  5
14
102
{ACAD_XDICTIONARY
360
7CE
102
}
330
1
100
AcDbSymbolTableRecord
100
AcDbBlockTableRecord
  2
*PAPER_SPACE
340
47E
  0
ENDTAB
  0
ENDSEC
  0
SECTION
  2
BLOCKS
  0
BLOCK
  5
47
330
17
100
AcDbEntity
  8
0
100
AcDbBlockBegin
  2
*MODEL_SPACE
 70
     0
 10
0.0
 20
0.0
 30
0.0
  3
*MODEL_SPACE
  1

  0
ENDBLK
  5
48
330
17
100
AcDbEntity
  8
0
100
AcDbBlockEnd
  0
BLOCK
  5
45
330
14
100
AcDbEntity
 67
     1
  8
0
100
AcDbBlockBegin
  2
*PAPER_SPACE
 70
     0
 10
0.0
 20
0.0
 30
0.0
  3
*PAPER_SPACE
  1

  0
ENDBLK
  5
46
330
14
100
AcDbEntity
 67
     1
  8
0
100
AcDbBlockEnd
  0
ENDSEC
  0
SECTION
  2
ENTITIES
  0
TEXT
  5
3A7
330
17
100
AcDbEntity
  8
DIM
100
AcDbText
 10
14.93846334400804
 20
21.0944638759405
 30
0.0
 40
0.36
  1
   
 50
359.9999999999988
 11
14.93846334400805
 21
21.2744638759405
 31
0.0
100
AcDbText
 73
     2
  0
TEXT
  5
400
330
17
100
AcDbEntity
  8
DIM
100
AcDbText
 10
13.55232669162668
 20
10.34149078419336
 30
0.0
 40
0.36
  1
   
 72
     1
 11
14.09232669162668
 21
10.52149078419336
 31
0.0
100
AcDbText
 73
     2
  0
LINE
  5
1ACD
330
17
100
AcDbEntity
  8
0
100
AcDbLine
 10
6.033859369798996
 20
0.000000000000016
 30
0.0
 11
6.03385936979901
 21
1.168968916432051
 31
0.0
  0
LINE
  5
25D0
330
17
100
AcDbEntity
  8
0
100
AcDbLine
 10
6.033859369798868
 20
0.0000000000000018
 30
0.0
 11
6.033859369798868
 21
1.500000000000001
 31
0.0
  0
LINE
  5
25E9
330
17
100
AcDbEntity
  8
0
100
AcDbLine
 10
7.03490936979842
 20
0.13499999999995
 30
0.0
 11
6.65990936979842
 21
0.13499999999995
 31
0.0
  0
LINE
  5
29D5
330
17
100
AcDbEntity
  8
0
  6
HIDDEN
100
AcDbLine
 10
9.521159369799093
 20
12.93749999999987
 30
0.0
 11
9.5211593697991
 21
0.3349999999999955
 31
0.0
  0
LINE
  5
29D8
330
17
100
AcDbEntity
  8
0
100
AcDbLine
 10
1.03125
 20
1.166249999999999
 30
0.0
 11
1.031249999999946
 21
12.93749999999983
 31
0.0
  0
LINE
  5
29D9
330
17
100
AcDbEntity
  8
0
100
AcDbLine
 10
-1.16624999999999
 20
1.166249999999999
 30
0.0
 11
-1.166250000000001
 21
12.93749999999984
 31
0.0
  0
LINE
  5
29DA
330
17
100
AcDbEntity
  8
0
100
AcDbLine
 10
-1.03125
 20
1.166249999999999
 30
0.0
 11
-1.03125
 21
12.93749999999984
 31
0.0
  0
LINE
  5
29DB
330
17
100
AcDbEntity
  8
0
100
AcDbLine
 10
1.16624999999999
 20
1.166249999999999
 30
0.0
 11
1.166249999999918
 21
12.93749999999983
 31
0.0
  0
LINE
  5
29DC
330
17
100
AcDbEntity
  8
0
100
AcDbLine
 10
9.656159369799098
 20
12.93749999999987
 30
0.0
 11
9.656159369799091
 21
0.3349999999999955
 31
0.0
  0
LINE
  5
29DD
330
17
100
AcDbEntity
  8
0
100
AcDbLine
 10
7.321837882027473
 20
5.214218267560612
 30
0.0
 11
7.833659369799086
 21
12.93749999999986
 31
0.0
  0
LINE
  5
29DE
330
17
100
AcDbEntity
  8
0
100
AcDbLine
 10
6.064013059406057
 20
1.714948226669337
 30
0.0
 11
7.2944232447363
 21
5.095472427531648
 31
0.0
  0
LINE
  5
29DF
330
17
100
AcDbEntity
  8
0
100
AcDbLine
 10
-0.1794777784404999
 20
4.95190868771011
 30
0.0
 11
-0.4082555553898857
 21
5.224555425295259
 31
0.0
  0
LINE
  5
29E0
330
17
100
AcDbEntity
  8
0
100
AcDbLine
 10
-0.0544777784404715
 20
4.95190868771011
 30
0.0
 11
-0.2832555553898857
 21
5.224555425295344
 31
0.0
  0
LINE
  5
29E1
330
17
100
AcDbEntity
  8
0
100
AcDbLine
 10
-1.03125
 20
1.166249999999971
 30
0.0
 11
1.03125
 21
1.166249999999971
 31
0.0
  0
LINE
  5
29E2
330
17
100
AcDbEntity
  8
0
100
AcDbLine
 10
-0.971995370359366
 20
0.9312499999999861
 30
0.0
 11
0.971995370359366
 21
0.9312499999999861
 31
0.0
  0
ARC
  5
29E3
330
17
100
AcDbEntity
  8
0
100
AcDbCircle
 10
0.7694440365817173
 20
0.477893511426041
 30
0.0
 40
0.262
100
AcDbArc
 50
56.51917063918638
 51
135.0
  0
ARC
  5
29E4
330
17
100
AcDbEntity
  8
0
100
AcDbCircle
 10
0.7694440365817173
 20
0.477893511426041
 30
0.0
 40
0.125
100
AcDbArc
 50
45.0
 51
135.0
  0
ARC
  5
29E5
330
17
100
AcDbEntity
  8
0
100
AcDbCircle
 10
0.0
 20
1.166249999999999
 30
0.0
 40
1.16625
100
AcDbArc
 50
180.0
 51
0.0
  0
ARC
  5
29E6
330
17
100
AcDbEntity
  8
0
100
AcDbCircle
 10
-0.0000000000000018
 20
1.166249999999999
 30
0.0
 40
1.031249999999998
100
AcDbArc
 50
180.0000000000008
 51
0.0
  0
ARC
  5
29E8
330
17
100
AcDbEntity
  8
0
100
AcDbCircle
 10
-0.0000000000000036
 20
1.166249999999999
 30
0.0
 40
0.781250000000001
100
AcDbArc
 50
359.9999999999979
 51
20.00000000000229
  0
LINE
  5
29E9
330
17
100
AcDbEntity
  8
0
100
AcDbLine
 10
0.7341348599889273
 20
1.433453236973187
 30
0.0
 11
0.0926536896070474
 21
3.195908267602513
 31
0.0
  0
LINE
  5
29EA
330
17
100
AcDbEntity
  8
0
100
AcDbLine
 10
-0.0625
 20
3.366918339265689
 30
0.0
 11
-0.0624999999999858
 21
4.630514882866842
 31
0.0
  0
LINE
  5
29EB
330
17
100
AcDbEntity
  8
0
100
AcDbLine
 10
0.0625
 20
3.366918339265376
 30
0.0
 11
0.0625000000000142
 21
4.63051488286687
 31
0.0
  0
ARC
  5
29EC
330
17
100
AcDbEntity
  8
0
100
AcDbCircle
 10
-0.5625
 20
3.366918339265689
 30
0.0
 40
0.5
100
AcDbArc
 50
339.9999999999999
 51
0.0
  0
ARC
  5
29ED
330
17
100
AcDbEntity
  8
0
100
AcDbCircle
 10
0.5625
 20
3.366918339265376
 30
0.0
 40
0.5
100
AcDbArc
 50
180.0
 51
200.0000000000022
  0
ARC
  5
29EE
330
17
100
AcDbEntity
  8
0
100
AcDbCircle
 10
-0.5624999999999858
 20
4.630514882866842
 30
0.0
 40
0.5
100
AcDbArc
 50
0.0
 51
39.99999999999941
  0
ARC
  5
29EF
330
17
100
AcDbEntity
  8
0
100
AcDbCircle
 10
-0.4374999999999858
 20
4.63051488286687
 30
0.0
 40
0.5
100
AcDbArc
 50
0.0
 51
39.99999999999494
  0
ARC
  5
29F0
330
17
100
AcDbEntity
  8
0
100
AcDbCircle
 10
-0.6810556889333839
 20
0.3895051637777076
 30
0.0
 40
0.125
100
AcDbArc
 50
315.0
 51
45.0
  0
ARC
  5
29F1
330
17
100
AcDbEntity
  8
0
100
AcDbCircle
 10
0.6810556889333839
 20
0.3895051637777076
 30
0.0
 40
0.125
100
AcDbArc
 50
135.0
 51
225.0
  0
ARC
  5
29F2
330
17
100
AcDbEntity
  8
0
100
AcDbCircle
 10
-0.6810556889333839
 20
0.3895051637777076
 30
0.0
 40
0.262
100
AcDbArc
 50
326.5191706391893
 51
45.0
  0
ARC
  5
29F3
330
17
100
AcDbEntity
  8
0
100
AcDbCircle
 10
0.6810556889333839
 20
0.3895051637777076
 30
0.0
 40
0.262
100
AcDbArc
 50
135.0
 51
213.4808293608106
  0
LINE
  5
29F4
330
17
100
AcDbEntity
  8
0
100
AcDbLine
 10
-0.6348835727574738
 20
0.2589005846570647
 30
0.0
 11
-0.6770998042298971
 21
0.2166843531846698
 31
0.0
  0
LINE
  5
29F5
330
17
100
AcDbEntity
  8
0
100
AcDbLine
 10
0.6348835727574738
 20
0.2589005846570647
 30
0.0
 11
0.6770998042298971
 21
0.2166843531846698
 31
0.0
  0
ARC
  5
29F6
330
17
100
AcDbEntity
  8
0
100
AcDbCircle
 10
-0.7694440365817173
 20
0.477893511426041
 30
0.0
 40
0.262
100
AcDbArc
 50
45.0
 51
123.4808293608136
  0
ARC
  5
29F7
330
17
100
AcDbEntity
  8
0
100
AcDbCircle
 10
-0.7694440365817173
 20
0.477893511426041
 30
0.0
 40
0.125
100
AcDbArc
 50
45.0
 51
135.0
  0
LINE
  5
29F8
330
17
100
AcDbEntity
  8
0
100
AcDbLine
 10
-0.5841820599108587
 20
0.6631554880969564
 30
0.0
 11
-0.4957937122625254
 21
0.574767140448623
 31
0.0
  0
LINE
  5
29F9
330
17
100
AcDbEntity
  8
0
100
AcDbLine
 10
-0.6589586020213006
 20
0.5441847721623195
 30
0.0
 11
-0.6147644281971339
 21
0.4999905983381528
 31
0.0
  0
LINE
  5
29FA
330
17
100
AcDbEntity
  8
0
100
AcDbLine
 10
-0.900048615702417
 20
0.524065627602008
 30
0.0
 11
-0.9422648471747834
 21
0.4818493961296131
 31
0.0
  0
LINE
  5
29FB
330
17
100
AcDbEntity
  8
0
100
AcDbLine
 10
-0.9717500000000427
 20
1.457496052584653
 30
0.0
 11
-0.9717500000000427
 21
1.332496052584653
 31
0.0
  0
LINE
  5
29FC
330
17
100
AcDbEntity
  8
0
100
AcDbLine
 10
-1.108750000000043
 20
1.457496052584653
 30
0.0
 11
-1.108750000000043
 21
1.332496052584653
 31
0.0
  0
ARC
  5
29FD
330
17
100
AcDbEntity
  8
0
100
AcDbCircle
 10
-1.233750000000043
 20
1.457496052584682
 30
0.0
 40
0.125
100
AcDbArc
 50
0.0
 51
57.31636115371742
  0
ARC
  5
29FE
330
17
100
AcDbEntity
  8
0
100
AcDbCircle
 10
-1.233750000000043
 20
1.332496052584682
 30
0.0
 40
0.125
100
AcDbArc
 50
302.6836388462824
 51
0.0
  0
ARC
  5
29FF
330
17
100
AcDbEntity
  8
0
100
AcDbCircle
 10
-1.233750000000043
 20
1.457496052584682
 30
0.0
 40
0.262
100
AcDbArc
 50
39.38490570446346
 51
75.07030617871729
  0
ARC
  5
2A00
330
17
100
AcDbEntity
  8
0
100
AcDbCircle
 10
-1.233750000000043
 20
1.332496052584682
 30
0.0
 40
0.262
100
AcDbArc
 50
285.6697407026494
 51
320.6150942955365
  0
LINE
  5
2A01
330
17
100
AcDbEntity
  8
0
100
AcDbLine
 10
0.5841820599108587
 20
0.6631554880969564
 30
0.0
 11
0.4957937122625254
 21
0.574767140448623
 31
0.0
  0
LINE
  5
2A02
330
17
100
AcDbEntity
  8
0
100
AcDbLine
 10
0.6589586020213006
 20
0.5441847721623195
 30
0.0
 11
0.6147644281971339
 21
0.4999905983381528
 31
0.0
  0
LINE
  5
2A03
330
17
100
AcDbEntity
  8
0
100
AcDbLine
 10
0.3320509597227073
 20
0.6387192329450873
 30
0.0
 11
0.3047260606747812
 21
0.7050144072788758
 31
0.0
  0
ARC
  5
2A04
330
17
100
AcDbEntity
  8
0
100
AcDbCircle
 10
-0.0000000000000142
 20
1.444488590706763
 30
0.0
 40
0.9873000000000001
100
AcDbArc
 50
267.8533453546596
 51
272.1466546453438
  0
ARC
  5
2A05
330
17
100
AcDbEntity
  8
0
100
AcDbCircle
 10
-0.0000000000000142
 20
1.444488590706763
 30
0.0
 40
0.7998000000000048
100
AcDbArc
 50
270.0
 51
292.3958138802951
  0
ARC
  5
2A06
330
17
100
AcDbEntity
  8
0
100
AcDbCircle
 10
-0.0000000000000142
 20
1.444488590706763
 30
0.0
 40
0.7998000000000048
100
AcDbArc
 50
247.599999999997
 51
270.0
  0
LINE
  5
2A07
330
17
100
AcDbEntity
  8
0
100
AcDbLine
 10
-0.3320509597227215
 20
0.6387192329450873
 30
0.0
 11
-0.3047260606748097
 21
0.7050144072788758
 31
0.0
  0
LINE
  5
2A08
330
17
100
AcDbEntity
  8
0
100
AcDbLine
 10
-0.0369817174474321
 20
0.4578814538104812
 30
0.0
 11
-0.0000000000000142
 21
0.6446885907067586
 31
0.0
  0
LINE
  5
2A09
330
17
100
AcDbEntity
  8
0
100
AcDbLine
 10
0.0369817174474037
 20
0.4578814538104812
 30
0.0
 11
-0.0000000000000142
 21
0.6446885907067586
 31
0.0
  0
ARC
  5
2A0A
330
17
100
AcDbEntity
  8
0
100
AcDbCircle
 10
0.0
 20
1.166249999999999
 30
0.0
 40
0.7812499999999988
100
AcDbArc
 50
159.9999999999999
 51
180.000000000002
  0
ARC
  5
2A0B
330
17
100
AcDbEntity
  8
0
100
AcDbCircle
 10
0.4476192139242272
 20
0.6863530299888883
 30
0.0
 40
0.125
100
AcDbArc
 50
202.4000000000091
 51
313.0068992825724
  0
ARC
  5
2A0C
330
17
100
AcDbEntity
  8
0
100
AcDbCircle
 10
-0.4476192139242557
 20
0.6863530299889167
 30
0.0
 40
0.125
100
AcDbArc
 50
226.9931007174253
 51
337.5999999999812
  0
LINE
  5
2A0D
330
17
100
AcDbEntity
  8
0
100
AcDbLine
 10
-0.7341348599889699
 20
1.433453236973187
 30
0.0
 11
-0.0926536896070474
 21
3.195908267602854
 31
0.0
  0
LINE
  5
2A0E
330
17
100
AcDbEntity
  8
0
100
AcDbLine
 10
7.7086593697991
 20
0.0009854828000062
 30
0.0
 11
7.7086593697991
 21
0.1350000000000069
 31
0.0
  0
LINE
  5
2A0F
330
17
100
AcDbEntity
  8
0
100
AcDbLine
 10
8.8336593697991
 20
0.0009863609000309
 30
0.0
 11
8.8336593697991
 21
0.1350000000000069
 31
0.0
  0
ARC
  5
2A10
330
17
100
AcDbEntity
  8
0
100
AcDbCircle
 10
9.321159369799097
 20
0.3349999999999955
 30
0.0
 40
0.2
100
AcDbArc
 50
269.9999999999996
 51
0.0
  0
ARC
  5
2A11
330
17
100
AcDbEntity
  8
0
100
AcDbCircle
 10
9.321159369799097
 20
0.3349999999999955
 30
0.0
 40
0.335
100
AcDbArc
 50
270.0
 51
0.0
  0
LINE
  5
2A12
330
17
100
AcDbEntity
  8
0
100
AcDbLine
 10
6.033859369798996
 20
0.000000000000016
 30
0.0
 11
6.033859369798996
 21
1.543938155006502
 31
0.0
  0
LINE
  5
2A13
330
17
100
AcDbEntity
  8
0
100
AcDbLine
 10
9.321159369799097
 20
0.000000000000016
 30
0.0
 11
6.033859369798982
 21
0.0000000000000444
 31
0.0
  0
LINE
  5
2A15
330
17
100
AcDbEntity
  8
0
100
AcDbLine
 10
9.321159369799097
 20
0.1350000000000069
 30
0.0
 11
6.033859369798982
 21
0.1350000000000353
 31
0.0
  0
LINE
  5
2A1A
330
17
100
AcDbEntity
  8
0
100
AcDbLine
 10
0.900048615702417
 20
0.524065627602008
 30
0.0
 11
0.9422648471747834
 21
0.4818493961296131
 31
0.0
  0
ARC
  5
2A1B
330
17
100
AcDbEntity
  8
0
100
AcDbCircle
 10
1.233750000000043
 20
1.332496052584682
 30
0.0
 40
0.262
100
AcDbArc
 50
219.3849057044635
 51
254.3302592973506
  0
ARC
  5
2A1C
330
17
100
AcDbEntity
  8
0
100
AcDbCircle
 10
1.233750000000043
 20
1.457496052584682
 30
0.0
 40
0.262
100
AcDbArc
 50
104.9296938212827
 51
140.6150942955374
  0
ARC
  5
2A1D
330
17
100
AcDbEntity
  8
0
100
AcDbCircle
 10
1.233750000000043
 20
1.332496052584682
 30
0.0
 40
0.125
100
AcDbArc
 50
180.0
 51
237.3163611537175
  0
ARC
  5
2A1E
330
17
100
AcDbEntity
  8
0
100
AcDbCircle
 10
1.233750000000043
 20
1.457496052584682
 30
0.0
 40
0.125
100
AcDbArc
 50
122.6836388462826
 51
180.0
  0
LINE
  5
2A1F
330
17
100
AcDbEntity
  8
0
100
AcDbLine
 10
1.108750000000043
 20
1.457496052584653
 30
0.0
 11
1.108750000000043
 21
1.332496052584653
 31
0.0
  0
LINE
  5
2A20
330
17
100
AcDbEntity
  8
0
100
AcDbLine
 10
0.9717500000000427
 20
1.457496052584653
 30
0.0
 11
0.9717500000000427
 21
1.332496052584653
 31
0.0
  0
ARC
  5
2A21
330
17
100
AcDbEntity
  8
0
100
AcDbCircle
 10
6.533859369798996
 20
1.543938155006445
 30
0.0
 40
0.5
100
AcDbArc
 50
159.999999999993
 51
179.9999999999935
  0
CIRCLE
  5
2A22
330
17
100
AcDbEntity
  8
0
100
AcDbCircle
 10
8.2711593697991
 20
1.363746052584689
 30
0.0
 40
0.3225
  0
CIRCLE
  5
2A23
330
17
100
AcDbEntity
  8
0
100
AcDbCircle
 10
8.2711593697991
 20
1.363746052584689
 30
0.0
 40
0.1875
  0
LINE
  5
2A24
330
17
100
AcDbEntity
  8
0
100
AcDbLine
 10
9.5211593697991
 20
0.3850000000000069
 30
0.0
 11
9.656159369799091
 21
0.3850000000000069
 31
0.0
  0
CIRCLE
  5
2A25
330
17
100
AcDbEntity
  8
0
100
AcDbCircle
 10
0.5624999999999716
 20
9.812499999999895
 30
0.0
 40
0.125
  0
LINE
  5
2A26
330
17
100
AcDbEntity
  8
0
100
AcDbLine
 10
0.2832555553898004
 20
9.40044457470473
 30
0.0
 11
-0.4082555553898573
 21
10.2245554252952
 31
0.0
  0
LINE
  5
2A27
330
17
100
AcDbEntity
  8
0
100
AcDbLine
 10
0.4082555553898289
 20
9.40044457470473
 30
0.0
 11
-0.2832555553898857
 21
10.2245554252952
 31
0.0
  0
CIRCLE
  5
2A28
330
17
100
AcDbEntity
  8
0
100
AcDbCircle
 10
-0.5625
 20
9.812499999999895
 30
0.0
 40
0.125
  0
CIRCLE
  5
2A29
330
17
100
AcDbEntity
  8
0
100
AcDbCircle
 10
0.0625
 20
7.937499999999952
 30
0.0
 40
0.125
  0
CIRCLE
  5
2A2A
330
17
100
AcDbEntity
  8
0
100
AcDbCircle
 10
-0.5625
 20
7.312499999999952
 30
0.0
 40
0.125
  0
LINE
  5
2A2B
330
17
100
AcDbEntity
  8
0
100
AcDbLine
 10
-0.4375000000000142
 20
7.804903876505941
 30
0.0
 11
-0.4374999999999858
 21
8.070096123493934
 31
0.0
  0
LINE
  5
2A2C
330
17
100
AcDbEntity
  8
0
100
AcDbLine
 10
-0.3125000000000142
 20
7.804903876505997
 30
0.0
 11
-0.3124999999999858
 21
8.070096123493906
 31
0.0
  0
LINE
  5
2A2D
330
17
100
AcDbEntity
  8
0
100
AcDbLine
 10
0.2832555553898004
 20
8.974555425295145
 30
0.0
 11
-0.4082555553898573
 21
8.150444574704758
 31
0.0
  0
LINE
  5
2A2E
330
17
100
AcDbEntity
  8
0
100
AcDbLine
 10
0.4082555553898004
 20
8.97455542529506
 30
0.0
 11
-0.2832555553898572
 21
8.15044457470473
 31
0.0
  0
CIRCLE
  5
2A2F
330
17
100
AcDbEntity
  8
0
100
AcDbCircle
 10
-0.5625
 20
8.562499999999895
 30
0.0
 40
0.125
  0
CIRCLE
  5
2A30
330
17
100
AcDbEntity
  8
0
100
AcDbCircle
 10
0.5624999999999716
 20
8.562499999999895
 30
0.0
 40
0.125
  0
CIRCLE
  5
2A31
330
17
100
AcDbEntity
  8
0
100
AcDbCircle
 10
0.5624999999999716
 20
7.312499999999952
 30
0.0
 40
0.125
  0
LINE
  5
2A32
330
17
100
AcDbEntity
  8
0
100
AcDbLine
 10
0.437499999999929
 20
9.054903876505884
 30
0.0
 11
0.4374999999999574
 21
9.320096123493906
 31
0.0
  0
LINE
  5
2A33
330
17
100
AcDbEntity
  8
0
100
AcDbLine
 10
0.3124999999999289
 20
9.054903876505969
 30
0.0
 11
0.3124999999999289
 21
9.320096123493906
 31
0.0
  0
CIRCLE
  5
2A34
330
17
100
AcDbEntity
  8
0
100
AcDbCircle
 10
-0.0625000000000711
 20
9.187499999999923
 30
0.0
 40
0.125
  0
ARC
  5
2A35
330
17
100
AcDbEntity
  8
0
100
AcDbCircle
 10
-0.3125000000000142
 20
7.804903876505941
 30
0.0
 40
0.125
100
AcDbArc
 50
180.0
 51
220.000000000003
  0
ARC
  5
2A36
330
17
100
AcDbEntity
  8
0
100
AcDbCircle
 10
-0.1875000000000142
 20
7.804903876505997
 30
0.0
 40
0.125
100
AcDbArc
 50
179.9999999999959
 51
220.0000000000035
  0
ARC
  5
2A37
330
17
100
AcDbEntity
  8
0
100
AcDbCircle
 10
-0.1874999999999858
 20
8.070096123493906
 30
0.0
 40
0.125
100
AcDbArc
 50
139.9999999999981
 51
179.9999999999947
  0
ARC
  5
2A38
330
17
100
AcDbEntity
  8
0
100
AcDbCircle
 10
-0.3124999999999858
 20
8.070096123493934
 30
0.0
 40
0.125
100
AcDbArc
 50
139.9999999999979
 51
179.9999999999984
  0
ARC
  5
2A39
330
17
100
AcDbEntity
  8
0
100
AcDbCircle
 10
0.1874999999999289
 20
9.054903876505969
 30
0.0
 40
0.125
100
AcDbArc
 50
319.999999999997
 51
359.999999999998
  0
ARC
  5
2A3A
330
17
100
AcDbEntity
  8
0
100
AcDbCircle
 10
0.3124999999999289
 20
9.054903876505884
 30
0.0
 40
0.125
100
AcDbArc
 50
319.9999999999967
 51
359.9999999999939
  0
ARC
  5
2A3B
330
17
100
AcDbEntity
  8
0
100
AcDbCircle
 10
0.3124999999999574
 20
9.320096123493906
 30
0.0
 40
0.125
100
AcDbArc
 50
359.9999999999947
 51
40.00000000000056
  0
ARC
  5
2A3C
330
17
100
AcDbEntity
  8
0
100
AcDbCircle
 10
0.1874999999999289
 20
9.320096123493906
 30
0.0
 40
0.125
100
AcDbArc
 50
359.9999999999984
 51
40.00000000000244
  0
CIRCLE
  5
2A3D
330
17
100
AcDbEntity
  8
0
100
AcDbCircle
 10
-0.5625
 20
6.062499999999952
 30
0.0
 40
0.125
  0
LINE
  5
2A3E
330
17
100
AcDbEntity
  8
0
100
AcDbLine
 10
0.3124999999999289
 20
6.554903876505912
 30
0.0
 11
0.3124999999999574
 21
6.820096123493906
 31
0.0
  0
CIRCLE
  5
2A3F
330
17
100
AcDbEntity
  8
0
100
AcDbCircle
 10
-0.0625000000000711
 20
6.68749999999998
 30
0.0
 40
0.125
  0
LINE
  5
2A40
330
17
100
AcDbEntity
  8
0
100
AcDbLine
 10
0.437499999999929
 20
6.554903876505997
 30
0.0
 11
0.4374999999999432
 21
6.820096123493962
 31
0.0
  0
LINE
  5
2A41
330
17
100
AcDbEntity
  8
0
100
AcDbLine
 10
0.4082555553898004
 20
6.474555425295173
 30
0.0
 11
-0.283255555389843
 21
5.65044457470473
 31
0.0
  0
LINE
  5
2A42
330
17
100
AcDbEntity
  8
0
100
AcDbLine
 10
0.2832555553898004
 20
6.474555425295088
 30
0.0
 11
-0.4082555553898573
 21
5.650444574704673
 31
0.0
  0
CIRCLE
  5
2A43
330
17
100
AcDbEntity
  8
0
100
AcDbCircle
 10
0.5624999999999716
 20
6.062499999999952
 30
0.0
 40
0.125
  0
LINE
  5
2A44
330
17
100
AcDbEntity
  8
0
100
AcDbLine
 10
-0.4375
 20
5.304903876506083
 30
0.0
 11
-0.4374999999999858
 21
5.570096123493849
 31
0.0
  0
LINE
  5
2A45
330
17
100
AcDbEntity
  8
0
100
AcDbLine
 10
-0.3125
 20
5.304903876506168
 30
0.0
 11
-0.3124999999999716
 21
5.570096123493906
 31
0.0
  0
CIRCLE
  5
2A46
330
17
100
AcDbEntity
  8
0
100
AcDbCircle
 10
0.0625
 20
5.437500000000008
 30
0.0
 40
0.125
  0
ARC
  5
2A47
330
17
100
AcDbEntity
  8
0
100
AcDbCircle
 10
-0.1874999999999716
 20
5.570096123493906
 30
0.0
 40
0.125
100
AcDbArc
 50
140.0000000000004
 51
179.9999999999959
  0
ARC
  5
2A48
330
17
100
AcDbEntity
  8
0
100
AcDbCircle
 10
-0.1875
 20
5.30490387650614
 30
0.0
 40
0.125
100
AcDbArc
 50
179.999999999993
 51
219.9999999999939
  0
ARC
  5
2A49
330
17
100
AcDbEntity
  8
0
100
AcDbCircle
 10
-0.3125
 20
5.304903876506083
 30
0.0
 40
0.125
100
AcDbArc
 50
180.0
 51
219.9999999999981
  0
ARC
  5
2A4A
330
17
100
AcDbEntity
  8
0
100
AcDbCircle
 10
-0.3124999999999858
 20
5.570096123493849
 30
0.0
 40
0.125
100
AcDbArc
 50
139.9999999999981
 51
179.9999999999984
  0
ARC
  5
2A4B
330
17
100
AcDbEntity
  8
0
100
AcDbCircle
 10
0.1874999999999289
 20
6.554903876505912
 30
0.0
 40
0.125
100
AcDbArc
 50
319.999999999999
 51
359.9999999999939
  0
ARC
  5
2A4C
330
17
100
AcDbEntity
  8
0
100
AcDbCircle
 10
0.3124999999999289
 20
6.554903876505997
 30
0.0
 40
0.125
100
AcDbArc
 50
319.9999999999993
 51
0.0
  0
ARC
  5
2A4D
330
17
100
AcDbEntity
  8
0
100
AcDbCircle
 10
0.3124999999999432
 20
6.820096123493962
 30
0.0
 40
0.125
100
AcDbArc
 50
359.9999999999984
 51
40.00000000000293
  0
ARC
  5
2A4E
330
17
100
AcDbEntity
  8
0
100
AcDbCircle
 10
0.1874999999999574
 20
6.820096123493906
 30
0.0
 40
0.125
100
AcDbArc
 50
359.9999999999947
 51
40.00000000000373
  0
LINE
  5
2A4F
330
17
100
AcDbEntity
  8
0
100
AcDbLine
 10
0.2832555553898146
 20
6.90044457470473
 30
0.0
 11
-0.4082555553898857
 21
7.724555425295116
 31
0.0
  0
LINE
  5
2A50
330
17
100
AcDbEntity
  8
0
100
AcDbLine
 10
0.4082555553898147
 20
6.900444574704787
 30
0.0
 11
-0.2832555553898857
 21
7.724555425295173
 31
0.0
  0
CIRCLE
  5
2A51
330
17
100
AcDbEntity
  8
0
100
AcDbCircle
 10
0.0625
 20
10.43749999999989
 30
0.0
 40
0.125
  0
LINE
  5
2A54
330
17
100
AcDbEntity
  8
0
100
AcDbLine
 10
-0.4375
 20
12.80490387650588
 30
0.0
 11
-0.4374999999999929
 21
12.93749999999984
 31
0.0
  0
LINE
  5
2A55
330
17
100
AcDbEntity
  8
0
100
AcDbLine
 10
-0.3125000000000142
 20
12.80490387650602
 30
0.0
 11
-0.3125
 21
12.93749999999983
 31
0.0
  0
CIRCLE
  5
2A56
330
17
100
AcDbEntity
  8
0
100
AcDbCircle
 10
0.5624999999999716
 20
12.31249999999984
 30
0.0
 40
0.125
  0
LINE
  5
2A57
330
17
100
AcDbEntity
  8
0
100
AcDbLine
 10
0.2832555553898288
 20
11.90044457470459
 30
0.0
 11
-0.4082555553898715
 21
12.72455542529506
 31
0.0
  0
LINE
  5
2A58
330
17
100
AcDbEntity
  8
0
100
AcDbLine
 10
0.4082555553898289
 20
11.90044457470467
 30
0.0
 11
-0.2832555553898857
 21
12.7245554252952
 31
0.0
  0
CIRCLE
  5
2A5A
330
17
100
AcDbEntity
  8
0
100
AcDbCircle
 10
-0.5625
 20
12.31249999999984
 30
0.0
 40
0.125
  0
ARC
  5
2A60
330
17
100
AcDbEntity
  8
0
100
AcDbCircle
 10
-0.3125
 20
12.80490387650588
 30
0.0
 40
0.125
100
AcDbArc
 50
180.0
 51
220.0000000000019
  0
ARC
  5
2A61
330
17
100
AcDbEntity
  8
0
100
AcDbCircle
 10
-0.1875000000000142
 20
12.80490387650602
 30
0.0
 40
0.125
100
AcDbArc
 50
179.9999999999939
 51
220.0000000000009
  0
LINE
  5
2A68
330
17
100
AcDbEntity
  8
0
100
AcDbLine
 10
0.2832555553898004
 20
11.47455542529509
 30
0.0
 11
-0.4082555553898857
 21
10.65044457470464
 31
0.0
  0
LINE
  5
2A69
330
17
100
AcDbEntity
  8
0
100
AcDbLine
 10
0.4082555553898004
 20
11.47455542529506
 30
0.0
 11
-0.2832555553898572
 21
10.65044457470467
 31
0.0
  0
LINE
  5
2A6A
330
17
100
AcDbEntity
  8
0
100
AcDbLine
 10
-0.4374999999999858
 20
10.30490387650602
 30
0.0
 11
-0.4375000000000142
 21
10.57009612349382
 31
0.0
  0
LINE
  5
2A6B
330
17
100
AcDbEntity
  8
0
100
AcDbLine
 10
-0.3125000000000142
 20
10.30490387650602
 30
0.0
 11
-0.3124999999999858
 21
10.57009612349385
 31
0.0
  0
CIRCLE
  5
2A6C
330
17
100
AcDbEntity
  8
0
100
AcDbCircle
 10
0.5624999999999716
 20
11.06249999999984
 30
0.0
 40
0.125
  0
CIRCLE
  5
2A6D
330
17
100
AcDbEntity
  8
0
100
AcDbCircle
 10
-0.5625
 20
11.06249999999984
 30
0.0
 40
0.125
  0
LINE
  5
2A6E
330
17
100
AcDbEntity
  8
0
100
AcDbLine
 10
0.437499999999929
 20
11.55490387650588
 30
0.0
 11
0.4374999999999574
 21
11.82009612349385
 31
0.0
  0
LINE
  5
2A6F
330
17
100
AcDbEntity
  8
0
100
AcDbLine
 10
0.3124999999999289
 20
11.55490387650591
 30
0.0
 11
0.3124999999999574
 21
11.82009612349376
 31
0.0
  0
CIRCLE
  5
2A70
330
17
100
AcDbEntity
  8
0
100
AcDbCircle
 10
-0.0625000000000711
 20
11.68749999999986
 30
0.0
 40
0.125
  0
ARC
  5
2A71
330
17
100
AcDbEntity
  8
0
100
AcDbCircle
 10
-0.3124999999999858
 20
10.30490387650602
 30
0.0
 40
0.125
100
AcDbArc
 50
180.0
 51
220.0000000000025
  0
ARC
  5
2A72
330
17
100
AcDbEntity
  8
0
100
AcDbCircle
 10
-0.1875000000000142
 20
10.30490387650602
 30
0.0
 40
0.125
100
AcDbArc
 50
179.9999999999939
 51
220.0000000000009
  0
ARC
  5
2A73
330
17
100
AcDbEntity
  8
0
100
AcDbCircle
 10
-0.1874999999999858
 20
10.57009612349385
 30
0.0
 40
0.125
100
AcDbArc
 50
139.9999999999988
 51
179.9999999999947
  0
ARC
  5
2A74
330
17
100
AcDbEntity
  8
0
100
AcDbCircle
 10
-0.3125000000000142
 20
10.57009612349382
 30
0.0
 40
0.125
100
AcDbArc
 50
139.9999999999975
 51
180.0000000000016
  0
ARC
  5
2A75
330
17
100
AcDbEntity
  8
0
100
AcDbCircle
 10
0.1874999999999289
 20
11.55490387650591
 30
0.0
 40
0.125
100
AcDbArc
 50
319.9999999999972
 51
359.9999999999959
  0
ARC
  5
2A76
330
17
100
AcDbEntity
  8
0
100
AcDbCircle
 10
0.3124999999999289
 20
11.55490387650588
 30
0.0
 40
0.125
100
AcDbArc
 50
319.999999999997
 51
359.9999999999964
  0
ARC
  5
2A77
330
17
100
AcDbEntity
  8
0
100
AcDbCircle
 10
0.1874999999999574
 20
11.82009612349376
 30
0.0
 40
0.125
100
AcDbArc
 50
359.9999999999964
 51
40.00000000000201
  0
ARC
  5
2A78
330
17
100
AcDbEntity
  8
0
100
AcDbCircle
 10
0.3124999999999574
 20
11.82009612349385
 30
0.0
 40
0.125
100
AcDbArc
 50
359.999999999998
 51
39.99999999999941
  0
ARC
  5
2A79
330
17
100
AcDbEntity
  8
0
100
AcDbCircle
 10
6.824576934343419
 20
5.266482499194454
 30
0.0
 40
0.4999999999999222
100
AcDbArc
 50
339.9999999999999
 51
353.9999999999974
  0
LINE
  5
2A8E
330
17
100
AcDbEntity
  8
0
100
AcDbLine
 10
7.7086593697991
 20
1.166250000000006
 30
0.0
 11
8.8336593697991
 21
1.166250000000006
 31
0.0
  0
LINE
  5
2A8F
330
17
100
AcDbEntity
  8
0
100
AcDbLine
 10
7.7086593697991
 20
0.9312499999999932
 30
0.0
 11
8.8336593697991
 21
0.9312499999999932
 31
0.0
  0
LINE
  5
2A90
330
17
100
AcDbEntity
  8
0
100
AcDbLine
 10
7.8024093697991
 20
0.9312499999999932
 30
0.0
 11
7.8024093697991
 21
1.166250000000006
 31
0.0
  0
LINE
  5
2A91
330
17
100
AcDbEntity
  8
0
100
AcDbLine
 10
7.4586593697991
 20
0.6812499999999933
 30
0.0
 11
7.4586593697991
 21
0.1350000000000069
 31
0.0
  0
LINE
  5
2A92
330
17
100
AcDbEntity
  8
0
100
AcDbLine
 10
7.223659369799086
 20
0.6812499999999933
 30
0.0
 11
7.223659369799086
 21
0.1350000000000069
 31
0.0
  0
ARC
  5
2A94
330
17
100
AcDbEntity
  8
0
100
AcDbCircle
 10
7.7086593697991
 20
0.6812499999999933
 30
0.0
 40
0.25
100
AcDbArc
 50
90.0
 51
180.0
  0
ARC
  5
2A95
330
17
100
AcDbEntity
  8
0
100
AcDbCircle
 10
7.7086593697991
 20
0.6812499999999933
 30
0.0
 40
0.485
100
AcDbArc
 50
90.11217710590043
 51
180.0
  0
LINE
  5
2A96
330
17
100
AcDbEntity
  8
0
100
AcDbLine
 10
9.318659369799114
 20
0.6812499999999933
 30
0.0
 11
9.318659369799057
 21
0.1350000000000069
 31
0.0
  0
LINE
  5
2A97
330
17
100
AcDbEntity
  8
0
100
AcDbLine
 10
9.0836593697991
 20
0.6812499999999933
 30
0.0
 11
9.083659369799043
 21
0.1350000000000069
 31
0.0
  0
LINE
  5
2A99
330
17
100
AcDbEntity
  8
0
100
AcDbLine
 10
8.7399093697991
 20
0.9312499999999932
 30
0.0
 11
8.7399093697991
 21
1.166250000000006
 31
0.0
  0
ARC
  5
2A9A
330
17
100
AcDbEntity
  8
0
100
AcDbCircle
 10
8.8336593697991
 20
0.6812499999999933
 30
0.0
 40
0.25
100
AcDbArc
 50
0.0
 51
90.0
  0
ARC
  5
2A9B
330
17
100
AcDbEntity
  8
0
100
AcDbCircle
 10
8.8336593697991
 20
0.6812499999999933
 30
0.0
 40
0.485
100
AcDbArc
 50
0.0
 51
89.8878142035007
  0
LINE
  5
2A9C
330
17
100
AcDbEntity
  8
0
100
AcDbLine
 10
-0.46875
 20
0.9312499999999577
 30
0.0
 11
-0.46875
 21
1.166249999999971
 31
0.0
  0
LINE
  5
2A9D
330
17
100
AcDbEntity
  8
0
100
AcDbLine
 10
0.46875
 20
0.9312499999999577
 30
0.0
 11
0.46875
 21
1.166249999999971
 31
0.0
  0
LINE
  5
2A9E
330
17
100
AcDbEntity
  8
0
100
AcDbLine
 10
-1.166250000000005
 20
12.93749999999984
 30
0.0
 11
-0.4374999999999929
 21
12.93749999999984
 31
0.0
  0
LINE
  5
2A9F
330
17
100
AcDbEntity
  8
0
100
AcDbLine
 10
-0.3124999999999929
 20
12.93749999999983
 30
0.0
 11
1.166249999999916
 21
12.93749999999983
 31
0.0
  0
LINE
  5
2AA0
330
17
100
AcDbEntity
  8
0
100
AcDbLine
 10
7.833659369799086
 20
12.93749999999986
 30
0.0
 11
9.656159369799091
 21
12.93749999999987
 31
0.0
  0
CIRCLE
  5
2AA1
330
17
100
AcDbEntity
  8
0
100
AcDbCircle
 10
8.495154661268937
 20
10.43749999999999
 30
0.0
 40
0.3435
  0
ARC
  5
2D2C
330
17
100
AcDbEntity
  8
0
100
AcDbCircle
 10
-0.0000000000000036
 20
1.166249999999999
 30
0.0
 40
0.781250000000001
100
AcDbArc
 50
313.0068992825747
 51
359.9999999999979
  0
ARC
  5
2D2D
330
17
100
AcDbEntity
  8
0
100
AcDbCircle
 10
0.0
 20
1.166249999999999
 30
0.0
 40
0.7812499999999988
100
AcDbArc
 50
180.000000000002
 51
226.9931007174221
  0
ARC
  5
2D2F
330
17
100
AcDbEntity
  8
0
100
AcDbCircle
 10
-1.233750000000043
 20
1.457496052584653
 30
0.0
 40
0.262
100
AcDbArc
 50
0.0
 51
39.38490570446349
  0
ARC
  5
2D30
330
17
100
AcDbEntity
  8
0
100
AcDbCircle
 10
-1.233750000000043
 20
1.332496052584653
 30
0.0
 40
0.262
100
AcDbArc
 50
320.6150942955365
 51
0.0
  0
ARC
  5
2D31
330
17
100
AcDbEntity
  8
0
100
AcDbCircle
 10
1.233750000000043
 20
1.332496052584653
 30
0.0
 40
0.262
100
AcDbArc
 50
180.0
 51
219.3849057044635
  0
ARC
  5
2D32
330
17
100
AcDbEntity
  8
0
100
AcDbCircle
 10
1.233750000000043
 20
1.457496052584653
 30
0.0
 40
0.262
100
AcDbArc
 50
140.6150942955374
 51
180.0
  0
LINE
  5
3765
330
17
100
AcDbEntity
  8
0
100
AcDbLine
 10
1.166250000000061
 20
17.77654022408573
 30
0.0
 11
0.2874999999998593
 21
17.77654022408573
 31
0.0
  0
LINE
  5
3766
330
17
100
AcDbEntity
  8
0
100
AcDbLine
 10
-0.2875000000001506
 20
17.77654022408573
 30
0.0
 11
-1.166250000000005
 21
17.77654022408573
 31
0.0
  0
LINE
  5
3767
330
17
100
AcDbEntity
  8
0
100
AcDbLine
 10
0.831250000000054
 20
21.26384022408574
 30
0.0
 11
-0.8312500000000042
 21
21.26384022408574
 31
0.0
  0
LINE
  5
3768
330
17
100
AcDbEntity
  8
0
100
AcDbLine
 10
-1.03125
 20
21.06384022408574
 30
0.0
 11
-1.03125
 21
17.77654022408573
 31
0.0
  0
ARC
  5
3769
330
17
100
AcDbEntity
  8
0
100
AcDbCircle
 10
-0.8312500000000042
 20
21.06384022408574
 30
0.0
 40
0.2
100
AcDbArc
 50
90.0
 51
180.0
  0
ARC
  5
376A
330
17
100
AcDbEntity
  8
0
100
AcDbCircle
 10
-0.8312500000000042
 20
21.06384022408574
 30
0.0
 40
0.335
100
AcDbArc
 50
90.0
 51
180.0
  0
LINE
  5
376B
330
17
100
AcDbEntity
  8
0
100
AcDbLine
 10
1.031250000000056
 20
21.06384022408574
 30
0.0
 11
1.031250000000056
 21
17.77654022408573
 31
0.0
  0
ARC
  5
376C
330
17
100
AcDbEntity
  8
0
100
AcDbCircle
 10
0.831250000000054
 20
21.06384022408574
 30
0.0
 40
0.2
100
AcDbArc
 50
0.0
 51
90.0
  0
ARC
  5
376D
330
17
100
AcDbEntity
  8
0
100
AcDbCircle
 10
0.831250000000054
 20
21.06384022408574
 30
0.0
 40
0.335
100
AcDbArc
 50
0.0
 51
90.0
  0
LINE
  5
3772
330
17
100
AcDbEntity
  8
0
100
AcDbLine
 10
-0.2875000000001435
 20
17.78779022408574
 30
0.0
 11
-0.2875000000001506
 21
17.77654022408574
 31
0.0
  0
ARC
  5
3773
330
17
100
AcDbEntity
  8
0
100
AcDbCircle
 10
-0.2675000000001404
 20
17.78779022408574
 30
0.0
 40
0.02
100
AcDbArc
 50
90.0
 51
180.0
  0
LINE
  5
3774
330
17
100
AcDbEntity
  8
0
100
AcDbLine
 10
0.2874999999998593
 20
17.77654022408573
 30
0.0
 11
0.2874999999998664
 21
17.78779022408574
 31
0.0
  0
ARC
  5
3775
330
17
100
AcDbEntity
  8
0
100
AcDbCircle
 10
0.2674999999998633
 20
17.78779022408574
 30
0.0
 40
0.02
100
AcDbArc
 50
0.0
 51
90.0
  0
LINE
  5
3776
330
17
100
AcDbEntity
  8
0
100
AcDbLine
 10
0.2674999999998633
 20
17.80779022408573
 30
0.0
 11
-0.2675000000001404
 21
17.80779022408573
 31
0.0
  0
LINE
  5
3777
330
17
100
AcDbEntity
  8
0
100
AcDbLine
 10
0.831250000000054
 20
21.39884022408574
 30
0.0
 11
-0.8312500000000113
 21
21.39884022408574
 31
0.0
  0
LINE
  5
3778
330
17
100
AcDbEntity
  8
0
100
AcDbLine
 10
-1.166250000000005
 20
21.06384022408574
 30
0.0
 11
-1.166249999999998
 21
17.77654022408573
 31
0.0
  0
LINE
  5
3779
330
17
100
AcDbEntity
  8
0
100
AcDbLine
 10
1.166250000000061
 20
21.06384022408574
 30
0.0
 11
1.166250000000061
 21
17.77654022408573
 31
0.0
  0
ARC
  5
377A
330
17
100
AcDbEntity
  8
0
100
AcDbCircle
 10
-1.0
 20
20.28884022408572
 30
0.0
 40
0.03125
100
AcDbArc
 50
180.0000000000227
 51
221.3954130506539
  0
ARC
  5
377B
330
17
100
AcDbEntity
  8
0
  6
THD
100
AcDbCircle
 10
-1.0
 20
20.28884022408572
 30
0.0
 40
0.16625
100
AcDbArc
 50
180.0000000000227
 51
221.3954130506539
  0
ARC
  5
377C
330
17
100
AcDbEntity
  8
0
  6
THD
100
AcDbCircle
 10
-1.187499999999914
 20
20.01384022408574
 30
0.0
 40
0.1562500000000203
100
AcDbArc
 50
318.6045869493546
 51
41.39541305064532
  0
ARC
  5
377D
330
17
100
AcDbEntity
  8
0
100
AcDbCircle
 10
-1.187499999999914
 20
20.01384022408574
 30
0.0
 40
0.2912500000000203
100
AcDbArc
 50
318.6045869493633
 51
41.39541305063779
  0
LINE
  5
377E
330
17
100
AcDbEntity
  8
0
100
AcDbLine
 10
-1.023442625316079
 20
20.26817610498305
 30
0.0
 11
-0.9690147320540063
 21
20.20642981412273
 31
0.0
  0
LINE
  5
377F
330
17
100
AcDbEntity
  8
0
  6
THD
100
AcDbLine
 10
-1.124714766681535
 20
20.17890711045946
 30
0.0
 11
-1.070286873419462
 21
20.11716081959914
 31
0.0
  0
ARC
  5
3780
330
17
100
AcDbEntity
  8
0
100
AcDbCircle
 10
-1.0
 20
19.73884022408573
 30
0.0
 40
0.03125
100
AcDbArc
 50
138.604586949346
 51
179.9999999999772
  0
ARC
  5
3781
330
17
100
AcDbEntity
  8
0
  6
THD
100
AcDbCircle
 10
-1.0
 20
19.73884022408573
 30
0.0
 40
0.16625
100
AcDbArc
 50
138.604586949346
 51
179.9999999999772
  0
LINE
  5
3782
330
17
100
AcDbEntity
  8
0
100
AcDbLine
 10
-1.023442625316079
 20
19.75950434318842
 30
0.0
 11
-0.9690147320540063
 21
19.82125063404872
 31
0.0
  0
LINE
  5
3783
330
17
100
AcDbEntity
  8
0
  6
THD
100
AcDbLine
 10
-1.124714766681535
 20
19.84877333771201
 30
0.0
 11
-1.070286873419462
 21
19.91051962857232
 31
0.0
  0
ARC
  5
3784
330
17
100
AcDbEntity
  8
0
100
AcDbCircle
 10
1.000000000000028
 20
20.28884022408572
 30
0.0
 40
0.03125
100
AcDbArc
 50
318.604586949346
 51
359.9999999999771
  0
ARC
  5
3785
330
17
100
AcDbEntity
  8
0
  6
THD
100
AcDbCircle
 10
1.000000000000028
 20
20.28884022408572
 30
0.0
 40
0.16625
100
AcDbArc
 50
318.604586949346
 51
359.9999999999771
  0
ARC
  5
3786
330
17
100
AcDbEntity
  8
0
  6
THD
100
AcDbCircle
 10
1.187499999999943
 20
20.01384022408574
 30
0.0
 40
0.1562500000000203
100
AcDbArc
 50
138.6045869493547
 51
221.3954130506453
  0
ARC
  5
3787
330
17
100
AcDbEntity
  8
0
100
AcDbCircle
 10
1.187499999999943
 20
20.01384022408574
 30
0.0
 40
0.2912500000000203
100
AcDbArc
 50
138.6045869493622
 51
221.3954130506367
  0
LINE
  5
3788
330
17
100
AcDbEntity
  8
0
100
AcDbLine
 10
1.023442625316107
 20
20.26817610498305
 30
0.0
 11
0.9690147320540347
 21
20.20642981412273
 31
0.0
  0
LINE
  5
3789
330
17
100
AcDbEntity
  8
0
  6
THD
100
AcDbLine
 10
1.124714766681563
 20
20.17890711045946
 30
0.0
 11
1.07028687341949
 21
20.11716081959914
 31
0.0
  0
ARC
  5
378A
330
17
100
AcDbEntity
  8
0
100
AcDbCircle
 10
1.000000000000028
 20
19.73884022408573
 30
0.0
 40
0.03125
100
AcDbArc
 50
0.0000000000227982
 51
41.39541305065399
  0
ARC
  5
378B
330
17
100
AcDbEntity
  8
0
  6
THD
100
AcDbCircle
 10
1.000000000000028
 20
19.73884022408573
 30
0.0
 40
0.16625
100
AcDbArc
 50
0.0000000000227982
 51
41.39541305065399
  0
LINE
  5
378C
330
17
100
AcDbEntity
  8
0
100
AcDbLine
 10
1.023442625316107
 20
19.75950434318842
 30
0.0
 11
0.9690147320540347
 21
19.82125063404872
 31
0.0
  0
LINE
  5
378D
330
17
100
AcDbEntity
  8
0
  6
THD
100
AcDbLine
 10
1.124714766681563
 20
19.84877333771201
 30
0.0
 11
1.07028687341949
 21
19.91051962857232
 31
0.0
  0
POLYLINE
  5
380B
330
17
100
AcDbEntity
  8
0
100
AcDb2dPolyline
 66
     1
 10
0.0
 20
0.0
 30
0.0
  0
VERTEX
  5
380C
330
380B
100
AcDbEntity
  8
0
100
AcDbVertex
100
AcDb2dVertex
 10
0.8923133205975446
 20
18.52654022408573
 30
0.0
  0
VERTEX
  5
380D
330
380B
100
AcDbEntity
  8
0
100
AcDbVertex
100
AcDb2dVertex
 10
0.8784141472975548
 20
18.63033545198574
 30
0.0
  0
VERTEX
  5
380E
330
380B
100
AcDbEntity
  8
0
100
AcDbVertex
100
AcDb2dVertex
 10
0.8359974768975533
 20
18.72635453708572
 30
0.0
  0
VERTEX
  5
380F
330
380B
100
AcDbEntity
  8
0
100
AcDbVertex
100
AcDb2dVertex
 10
0.766123731797542
 20
18.79883845058573
 30
0.0
  0
VERTEX
  5
3810
330
380B
100
AcDbEntity
  8
0
100
AcDbVertex
100
AcDb2dVertex
 10
0.6734323337975426
 20
18.83873472278573
 30
0.0
  0
VERTEX
  5
3811
330
380B
100
AcDbEntity
  8
0
100
AcDbVertex
100
AcDb2dVertex
 10
0.5690733650975446
 20
18.83873472278573
 30
0.0
  0
VERTEX
  5
3812
330
380B
100
AcDbEntity
  8
0
100
AcDbVertex
100
AcDb2dVertex
 10
0.4675804055975519
 20
18.79883845058573
 30
0.0
  0
VERTEX
  5
3813
330
380B
100
AcDbEntity
  8
0
100
AcDbVertex
100
AcDb2dVertex
 10
0.3847310638975401
 20
18.72635453708572
 30
0.0
  0
VERTEX
  5
3814
330
380B
100
AcDbEntity
  8
0
100
AcDbVertex
100
AcDb2dVertex
 10
0.3313968777975518
 20
18.63033545198574
 30
0.0
  0
VERTEX
  5
3815
330
380B
100
AcDbEntity
  8
0
100
AcDbVertex
100
AcDb2dVertex
 10
0.3133713486975367
 20
18.52654022408573
 30
0.0
  0
SEQEND
  5
3816
330
380B
100
AcDbEntity
  8
0
  0
POLYLINE
  5
3817
330
17
100
AcDbEntity
  8
0
100
AcDb2dPolyline
 66
     1
 10
0.0
 20
0.0
 30
0.0
  0
VERTEX
  5
3818
330
3817
100
AcDbEntity
  8
0
100
AcDbVertex
100
AcDb2dVertex
 10
0.7438486722975384
 20
18.52654022408573
 30
0.0
  0
VERTEX
  5
3819
330
3817
100
AcDbEntity
  8
0
100
AcDbVertex
100
AcDb2dVertex
 10
0.7325682830975424
 20
18.59644244258574
 30
0.0
  0
VERTEX
  5
381A
330
3817
100
AcDbEntity
  8
0
100
AcDbVertex
100
AcDb2dVertex
 10
0.7002487867975518
 20
18.65636745828574
 30
0.0
  0
VERTEX
  5
381B
330
3817
100
AcDbEntity
  8
0
100
AcDbVertex
100
AcDb2dVertex
 10
0.6497938151975476
 20
18.69657945388572
 30
0.0
  0
VERTEX
  5
381C
330
3817
100
AcDbEntity
  8
0
100
AcDbVertex
100
AcDb2dVertex
 10
0.5883071943975509
 20
18.71104022408572
 30
0.0
  0
VERTEX
  5
381D
330
3817
100
AcDbEntity
  8
0
100
AcDbVertex
100
AcDb2dVertex
 10
0.5249932895975534
 20
18.69657945388572
 30
0.0
  0
VERTEX
  5
381E
330
3817
100
AcDbEntity
  8
0
100
AcDbVertex
100
AcDb2dVertex
 10
0.4701443306975435
 20
18.65636745828574
 30
0.0
  0
VERTEX
  5
381F
330
3817
100
AcDbEntity
  8
0
100
AcDbVertex
100
AcDb2dVertex
 10
0.4335229441975415
 20
18.59644244258574
 30
0.0
  0
VERTEX
  5
3820
330
3817
100
AcDbEntity
  8
0
100
AcDbVertex
100
AcDb2dVertex
 10
0.4204513199975466
 20
18.52654022408573
 30
0.0
  0
SEQEND
  5
3821
330
3817
100
AcDbEntity
  8
0
  0
POLYLINE
  5
3822
330
17
100
AcDbEntity
  8
0
100
AcDb2dPolyline
 66
     1
 10
0.0
 20
0.0
 30
0.0
  0
VERTEX
  5
3823
330
3822
100
AcDbEntity
  8
0
100
AcDbVertex
100
AcDb2dVertex
 10
0.6885483200975458
 20
18.52654022408573
 30
0.0
  0
VERTEX
  5
3824
330
3822
100
AcDbEntity
  8
0
100
AcDbVertex
100
AcDb2dVertex
 10
0.679200893597546
 20
18.58431485838572
 30
0.0
  0
VERTEX
  5
3825
330
3822
100
AcDbEntity
  8
0
100
AcDbVertex
100
AcDb2dVertex
 10
0.6529219292975555
 20
18.63305667868572
 30
0.0
  0
VERTEX
  5
3826
330
3822
100
AcDbEntity
  8
0
100
AcDbVertex
100
AcDb2dVertex
 10
0.6128693887975416
 20
18.66516424128572
 30
0.0
  0
VERTEX
  5
3827
330
3822
100
AcDbEntity
  8
0
100
AcDbVertex
100
AcDb2dVertex
 10
0.5650953609975389
 20
18.67654022408574
 30
0.0
  0
VERTEX
  5
3828
330
3822
100
AcDbEntity
  8
0
100
AcDbVertex
100
AcDb2dVertex
 10
0.5161888860975452
 20
18.66516424128572
 30
0.0
  0
VERTEX
  5
3829
330
3822
100
AcDbEntity
  8
0
100
AcDbVertex
100
AcDb2dVertex
 10
0.4733585498975473
 20
18.63305667868572
 30
0.0
  0
VERTEX
  5
382A
330
3822
100
AcDbEntity
  8
0
100
AcDbVertex
100
AcDb2dVertex
 10
0.4442909655975385
 20
18.58431485838572
 30
0.0
  0
VERTEX
  5
382B
330
3822
100
AcDbEntity
  8
0
100
AcDbVertex
100
AcDb2dVertex
 10
0.4337584183975381
 20
18.52654022408573
 30
0.0
  0
SEQEND
  5
382C
330
3822
100
AcDbEntity
  8
0
  0
POLYLINE
  5
382D
330
17
100
AcDbEntity
  8
0
100
AcDb2dPolyline
 66
     1
 10
0.0
 20
0.0
 30
0.0
  0
VERTEX
  5
382E
330
382D
100
AcDbEntity
  8
0
100
AcDbVertex
100
AcDb2dVertex
 10
0.6885483200975458
 20
18.52654022408573
 30
0.0
  0
VERTEX
  5
382F
330
382D
100
AcDbEntity
  8
0
100
AcDbVertex
100
AcDb2dVertex
 10
0.679200893597546
 20
18.46876558978572
 30
0.0
  0
VERTEX
  5
3830
330
382D
100
AcDbEntity
  8
0
100
AcDbVertex
100
AcDb2dVertex
 10
0.6529219292975555
 20
18.42002376948572
 30
0.0
  0
VERTEX
  5
3831
330
382D
100
AcDbEntity
  8
0
100
AcDbVertex
100
AcDb2dVertex
 10
0.6128693887975416
 20
18.38791620678573
 30
0.0
  0
VERTEX
  5
3832
330
382D
100
AcDbEntity
  8
0
100
AcDbVertex
100
AcDb2dVertex
 10
0.5650953609975389
 20
18.37654022408573
 30
0.0
  0
VERTEX
  5
3833
330
382D
100
AcDbEntity
  8
0
100
AcDbVertex
100
AcDb2dVertex
 10
0.5161888860975452
 20
18.38791620678573
 30
0.0
  0
VERTEX
  5
3834
330
382D
100
AcDbEntity
  8
0
100
AcDbVertex
100
AcDb2dVertex
 10
0.4733585498975473
 20
18.42002376948572
 30
0.0
  0
VERTEX
  5
3835
330
382D
100
AcDbEntity
  8
0
100
AcDbVertex
100
AcDb2dVertex
 10
0.4442909655975385
 20
18.46876558978572
 30
0.0
  0
VERTEX
  5
3836
330
382D
100
AcDbEntity
  8
0
100
AcDbVertex
100
AcDb2dVertex
 10
0.4337584183975381
 20
18.52654022408573
 30
0.0
  0
SEQEND
  5
3837
330
382D
100
AcDbEntity
  8
0
  0
POLYLINE
  5
3838
330
17
100
AcDbEntity
  8
0
100
AcDb2dPolyline
 66
     1
 10
0.0
 20
0.0
 30
0.0
  0
VERTEX
  5
3839
330
3838
100
AcDbEntity
  8
0
100
AcDbVertex
100
AcDb2dVertex
 10
0.7438486722975384
 20
18.52654022408573
 30
0.0
  0
VERTEX
  5
383A
330
3838
100
AcDbEntity
  8
0
100
AcDbVertex
100
AcDb2dVertex
 10
0.7325682830975424
 20
18.45663800558573
 30
0.0
  0
VERTEX
  5
383B
330
3838
100
AcDbEntity
  8
0
100
AcDbVertex
100
AcDb2dVertex
 10
0.7002487867975518
 20
18.39671298978574
 30
0.0
  0
VERTEX
  5
383C
330
3838
100
AcDbEntity
  8
0
100
AcDbVertex
100
AcDb2dVertex
 10
0.6497938151975476
 20
18.35650099418574
 30
0.0
  0
VERTEX
  5
383D
330
3838
100
AcDbEntity
  8
0
100
AcDbVertex
100
AcDb2dVertex
 10
0.5883071943975509
 20
18.34204022408572
 30
0.0
  0
VERTEX
  5
383E
330
3838
100
AcDbEntity
  8
0
100
AcDbVertex
100
AcDb2dVertex
 10
0.5249932895975534
 20
18.35650099418574
 30
0.0
  0
VERTEX
  5
383F
330
3838
100
AcDbEntity
  8
0
100
AcDbVertex
100
AcDb2dVertex
 10
0.4701443306975435
 20
18.39671298978574
 30
0.0
  0
VERTEX
  5
3840
330
3838
100
AcDbEntity
  8
0
100
AcDbVertex
100
AcDb2dVertex
 10
0.4335229441975415
 20
18.45663800558573
 30
0.0
  0
VERTEX
  5
3841
330
3838
100
AcDbEntity
  8
0
100
AcDbVertex
100
AcDb2dVertex
 10
0.4204513199975466
 20
18.52654022408573
 30
0.0
  0
SEQEND
  5
3842
330
3838
100
AcDbEntity
  8
0
  0
POLYLINE
  5
3843
330
17
100
AcDbEntity
  8
0
100
AcDb2dPolyline
 66
     1
 10
0.0
 20
0.0
 30
0.0
  0
VERTEX
  5
3844
330
3843
100
AcDbEntity
  8
0
100
AcDbVertex
100
AcDb2dVertex
 10
0.3133713486975367
 20
18.52654022408573
 30
0.0
  0
VERTEX
  5
3845
330
3843
100
AcDbEntity
  8
0
100
AcDbVertex
100
AcDb2dVertex
 10
0.3313968777975518
 20
18.42274499618573
 30
0.0
  0
VERTEX
  5
3846
330
3843
100
AcDbEntity
  8
0
100
AcDbVertex
100
AcDb2dVertex
 10
0.3847310638975401
 20
18.32672591098573
 30
0.0
  0
VERTEX
  5
3847
330
3843
100
AcDbEntity
  8
0
100
AcDbVertex
100
AcDb2dVertex
 10
0.4675804055975519
 20
18.25424199748572
 30
0.0
  0
VERTEX
  5
3848
330
3843
100
AcDbEntity
  8
0
100
AcDbVertex
100
AcDb2dVertex
 10
0.5690733650975446
 20
18.21434572528572
 30
0.0
  0
VERTEX
  5
3849
330
3843
100
AcDbEntity
  8
0
100
AcDbVertex
100
AcDb2dVertex
 10
0.6734323337975426
 20
18.21434572528572
 30
0.0
  0
VERTEX
  5
384A
330
3843
100
AcDbEntity
  8
0
100
AcDbVertex
100
AcDb2dVertex
 10
0.766123731797542
 20
18.25424199748572
 30
0.0
  0
VERTEX
  5
384B
330
3843
100
AcDbEntity
  8
0
100
AcDbVertex
100
AcDb2dVertex
 10
0.8359974768975533
 20
18.32672591098573
 30
0.0
  0
VERTEX
  5
384C
330
3843
100
AcDbEntity
  8
0
100
AcDbVertex
100
AcDb2dVertex
 10
0.8784141472975548
 20
18.42274499618573
 30
0.0
  0
VERTEX
  5
384D
330
3843
100
AcDbEntity
  8
0
100
AcDbVertex
100
AcDb2dVertex
 10
0.8923133205975446
 20
18.52654022408573
 30
0.0
  0
SEQEND
  5
384E
330
3843
100
AcDbEntity
  8
0
  0
POLYLINE
  5
384F
330
17
100
AcDbEntity
  8
0
100
AcDb2dPolyline
 66
     1
 10
0.0
 20
0.0
 30
0.0
  0
VERTEX
  5
3850
330
384F
100
AcDbEntity
  8
0
100
AcDbVertex
100
AcDb2dVertex
 10
-0.8923133205975162
 20
18.52654022408573
 30
0.0
  0
VERTEX
  5
3851
330
384F
100
AcDbEntity
  8
0
100
AcDbVertex
100
AcDb2dVertex
 10
-0.8784141472975264
 20
18.63033545198574
 30
0.0
  0
VERTEX
  5
3852
330
384F
100
AcDbEntity
  8
0
100
AcDbVertex
100
AcDb2dVertex
 10
-0.8359974768975249
 20
18.72635453708572
 30
0.0
  0
VERTEX
  5
3853
330
384F
100
AcDbEntity
  8
0
100
AcDbVertex
100
AcDb2dVertex
 10
-0.7661237317975136
 20
18.79883845058573
 30
0.0
  0
VERTEX
  5
3854
330
384F
100
AcDbEntity
  8
0
100
AcDbVertex
100
AcDb2dVertex
 10
-0.6734323337975141
 20
18.83873472278573
 30
0.0
  0
VERTEX
  5
3855
330
384F
100
AcDbEntity
  8
0
100
AcDbVertex
100
AcDb2dVertex
 10
-0.5690733650975162
 20
18.83873472278573
 30
0.0
  0
VERTEX
  5
3856
330
384F
100
AcDbEntity
  8
0
100
AcDbVertex
100
AcDb2dVertex
 10
-0.4675804055975235
 20
18.79883845058573
 30
0.0
  0
VERTEX
  5
3857
330
384F
100
AcDbEntity
  8
0
100
AcDbVertex
100
AcDb2dVertex
 10
-0.3847310638975116
 20
18.72635453708572
 30
0.0
  0
VERTEX
  5
3858
330
384F
100
AcDbEntity
  8
0
100
AcDbVertex
100
AcDb2dVertex
 10
-0.3313968777975234
 20
18.63033545198574
 30
0.0
  0
VERTEX
  5
3859
330
384F
100
AcDbEntity
  8
0
100
AcDbVertex
100
AcDb2dVertex
 10
-0.3133713486975083
 20
18.52654022408573
 30
0.0
  0
SEQEND
  5
385A
330
384F
100
AcDbEntity
  8
0
  0
POLYLINE
  5
385B
330
17
100
AcDbEntity
  8
0
100
AcDb2dPolyline
 66
     1
 10
0.0
 20
0.0
 30
0.0
  0
VERTEX
  5
385C
330
385B
100
AcDbEntity
  8
0
100
AcDbVertex
100
AcDb2dVertex
 10
-0.74384867229751
 20
18.52654022408573
 30
0.0
  0
VERTEX
  5
385D
330
385B
100
AcDbEntity
  8
0
100
AcDbVertex
100
AcDb2dVertex
 10
-0.732568283097514
 20
18.59644244258574
 30
0.0
  0
VERTEX
  5
385E
330
385B
100
AcDbEntity
  8
0
100
AcDbVertex
100
AcDb2dVertex
 10
-0.7002487867975234
 20
18.65636745828574
 30
0.0
  0
VERTEX
  5
385F
330
385B
100
AcDbEntity
  8
0
100
AcDbVertex
100
AcDb2dVertex
 10
-0.6497938151975191
 20
18.69657945388572
 30
0.0
  0
VERTEX
  5
3860
330
385B
100
AcDbEntity
  8
0
100
AcDbVertex
100
AcDb2dVertex
 10
-0.5883071943975225
 20
18.71104022408572
 30
0.0
  0
VERTEX
  5
3861
330
385B
100
AcDbEntity
  8
0
100
AcDbVertex
100
AcDb2dVertex
 10
-0.5249932895975249
 20
18.69657945388572
 30
0.0
  0
VERTEX
  5
3862
330
385B
100
AcDbEntity
  8
0
100
AcDbVertex
100
AcDb2dVertex
 10
-0.4701443306975151
 20
18.65636745828574
 30
0.0
  0
VERTEX
  5
3863
330
385B
100
AcDbEntity
  8
0
100
AcDbVertex
100
AcDb2dVertex
 10
-0.4335229441975131
 20
18.59644244258574
 30
0.0
  0
VERTEX
  5
3864
330
385B
100
AcDbEntity
  8
0
100
AcDbVertex
100
AcDb2dVertex
 10
-0.4204513199975182
 20
18.52654022408573
 30
0.0
  0
SEQEND
  5
3865
330
385B
100
AcDbEntity
  8
0
  0
POLYLINE
  5
3866
330
17
100
AcDbEntity
  8
0
100
AcDb2dPolyline
 66
     1
 10
0.0
 20
0.0
 30
0.0
  0
VERTEX
  5
3867
330
3866
100
AcDbEntity
  8
0
100
AcDbVertex
100
AcDb2dVertex
 10
-0.6885483200975174
 20
18.52654022408573
 30
0.0
  0
VERTEX
  5
3868
330
3866
100
AcDbEntity
  8
0
100
AcDbVertex
100
AcDb2dVertex
 10
-0.6792008935975176
 20
18.58431485838572
 30
0.0
  0
VERTEX
  5
3869
330
3866
100
AcDbEntity
  8
0
100
AcDbVertex
100
AcDb2dVertex
 10
-0.6529219292975271
 20
18.63305667868572
 30
0.0
  0
VERTEX
  5
386A
330
3866
100
AcDbEntity
  8
0
100
AcDbVertex
100
AcDb2dVertex
 10
-0.6128693887975132
 20
18.66516424128572
 30
0.0
  0
VERTEX
  5
386B
330
3866
100
AcDbEntity
  8
0
100
AcDbVertex
100
AcDb2dVertex
 10
-0.5650953609975105
 20
18.67654022408574
 30
0.0
  0
VERTEX
  5
386C
330
3866
100
AcDbEntity
  8
0
100
AcDbVertex
100
AcDb2dVertex
 10
-0.5161888860975168
 20
18.66516424128572
 30
0.0
  0
VERTEX
  5
386D
330
3866
100
AcDbEntity
  8
0
100
AcDbVertex
100
AcDb2dVertex
 10
-0.4733585498975188
 20
18.63305667868572
 30
0.0
  0
VERTEX
  5
386E
330
3866
100
AcDbEntity
  8
0
100
AcDbVertex
100
AcDb2dVertex
 10
-0.4442909655975101
 20
18.58431485838572
 30
0.0
  0
VERTEX
  5
386F
330
3866
100
AcDbEntity
  8
0
100
AcDbVertex
100
AcDb2dVertex
 10
-0.4337584183975097
 20
18.52654022408573
 30
0.0
  0
SEQEND
  5
3870
330
3866
100
AcDbEntity
  8
0
  0
POLYLINE
  5
3871
330
17
100
AcDbEntity
  8
0
100
AcDb2dPolyline
 66
     1
 10
0.0
 20
0.0
 30
0.0
  0
VERTEX
  5
3872
330
3871
100
AcDbEntity
  8
0
100
AcDbVertex
100
AcDb2dVertex
 10
-0.6885483200975174
 20
18.52654022408573
 30
0.0
  0
VERTEX
  5
3873
330
3871
100
AcDbEntity
  8
0
100
AcDbVertex
100
AcDb2dVertex
 10
-0.6792008935975176
 20
18.46876558978572
 30
0.0
  0
VERTEX
  5
3874
330
3871
100
AcDbEntity
  8
0
100
AcDbVertex
100
AcDb2dVertex
 10
-0.6529219292975271
 20
18.42002376948572
 30
0.0
  0
VERTEX
  5
3875
330
3871
100
AcDbEntity
  8
0
100
AcDbVertex
100
AcDb2dVertex
 10
-0.6128693887975132
 20
18.38791620678573
 30
0.0
  0
VERTEX
  5
3876
330
3871
100
AcDbEntity
  8
0
100
AcDbVertex
100
AcDb2dVertex
 10
-0.5650953609975105
 20
18.37654022408573
 30
0.0
  0
VERTEX
  5
3877
330
3871
100
AcDbEntity
  8
0
100
AcDbVertex
100
AcDb2dVertex
 10
-0.5161888860975168
 20
18.38791620678573
 30
0.0
  0
VERTEX
  5
3878
330
3871
100
AcDbEntity
  8
0
100
AcDbVertex
100
AcDb2dVertex
 10
-0.4733585498975188
 20
18.42002376948572
 30
0.0
  0
VERTEX
  5
3879
330
3871
100
AcDbEntity
  8
0
100
AcDbVertex
100
AcDb2dVertex
 10
-0.4442909655975101
 20
18.46876558978572
 30
0.0
  0
VERTEX
  5
387A
330
3871
100
AcDbEntity
  8
0
100
AcDbVertex
100
AcDb2dVertex
 10
-0.4337584183975097
 20
18.52654022408573
 30
0.0
  0
SEQEND
  5
387B
330
3871
100
AcDbEntity
  8
0
  0
POLYLINE
  5
387C
330
17
100
AcDbEntity
  8
0
100
AcDb2dPolyline
 66
     1
 10
0.0
 20
0.0
 30
0.0
  0
VERTEX
  5
387D
330
387C
100
AcDbEntity
  8
0
100
AcDbVertex
100
AcDb2dVertex
 10
-0.74384867229751
 20
18.52654022408573
 30
0.0
  0
VERTEX
  5
387E
330
387C
100
AcDbEntity
  8
0
100
AcDbVertex
100
AcDb2dVertex
 10
-0.732568283097514
 20
18.45663800558573
 30
0.0
  0
VERTEX
  5
387F
330
387C
100
AcDbEntity
  8
0
100
AcDbVertex
100
AcDb2dVertex
 10
-0.7002487867975234
 20
18.39671298978574
 30
0.0
  0
VERTEX
  5
3880
330
387C
100
AcDbEntity
  8
0
100
AcDbVertex
100
AcDb2dVertex
 10
-0.6497938151975191
 20
18.35650099418574
 30
0.0
  0
VERTEX
  5
3881
330
387C
100
AcDbEntity
  8
0
100
AcDbVertex
100
AcDb2dVertex
 10
-0.5883071943975225
 20
18.34204022408572
 30
0.0
  0
VERTEX
  5
3882
330
387C
100
AcDbEntity
  8
0
100
AcDbVertex
100
AcDb2dVertex
 10
-0.5249932895975249
 20
18.35650099418574
 30
0.0
  0
VERTEX
  5
3883
330
387C
100
AcDbEntity
  8
0
100
AcDbVertex
100
AcDb2dVertex
 10
-0.4701443306975151
 20
18.39671298978574
 30
0.0
  0
VERTEX
  5
3884
330
387C
100
AcDbEntity
  8
0
100
AcDbVertex
100
AcDb2dVertex
 10
-0.4335229441975131
 20
18.45663800558573
 30
0.0
  0
VERTEX
  5
3885
330
387C
100
AcDbEntity
  8
0
100
AcDbVertex
100
AcDb2dVertex
 10
-0.4204513199975182
 20
18.52654022408573
 30
0.0
  0
SEQEND
  5
3886
330
387C
100
AcDbEntity
  8
0
  0
POLYLINE
  5
3887
330
17
100
AcDbEntity
  8
0
100
AcDb2dPolyline
 66
     1
 10
0.0
 20
0.0
 30
0.0
  0
VERTEX
  5
3888
330
3887
100
AcDbEntity
  8
0
100
AcDbVertex
100
AcDb2dVertex
 10
-0.3133713486975083
 20
18.52654022408573
 30
0.0
  0
VERTEX
  5
3889
330
3887
100
AcDbEntity
  8
0
100
AcDbVertex
100
AcDb2dVertex
 10
-0.3313968777975234
 20
18.42274499618573
 30
0.0
  0
VERTEX
  5
388A
330
3887
100
AcDbEntity
  8
0
100
AcDbVertex
100
AcDb2dVertex
 10
-0.3847310638975116
 20
18.32672591098573
 30
0.0
  0
VERTEX
  5
388B
330
3887
100
AcDbEntity
  8
0
100
AcDbVertex
100
AcDb2dVertex
 10
-0.4675804055975235
 20
18.25424199748572
 30
0.0
  0
VERTEX
  5
388C
330
3887
100
AcDbEntity
  8
0
100
AcDbVertex
100
AcDb2dVertex
 10
-0.5690733650975162
 20
18.21434572528572
 30
0.0
  0
VERTEX
  5
388D
330
3887
100
AcDbEntity
  8
0
100
AcDbVertex
100
AcDb2dVertex
 10
-0.6734323337975141
 20
18.21434572528572
 30
0.0
  0
VERTEX
  5
388E
330
3887
100
AcDbEntity
  8
0
100
AcDbVertex
100
AcDb2dVertex
 10
-0.7661237317975136
 20
18.25424199748572
 30
0.0
  0
VERTEX
  5
388F
330
3887
100
AcDbEntity
  8
0
100
AcDbVertex
100
AcDb2dVertex
 10
-0.8359974768975249
 20
18.32672591098573
 30
0.0
  0
VERTEX
  5
3890
330
3887
100
AcDbEntity
  8
0
100
AcDbVertex
100
AcDb2dVertex
 10
-0.8784141472975264
 20
18.42274499618573
 30
0.0
  0
VERTEX
  5
3891
330
3887
100
AcDbEntity
  8
0
100
AcDbVertex
100
AcDb2dVertex
 10
-0.8923133205975162
 20
18.52654022408573
 30
0.0
  0
SEQEND
  5
3892
330
3887
100
AcDbEntity
  8
0
  0
LINE
  5
3961
330
17
100
AcDbEntity
  8
0
100
AcDbLine
 10
-0.9058688456998282
 20
18.96884022408573
 30
0.0
 11
0.9058689937087223
 21
18.96884022408573
 31
0.0
  0
LINE
  5
3962
330
17
100
AcDbEntity
  8
0
100
AcDbLine
 10
-0.9058688456998353
 20
19.2031035762397
 30
0.0
 11
0.9058689937087223
 21
19.2031035762397
 31
0.0
  0
LINE
  5
3963
330
17
100
AcDbEntity
  8
0
100
AcDbLine
 10
-0.8571865376424341
 20
20.82884022408569
 30
0.0
 11
0.9059677163431132
 21
20.82884022408569
 31
0.0
  0
LWPOLYLINE
  5
3964
330
17
100
AcDbEntity
  8
0
100
AcDbPolyline
 90
       10
 70
     0
 43
0.0
 10
-0.9999841263998376
 20
20.61934739348569
 10
-0.9997577064998353
 20
20.65812695218569
 10
-0.9988351680998377
 20
20.69436476138569
 10
-0.9965176663998391
 20
20.72736034118569
 10
-0.9918798598998392
 20
20.75698925868569
 10
-0.9840053132998392
 20
20.78217896718569
 10
-0.9721600852998406
 20
20.80217042488569
 10
-0.9554084652998398
 20
20.81690111608569
 10
-0.933239405599842
 20
20.82587684418569
 10
-0.9058688456998353
 20
20.82884022408569
  0
LWPOLYLINE
  5
3965
330
17
100
AcDbEntity
  8
0
100
AcDbPolyline
 90
       11
 70
     0
 43
0.0
 10
-0.9999999999998365
 20
20.56732886378574
 10
-0.9999841263998376
 20
20.64735456288574
 10
-0.9997577064998353
 20
20.72491368028574
 10
-0.9988351680998377
 20
20.79738929868574
 10
-0.9965176663998391
 20
20.86338045828575
 10
-0.9918798598998392
 20
20.92263829328574
 10
-0.9840053132998392
 20
20.97301771018575
 10
-0.9721600852998406
 20
21.01300062558575
 10
-0.9554084652998398
 20
21.04246200798574
 10
-0.933239405599842
 20
21.06041346428574
 10
-0.9058688456998353
 20
21.06634022408574
  0
LWPOLYLINE
  5
3966
330
17
100
AcDbEntity
  8
0
100
AcDbPolyline
 90
       10
 70
     0
 43
0.0
 10
-0.9058688456998353
 20
19.2031035762397
 10
-0.9332394084998369
 20
19.2060669568397
 10
-0.9554084697998348
 20
19.2150426870397
 10
-0.9721600901998428
 20
19.22977338153969
 10
-0.9840053177998342
 20
19.24976484363969
 10
-0.9918798633998378
 20
19.2749545575397
 10
-0.9965176686998375
 20
19.3045834809397
 10
-0.9988351692998378
 20
19.33757906693969
 10
-0.9997577068998353
 20
19.3738168828397
 10
-0.9999841264998394
 20
19.4125964479397
  0
LWPOLYLINE
  5
3967
330
17
100
AcDbEntity
  8
0
100
AcDbPolyline
 90
       11
 70
     0
 43
0.0
 10
-0.9058688456998353
 20
18.96884022408573
 10
-0.9332394084998369
 20
18.97476698528573
 10
-0.9554084697998348
 20
18.99271844568573
 10
-0.9721600901998428
 20
19.02217983468573
 10
-0.9840053177998342
 20
19.06216275888573
 10
-0.9918798633998378
 20
19.11254218668573
 10
-0.9965176686998375
 20
19.17180003338573
 10
-0.9988351692998378
 20
19.23779120548573
 10
-0.9997577068998353
 20
19.31026683728574
 10
-0.9999841264998394
 20
19.38782596738573
 10
-0.9999999999998365
 20
19.46785167718573
  0
LWPOLYLINE
  5
3968
330
17
100
AcDbEntity
  8
0
100
AcDbPolyline
 90
       11
 70
     0
 43
0.0
 10
0.9059677163431132
 20
21.06634022408574
 10
0.9333382821431115
 20
21.06041346148574
 10
0.9555073451431184
 20
21.04246199668574
 10
0.972258966043114
 20
21.01300060078574
 10
0.9841041932431124
 20
20.97301766708574
 10
0.9919787378431124
 20
20.92263822788574
 10
0.9966165418431174
 20
20.86338036858574
 10
0.9989340412431175
 20
20.79738918318573
 10
0.999856578043115
 20
20.72491353728574
 10
1.00008299714311
 20
20.64735439358574
 10
1.000098870643114
 20
20.56732867238574
  0
LWPOLYLINE
  5
3969
330
17
100
AcDbEntity
  8
0
100
AcDbPolyline
 90
       10
 70
     0
 43
0.0
 10
0.9059677163431132
 20
20.82884022408569
 10
0.9333382821431115
 20
20.82587684278569
 10
0.9555073451431184
 20
20.81690111038569
 10
0.972258966043114
 20
20.80217041238569
 10
0.9841041932431124
 20
20.78217894558568
 10
0.9919787378431124
 20
20.75698922598569
 10
0.9966165418431174
 20
20.72736029638568
 10
0.9989340412431175
 20
20.69436470368569
 10
0.999856578043115
 20
20.65812688068568
 10
1.00008299714311
 20
20.6193473088857
  0
LWPOLYLINE
  5
396A
330
17
100
AcDbEntity
  8
0
100
AcDbPolyline
 90
       10
 70
     0
 43
0.0
 10
0.9999842745087192
 20
19.4125964412397
 10
0.9997578548087275
 20
19.3738168772397
 10
0.9988353172087229
 20
19.33757906243969
 10
0.9965178164087262
 20
19.3045834773397
 10
0.9918800109087229
 20
19.2749545549397
 10
0.9840054651087228
 20
19.2497648419397
 10
0.9721602374087225
 20
19.2297733805397
 10
0.9554086170087217
 20
19.2150426866397
 10
0.9332395560087221
 20
19.2060669567397
 10
0.9058689937087223
 20
19.2031035762397
  0
LWPOLYLINE
  5
396B
330
17
100
AcDbEntity
  8
0
100
AcDbPolyline
 90
       11
 70
     0
 43
0.0
 10
1.000000148008723
 20
19.46785166218573
 10
0.9999842745087192
 20
19.38782595408573
 10
0.9997578548087275
 20
19.31026682598573
 10
0.9988353172087229
 20
19.23779119638573
 10
0.9965178164087262
 20
19.17180002638573
 10
0.9918800109087229
 20
19.11254218148573
 10
0.9840054651087228
 20
19.06216275548573
 10
0.9721602374087225
 20
19.02217983268574
 10
0.9554086170087217
 20
18.99271844478574
 10
0.9332395560087221
 20
18.97476698508573
 10
0.9058689937087223
 20
18.96884022408573
  0
LINE
  5
396C
330
17
100
AcDbEntity
  8
0
100
AcDbLine
 10
1.00000000000022
 20
20.52732867238574
 30
0.0
 11
0.9999999952815841
 21
20.24158136897752
 31
0.0
  0
LINE
  5
396D
330
17
100
AcDbEntity
  8
0
100
AcDbLine
 10
0.9999999877600629
 20
19.78609908772682
 30
0.0
 11
0.9999999836908983
 21
19.53968136697902
 31
0.0
  0
LINE
  5
396E
330
17
100
AcDbEntity
  8
0
100
AcDbLine
 10
-0.8623445286176263
 20
21.06337684418574
 30
0.0
 11
0.9059677163431132
 21
21.06634022408574
 31
0.0
  0
LINE
  5
396F
330
17
100
AcDbEntity
  8
0
100
AcDbLine
 10
-0.9999999999998365
 20
19.46785167718573
 30
0.0
 11
-0.9999999999998436
 21
19.78609907384126
 31
0.0
  0
LINE
  5
3970
330
17
100
AcDbEntity
  8
0
100
AcDbLine
 10
-0.9999999999998436
 20
20.24158137433022
 30
0.0
 11
-0.9999999999998365
 21
20.56732886378574
 31
0.0
  0
LINE
  5
3971
330
17
100
AcDbEntity
  8
0
100
AcDbLine
 10
-0.9999999999998436
 20
20.24158137433022
 30
0.0
 11
-0.9999999999998436
 21
19.78609907384125
 31
0.0
  0
LINE
  5
3972
330
17
100
AcDbEntity
  8
0
100
AcDbLine
 10
0.9999999952815841
 20
20.24158136897752
 30
0.0
 11
0.9999999877600629
 21
19.78609908772682
 31
0.0
  0
ARC
  5
3982
330
17
100
AcDbEntity
  8
0
100
AcDbCircle
 10
0.0000000000000142
 20
19.92009022408574
 30
0.0
 40
0.46875
100
AcDbArc
 50
180.0
 51
0.0
  0
ARC
  5
3983
330
17
100
AcDbEntity
  8
0
100
AcDbCircle
 10
0.0000000000000142
 20
20.10759022408574
 30
0.0
 40
0.46875
100
AcDbArc
 50
0.0
 51
180.0
  0
LINE
  5
3984
330
17
100
AcDbEntity
  8
0
100
AcDbLine
 10
-0.4687499999999823
 20
20.10759022408574
 30
0.0
 11
-0.4687499999999823
 21
19.92009022408574
 31
0.0
  0
LINE
  5
3985
330
17
100
AcDbEntity
  8
0
100
AcDbLine
 10
0.4687500000000142
 20
20.10759022408574
 30
0.0
 11
0.4687500000000142
 21
19.92009022408574
 31
0.0
  0
LINE
  5
3A17
330
17
100
AcDbEntity
  8
0
100
AcDbLine
 10
7.03490936979842
 20
0.1349999999999785
 30
0.0
 11
6.65990936979842
 21
0.1349999999999785
 31
0.0
  0
LINE
  5
3A19
330
17
100
AcDbEntity
  8
0
100
AcDbLine
 10
6.643203228198863
 20
0.3277999520459449
 30
0.0
 11
6.633859369798877
 21
0.3037976694459363
 31
0.0
  0
POLYLINE
  5
3A1A
330
17
100
AcDbEntity
  8
0
100
AcDb2dPolyline
 66
     1
 10
0.0
 20
0.0
 30
0.0
  0
VERTEX
  5
3A1B
330
3A1A
100
AcDbEntity
  8
0
100
AcDbVertex
100
AcDb2dVertex
 10
6.933859369798874
 20
0.3037976694459363
 30
0.0
  0
VERTEX
  5
3A1C
330
3A1A
100
AcDbEntity
  8
0
100
AcDbVertex
100
AcDb2dVertex
 10
6.92248338699887
 20
0.2765128658459393
 30
0.0
  0
VERTEX
  5
3A1D
330
3A1A
100
AcDbEntity
  8
0
100
AcDbVertex
100
AcDb2dVertex
 10
6.89037582439888
 20
0.2546677817459457
 30
0.0
  0
VERTEX
  5
3A1E
330
3A1A
100
AcDbEntity
  8
0
100
AcDbVertex
100
AcDb2dVertex
 10
6.841634004098871
 20
0.2408790799459499
 30
0.0
  0
VERTEX
  5
3A1F
330
3A1A
100
AcDbEntity
  8
0
100
AcDbVertex
100
AcDb2dVertex
 10
6.783859369798868
 20
0.2360832609459411
 30
0.0
  0
SEQEND
  5
3A20
330
3A1A
100
AcDbEntity
  8
0
  0
LINE
  5
3A21
330
17
100
AcDbEntity
  8
0
100
AcDbLine
 10
6.924508615098865
 20
0.3278176671459452
 30
0.0
 11
6.933859369798874
 21
0.3037976694459363
 31
0.0
  0
POLYLINE
  5
3A22
330
17
100
AcDbEntity
  8
0
100
AcDb2dPolyline
 66
     1
 10
0.0
 20
0.0
 30
0.0
  0
VERTEX
  5
3A23
330
3A22
100
AcDbEntity
  8
0
100
AcDbVertex
100
AcDb2dVertex
 10
6.953898599598879
 20
0.3021180241459493
 30
0.0
  0
VERTEX
  5
3A24
330
3A22
100
AcDbEntity
  8
0
100
AcDbVertex
100
AcDb2dVertex
 10
6.968359369798868
 20
0.2640835562459305
 30
0.0
  0
VERTEX
  5
3A25
330
3A22
100
AcDbEntity
  8
0
100
AcDbVertex
100
AcDb2dVertex
 10
6.953898599598879
 20
0.2291754661459269
 30
0.0
  0
VERTEX
  5
3A26
330
3A22
100
AcDbEntity
  8
0
100
AcDbVertex
100
AcDb2dVertex
 10
6.913686603998876
 20
0.202160735445938
 30
0.0
  0
VERTEX
  5
3A27
330
3A22
100
AcDbEntity
  8
0
100
AcDbVertex
100
AcDb2dVertex
 10
6.853761588298873
 20
0.1856938310459331
 30
0.0
  0
VERTEX
  5
3A28
330
3A22
100
AcDbEntity
  8
0
100
AcDbVertex
100
AcDb2dVertex
 10
6.783859369798868
 20
0.1801096318459319
 30
0.0
  0
SEQEND
  5
3A29
330
3A22
100
AcDbEntity
  8
0
  0
POLYLINE
  5
3A2A
330
17
100
AcDbEntity
  8
0
100
AcDb2dPolyline
 66
     1
 10
0.0
 20
0.0
 30
0.0
  0
VERTEX
  5
3A2B
330
3A2A
100
AcDbEntity
  8
0
100
AcDbVertex
100
AcDb2dVertex
 10
6.633859369798877
 20
0.3037976694459363
 30
0.0
  0
VERTEX
  5
3A2C
330
3A2A
100
AcDbEntity
  8
0
100
AcDbVertex
100
AcDb2dVertex
 10
6.645235352498865
 20
0.2765128658459393
 30
0.0
  0
VERTEX
  5
3A2D
330
3A2A
100
AcDbEntity
  8
0
100
AcDbVertex
100
AcDb2dVertex
 10
6.67734291519887
 20
0.2546677817459457
 30
0.0
  0
VERTEX
  5
3A2E
330
3A2A
100
AcDbEntity
  8
0
100
AcDbVertex
100
AcDb2dVertex
 10
6.726084735498865
 20
0.2408790799459499
 30
0.0
  0
VERTEX
  5
3A2F
330
3A2A
100
AcDbEntity
  8
0
100
AcDbVertex
100
AcDb2dVertex
 10
6.783859369798868
 20
0.2360832609459411
 30
0.0
  0
SEQEND
  5
3A30
330
3A2A
100
AcDbEntity
  8
0
  0
POLYLINE
  5
3A31
330
17
100
AcDbEntity
  8
0
100
AcDb2dPolyline
 66
     1
 10
0.0
 20
0.0
 30
0.0
  0
VERTEX
  5
3A32
330
3A31
100
AcDbEntity
  8
0
100
AcDbVertex
100
AcDb2dVertex
 10
6.626593154798875
 20
0.3163120883459332
 30
0.0
  0
VERTEX
  5
3A33
330
3A31
100
AcDbEntity
  8
0
100
AcDbVertex
100
AcDb2dVertex
 10
6.613820139898869
 20
0.3021180241459493
 30
0.0
  0
VERTEX
  5
3A34
330
3A31
100
AcDbEntity
  8
0
100
AcDbVertex
100
AcDb2dVertex
 10
6.599359369798868
 20
0.2640835562459305
 30
0.0
  0
VERTEX
  5
3A35
330
3A31
100
AcDbEntity
  8
0
100
AcDbVertex
100
AcDb2dVertex
 10
6.613820139898869
 20
0.2291754661459269
 30
0.0
  0
VERTEX
  5
3A36
330
3A31
100
AcDbEntity
  8
0
100
AcDbVertex
100
AcDb2dVertex
 10
6.654032135498873
 20
0.202160735445938
 30
0.0
  0
VERTEX
  5
3A37
330
3A31
100
AcDbEntity
  8
0
100
AcDbVertex
100
AcDb2dVertex
 10
6.713957151298878
 20
0.1856938310459331
 30
0.0
  0
VERTEX
  5
3A38
330
3A31
100
AcDbEntity
  8
0
100
AcDbVertex
100
AcDb2dVertex
 10
6.783859369798868
 20
0.1801096318459319
 30
0.0
  0
SEQEND
  5
3A39
330
3A31
100
AcDbEntity
  8
0
  0
POLYLINE
  5
3A3A
330
17
100
AcDbEntity
  8
0
100
AcDb2dPolyline
 66
     1
 10
0.0
 20
0.0
 30
0.0
  0
VERTEX
  5
3A3B
330
3A3A
100
AcDbEntity
  8
0
100
AcDbVertex
100
AcDb2dVertex
 10
6.626670704398868
 20
0.3163852384459407
 30
0.0
  0
VERTEX
  5
3A3C
330
3A3A
100
AcDbEntity
  8
0
100
AcDbVertex
100
AcDb2dVertex
 10
6.633671834298873
 20
0.3222557784459301
 30
0.0
  0
VERTEX
  5
3A3D
330
3A3A
100
AcDbEntity
  8
0
100
AcDbVertex
100
AcDb2dVertex
 10
6.663234822998866
 20
0.3394518302459293
 30
0.0
  0
SEQEND
  5
3A3E
330
3A3A
100
AcDbEntity
  8
0
  0
LINE
  5
3A3F
330
17
100
AcDbEntity
  8
0
100
AcDbLine
 10
6.941125584798875
 20
0.3163120883459332
 30
0.0
 11
6.953898599598879
 21
0.3021180241459493
 31
0.0
  0
POLYLINE
  5
3A40
330
17
100
AcDbEntity
  8
0
100
AcDb2dPolyline
 66
     1
 10
0.0
 20
0.0
 30
0.0
  0
VERTEX
  5
3A41
330
3A40
100
AcDbEntity
  8
0
100
AcDbVertex
100
AcDb2dVertex
 10
6.584045056698876
 20
0.358221720245945
 30
0.0
  0
VERTEX
  5
3A42
330
3A40
100
AcDbEntity
  8
0
100
AcDbVertex
100
AcDb2dVertex
 10
6.680064141898874
 20
0.3955432443459248
 30
0.0
  0
VERTEX
  5
3A43
330
3A40
100
AcDbEntity
  8
0
100
AcDbVertex
100
AcDb2dVertex
 10
6.783859369798868
 20
0.4084027890459315
 30
0.0
  0
SEQEND
  5
3A44
330
3A40
100
AcDbEntity
  8
0
  0
LINE
  5
3A45
330
17
100
AcDbEntity
  8
0
100
AcDbLine
 10
6.663234822998866
 20
0.3394518302459293
 30
0.0
 11
6.709532663898876
 21
0.3553196490459474
 31
0.0
  0
LINE
  5
3A46
330
17
100
AcDbEntity
  8
0
100
AcDbLine
 10
6.765595146998869
 20
0.3637392559459389
 30
0.0
 11
6.783859369798868
 21
0.3642774526459451
 31
0.0
  0
LINE
  5
3A47
330
17
100
AcDbEntity
  8
0
100
AcDbLine
 10
6.783859369798868
 20
0.3642774529459363
 30
0.0
 11
6.805196660598873
 21
0.3635435550459309
 31
0.0
  0
POLYLINE
  5
3A48
330
17
100
AcDbEntity
  8
0
100
AcDb2dPolyline
 66
     1
 10
0.0
 20
0.0
 30
0.0
  0
VERTEX
  5
3A49
330
3A48
100
AcDbEntity
  8
0
100
AcDbVertex
100
AcDb2dVertex
 10
6.783859369798868
 20
0.0700267436459345
 30
0.0
  0
VERTEX
  5
3A4A
330
3A48
100
AcDbEntity
  8
0
100
AcDbVertex
100
AcDb2dVertex
 10
6.680064141898874
 20
0.0758263306459472
 30
0.0
  0
VERTEX
  5
3A4B
330
3A48
100
AcDbEntity
  8
0
100
AcDbVertex
100
AcDb2dVertex
 10
6.584045056698876
 20
0.0944686125459331
 30
0.0
  0
VERTEX
  5
3A4C
330
3A48
100
AcDbEntity
  8
0
100
AcDbVertex
100
AcDb2dVertex
 10
6.511561143198868
 20
0.1279996352459367
 30
0.0
  0
VERTEX
  5
3A4D
330
3A48
100
AcDbEntity
  8
0
100
AcDbVertex
100
AcDb2dVertex
 10
6.471664870998871
 20
0.177217925045932
 30
0.0
  0
VERTEX
  5
3A4E
330
3A48
100
AcDbEntity
  8
0
100
AcDbVertex
100
AcDb2dVertex
 10
6.471664870998871
 20
0.2382129415459477
 30
0.0
  0
VERTEX
  5
3A4F
330
3A48
100
AcDbEntity
  8
0
100
AcDbVertex
100
AcDb2dVertex
 10
6.511561143198868
 20
0.3024901973459411
 30
0.0
  0
VERTEX
  5
3A50
330
3A48
100
AcDbEntity
  8
0
100
AcDbVertex
100
AcDb2dVertex
 10
6.584045056698876
 20
0.358221720245945
 30
0.0
  0
SEQEND
  5
3A51
330
3A48
100
AcDbEntity
  8
0
  0
LINE
  5
3A52
330
17
100
AcDbEntity
  8
0
100
AcDbLine
 10
6.783859369798868
 20
0.4084027890459315
 30
0.0
 11
6.887654597698876
 21
0.3955432443459532
 31
0.0
  0
LINE
  5
3A53
330
17
100
AcDbEntity
  8
0
100
AcDbLine
 10
6.805196660598873
 20
0.3635435550459309
 30
0.0
 11
6.860377245198868
 21
0.3547721189459541
 31
0.0
  0
LINE
  5
3A54
330
17
100
AcDbEntity
  8
0
100
AcDbLine
 10
6.860377245198868
 20
0.3547721189459541
 30
0.0
 11
6.905576812598873
 21
0.3389475024459276
 31
0.0
  0
POLYLINE
  5
3A55
330
17
100
AcDbEntity
  8
0
100
AcDb2dPolyline
 66
     1
 10
0.0
 20
0.0
 30
0.0
  0
VERTEX
  5
3A56
330
3A55
100
AcDbEntity
  8
0
100
AcDbVertex
100
AcDb2dVertex
 10
6.887654597698876
 20
0.3955432443459248
 30
0.0
  0
VERTEX
  5
3A57
330
3A55
100
AcDbEntity
  8
0
100
AcDbVertex
100
AcDb2dVertex
 10
6.983673682798873
 20
0.358221720245945
 30
0.0
  0
VERTEX
  5
3A58
330
3A55
100
AcDbEntity
  8
0
100
AcDbVertex
100
AcDb2dVertex
 10
7.056157596298866
 20
0.3024901973459411
 30
0.0
  0
VERTEX
  5
3A59
330
3A55
100
AcDbEntity
  8
0
100
AcDbVertex
100
AcDb2dVertex
 10
7.096053868498863
 20
0.2382129415459477
 30
0.0
  0
VERTEX
  5
3A5A
330
3A55
100
AcDbEntity
  8
0
100
AcDbVertex
100
AcDb2dVertex
 10
7.096053868498863
 20
0.177217925045932
 30
0.0
  0
VERTEX
  5
3A5B
330
3A55
100
AcDbEntity
  8
0
100
AcDbVertex
100
AcDb2dVertex
 10
7.056157596298866
 20
0.1279996352459367
 30
0.0
  0
VERTEX
  5
3A5C
330
3A55
100
AcDbEntity
  8
0
100
AcDbVertex
100
AcDb2dVertex
 10
6.983673682798873
 20
0.0944686125459331
 30
0.0
  0
VERTEX
  5
3A5D
330
3A55
100
AcDbEntity
  8
0
100
AcDbVertex
100
AcDb2dVertex
 10
6.887654597698876
 20
0.0758263306459472
 30
0.0
  0
VERTEX
  5
3A5E
330
3A55
100
AcDbEntity
  8
0
100
AcDbVertex
100
AcDb2dVertex
 10
6.783859369798868
 20
0.0700267436459345
 30
0.0
  0
SEQEND
  5
3A5F
330
3A55
100
AcDbEntity
  8
0
  0
LINE
  5
3A60
330
17
100
AcDbEntity
  8
0
100
AcDbLine
 10
6.905576812598873
 20
0.3389475024459276
 30
0.0
 11
6.934309764098877
 21
0.3220556603459332
 31
0.0
  0
LINE
  5
3A61
330
17
100
AcDbEntity
  8
0
100
AcDbLine
 10
6.709532663898876
 20
0.3553196490459474
 30
0.0
 11
6.765595146998869
 21
0.3637392559459389
 31
0.0
  0
CIRCLE
  5
3A6E
330
17
100
AcDbEntity
  8
0
100
AcDbCircle
 10
0.0000000000000178
 20
20.01384022408574
 30
0.0
 40
0.46875
  0
LINE
  5
3A9A
330
17
100
AcDbEntity
  8
0
100
AcDbLine
 10
-6.033859369798996
 20
0.000000000000016
 30
0.0
 11
-6.03385936979901
 21
1.168968916432051
 31
0.0
  0
LINE
  5
3A9B
330
17
100
AcDbEntity
  8
0
100
AcDbLine
 10
-6.033859369798868
 20
0.0000000000000018
 30
0.0
 11
-6.033859369798868
 21
1.500000000000001
 31
0.0
  0
LINE
  5
3A9C
330
17
100
AcDbEntity
  8
0
100
AcDbLine
 10
-7.03490936979842
 20
0.13499999999995
 30
0.0
 11
-6.65990936979842
 21
0.13499999999995
 31
0.0
  0
LINE
  5
3A9D
330
17
100
AcDbEntity
  8
0
  6
HIDDEN
100
AcDbLine
 10
-9.521159369799093
 20
12.93749999999987
 30
0.0
 11
-9.5211593697991
 21
0.3349999999999955
 31
0.0
  0
LINE
  5
3A9E
330
17
100
AcDbEntity
  8
0
100
AcDbLine
 10
-9.656159369799098
 20
12.93749999999987
 30
0.0
 11
-9.656159369799091
 21
0.3349999999999955
 31
0.0
  0
LINE
  5
3A9F
330
17
100
AcDbEntity
  8
0
100
AcDbLine
 10
-7.321837882027473
 20
5.214218267560612
 30
0.0
 11
-7.833659369799086
 21
12.93749999999986
 31
0.0
  0
LINE
  5
3AA0
330
17
100
AcDbEntity
  8
0
100
AcDbLine
 10
-6.064013059406057
 20
1.714948226669337
 30
0.0
 11
-7.2944232447363
 21
5.095472427531648
 31
0.0
  0
LINE
  5
3AA1
330
17
100
AcDbEntity
  8
0
100
AcDbLine
 10
-7.7086593697991
 20
0.0009854828000062
 30
0.0
 11
-7.7086593697991
 21
0.1350000000000069
 31
0.0
  0
LINE
  5
3AA2
330
17
100
AcDbEntity
  8
0
100
AcDbLine
 10
-8.8336593697991
 20
0.0009863609000309
 30
0.0
 11
-8.8336593697991
 21
0.1350000000000069
 31
0.0
  0
ARC
  5
3AA3
330
17
100
AcDbEntity
  8
0
100
AcDbCircle
 10
-9.321159369799097
 20
0.3349999999999955
 30
0.0
 40
0.2
100
AcDbArc
 50
180.0
 51
270.0000000000004
  0
ARC
  5
3AA4
330
17
100
AcDbEntity
  8
0
100
AcDbCircle
 10
-9.321159369799097
 20
0.3349999999999955
 30
0.0
 40
0.335
100
AcDbArc
 50
180.0
 51
270.0
  0
LINE
  5
3AA5
330
17
100
AcDbEntity
  8
0
100
AcDbLine
 10
-6.033859369798996
 20
0.000000000000016
 30
0.0
 11
-6.033859369798996
 21
1.543938155006502
 31
0.0
  0
LINE
  5
3AA6
330
17
100
AcDbEntity
  8
0
100
AcDbLine
 10
-9.321159369799097
 20
0.000000000000016
 30
0.0
 11
-6.033859369798982
 21
0.0000000000000444
 31
0.0
  0
LINE
  5
3AA7
330
17
100
AcDbEntity
  8
0
100
AcDbLine
 10
-9.321159369799097
 20
0.1350000000000069
 30
0.0
 11
-6.033859369798982
 21
0.1350000000000353
 31
0.0
  0
ARC
  5
3AA8
330
17
100
AcDbEntity
  8
0
100
AcDbCircle
 10
-6.533859369798996
 20
1.543938155006445
 30
0.0
 40
0.5
100
AcDbArc
 50
0.0000000000065208
 51
20.00000000000698
  0
CIRCLE
  5
3AA9
330
17
100
AcDbEntity
  8
0
100
AcDbCircle
 10
-8.2711593697991
 20
1.363746052584689
 30
0.0
 40
0.3225
  0
CIRCLE
  5
3AAA
330
17
100
AcDbEntity
  8
0
100
AcDbCircle
 10
-8.2711593697991
 20
1.363746052584689
 30
0.0
 40
0.1875
  0
LINE
  5
3AAB
330
17
100
AcDbEntity
  8
0
100
AcDbLine
 10
-9.5211593697991
 20
0.3850000000000069
 30
0.0
 11
-9.656159369799091
 21
0.3850000000000069
 31
0.0
  0
ARC
  5
3AAC
330
17
100
AcDbEntity
  8
0
100
AcDbCircle
 10
-6.824576934343419
 20
5.266482499194454
 30
0.0
 40
0.4999999999999222
100
AcDbArc
 50
186.0000000000026
 51
200.0
  0
LINE
  5
3AAD
330
17
100
AcDbEntity
  8
0
100
AcDbLine
 10
-7.7086593697991
 20
1.166250000000006
 30
0.0
 11
-8.8336593697991
 21
1.166250000000006
 31
0.0
  0
LINE
  5
3AAE
330
17
100
AcDbEntity
  8
0
100
AcDbLine
 10
-7.7086593697991
 20
0.9312499999999932
 30
0.0
 11
-8.8336593697991
 21
0.9312499999999932
 31
0.0
  0
LINE
  5
3AAF
330
17
100
AcDbEntity
  8
0
100
AcDbLine
 10
-7.8024093697991
 20
0.9312499999999932
 30
0.0
 11
-7.8024093697991
 21
1.166250000000006
 31
0.0
  0
LINE
  5
3AB0
330
17
100
AcDbEntity
  8
0
100
AcDbLine
 10
-7.4586593697991
 20
0.6812499999999933
 30
0.0
 11
-7.4586593697991
 21
0.1350000000000069
 31
0.0
  0
LINE
  5
3AB1
330
17
100
AcDbEntity
  8
0
100
AcDbLine
 10
-7.223659369799086
 20
0.6812499999999933
 30
0.0
 11
-7.223659369799086
 21
0.1350000000000069
 31
0.0
  0
ARC
  5
3AB2
330
17
100
AcDbEntity
  8
0
100
AcDbCircle
 10
-7.7086593697991
 20
0.6812499999999933
 30
0.0
 40
0.25
100
AcDbArc
 50
0.000000000000007
 51
90.0
  0
ARC
  5
3AB3
330
17
100
AcDbEntity
  8
0
100
AcDbCircle
 10
-7.7086593697991
 20
0.6812499999999933
 30
0.0
 40
0.485
100
AcDbArc
 50
0.000000000000007
 51
89.88782289409959
  0
LINE
  5
3AB4
330
17
100
AcDbEntity
  8
0
100
AcDbLine
 10
-9.318659369799114
 20
0.6812499999999933
 30
0.0
 11
-9.318659369799057
 21
0.1350000000000069
 31
0.0
  0
LINE
  5
3AB5
330
17
100
AcDbEntity
  8
0
100
AcDbLine
 10
-9.0836593697991
 20
0.6812499999999933
 30
0.0
 11
-9.083659369799043
 21
0.1350000000000069
 31
0.0
  0
LINE
  5
3AB6
330
17
100
AcDbEntity
  8
0
100
AcDbLine
 10
-8.7399093697991
 20
0.9312499999999932
 30
0.0
 11
-8.7399093697991
 21
1.166250000000006
 31
0.0
  0
ARC
  5
3AB7
330
17
100
AcDbEntity
  8
0
100
AcDbCircle
 10
-8.8336593697991
 20
0.6812499999999933
 30
0.0
 40
0.25
100
AcDbArc
 50
90.0
 51
180.0
  0
ARC
  5
3AB8
330
17
100
AcDbEntity
  8
0
100
AcDbCircle
 10
-8.8336593697991
 20
0.6812499999999933
 30
0.0
 40
0.485
100
AcDbArc
 50
90.11218579649931
 51
180.0
  0
LINE
  5
3AB9
330
17
100
AcDbEntity
  8
0
100
AcDbLine
 10
-7.833659369799086
 20
12.93749999999986
 30
0.0
 11
-9.656159369799091
 21
12.93749999999987
 31
0.0
  0
CIRCLE
  5
3ABB
330
17
100
AcDbEntity
  8
0
100
AcDbCircle
 10
-8.495154661268934
 20
11.68899999999959
 30
0.0
 40
0.3435
  0
LINE
  5
3ABC
330
17
100
AcDbEntity
  8
0
100
AcDbLine
 10
-7.03490936979842
 20
0.1349999999999785
 30
0.0
 11
-6.65990936979842
 21
0.1349999999999785
 31
0.0
  0
LINE
  5
3ABD
330
17
100
AcDbEntity
  8
0
100
AcDbLine
 10
-6.643203228198863
 20
0.3277999520459449
 30
0.0
 11
-6.633859369798877
 21
0.3037976694459363
 31
0.0
  0
POLYLINE
  5
3ABE
330
17
100
AcDbEntity
  8
0
100
AcDb2dPolyline
 66
     1
 10
0.0
 20
0.0
 30
0.0
  0
VERTEX
  5
3ABF
330
3ABE
100
AcDbEntity
  8
0
100
AcDbVertex
100
AcDb2dVertex
 10
-6.933859369798874
 20
0.3037976694459363
 30
0.0
  0
VERTEX
  5
3AC0
330
3ABE
100
AcDbEntity
  8
0
100
AcDbVertex
100
AcDb2dVertex
 10
-6.92248338699887
 20
0.2765128658459393
 30
0.0
  0
VERTEX
  5
3AC1
330
3ABE
100
AcDbEntity
  8
0
100
AcDbVertex
100
AcDb2dVertex
 10
-6.89037582439888
 20
0.2546677817459457
 30
0.0
  0
VERTEX
  5
3AC2
330
3ABE
100
AcDbEntity
  8
0
100
AcDbVertex
100
AcDb2dVertex
 10
-6.841634004098871
 20
0.2408790799459499
 30
0.0
  0
VERTEX
  5
3AC3
330
3ABE
100
AcDbEntity
  8
0
100
AcDbVertex
100
AcDb2dVertex
 10
-6.783859369798868
 20
0.2360832609459411
 30
0.0
  0
SEQEND
  5
3AC4
330
3ABE
100
AcDbEntity
  8
0
  0
LINE
  5
3AC5
330
17
100
AcDbEntity
  8
0
100
AcDbLine
 10
-6.924508615098865
 20
0.3278176671459452
 30
0.0
 11
-6.933859369798874
 21
0.3037976694459363
 31
0.0
  0
POLYLINE
  5
3AC6
330
17
100
AcDbEntity
  8
0
100
AcDb2dPolyline
 66
     1
 10
0.0
 20
0.0
 30
0.0
  0
VERTEX
  5
3AC7
330
3AC6
100
AcDbEntity
  8
0
100
AcDbVertex
100
AcDb2dVertex
 10
-6.953898599598879
 20
0.3021180241459493
 30
0.0
  0
VERTEX
  5
3AC8
330
3AC6
100
AcDbEntity
  8
0
100
AcDbVertex
100
AcDb2dVertex
 10
-6.968359369798868
 20
0.2640835562459305
 30
0.0
  0
VERTEX
  5
3AC9
330
3AC6
100
AcDbEntity
  8
0
100
AcDbVertex
100
AcDb2dVertex
 10
-6.953898599598879
 20
0.2291754661459269
 30
0.0
  0
VERTEX
  5
3ACA
330
3AC6
100
AcDbEntity
  8
0
100
AcDbVertex
100
AcDb2dVertex
 10
-6.913686603998876
 20
0.202160735445938
 30
0.0
  0
VERTEX
  5
3ACB
330
3AC6
100
AcDbEntity
  8
0
100
AcDbVertex
100
AcDb2dVertex
 10
-6.853761588298873
 20
0.1856938310459331
 30
0.0
  0
VERTEX
  5
3ACC
330
3AC6
100
AcDbEntity
  8
0
100
AcDbVertex
100
AcDb2dVertex
 10
-6.783859369798868
 20
0.1801096318459319
 30
0.0
  0
SEQEND
  5
3ACD
330
3AC6
100
AcDbEntity
  8
0
  0
POLYLINE
  5
3ACE
330
17
100
AcDbEntity
  8
0
100
AcDb2dPolyline
 66
     1
 10
0.0
 20
0.0
 30
0.0
  0
VERTEX
  5
3ACF
330
3ACE
100
AcDbEntity
  8
0
100
AcDbVertex
100
AcDb2dVertex
 10
-6.633859369798877
 20
0.3037976694459363
 30
0.0
  0
VERTEX
  5
3AD0
330
3ACE
100
AcDbEntity
  8
0
100
AcDbVertex
100
AcDb2dVertex
 10
-6.645235352498865
 20
0.2765128658459393
 30
0.0
  0
VERTEX
  5
3AD1
330
3ACE
100
AcDbEntity
  8
0
100
AcDbVertex
100
AcDb2dVertex
 10
-6.67734291519887
 20
0.2546677817459457
 30
0.0
  0
VERTEX
  5
3AD2
330
3ACE
100
AcDbEntity
  8
0
100
AcDbVertex
100
AcDb2dVertex
 10
-6.726084735498865
 20
0.2408790799459499
 30
0.0
  0
VERTEX
  5
3AD3
330
3ACE
100
AcDbEntity
  8
0
100
AcDbVertex
100
AcDb2dVertex
 10
-6.783859369798868
 20
0.2360832609459411
 30
0.0
  0
SEQEND
  5
3AD4
330
3ACE
100
AcDbEntity
  8
0
  0
POLYLINE
  5
3AD5
330
17
100
AcDbEntity
  8
0
100
AcDb2dPolyline
 66
     1
 10
0.0
 20
0.0
 30
0.0
  0
VERTEX
  5
3AD6
330
3AD5
100
AcDbEntity
  8
0
100
AcDbVertex
100
AcDb2dVertex
 10
-6.626593154798875
 20
0.3163120883459332
 30
0.0
  0
VERTEX
  5
3AD7
330
3AD5
100
AcDbEntity
  8
0
100
AcDbVertex
100
AcDb2dVertex
 10
-6.613820139898869
 20
0.3021180241459493
 30
0.0
  0
VERTEX
  5
3AD8
330
3AD5
100
AcDbEntity
  8
0
100
AcDbVertex
100
AcDb2dVertex
 10
-6.599359369798868
 20
0.2640835562459305
 30
0.0
  0
VERTEX
  5
3AD9
330
3AD5
100
AcDbEntity
  8
0
100
AcDbVertex
100
AcDb2dVertex
 10
-6.613820139898869
 20
0.2291754661459269
 30
0.0
  0
VERTEX
  5
3ADA
330
3AD5
100
AcDbEntity
  8
0
100
AcDbVertex
100
AcDb2dVertex
 10
-6.654032135498873
 20
0.202160735445938
 30
0.0
  0
VERTEX
  5
3ADB
330
3AD5
100
AcDbEntity
  8
0
100
AcDbVertex
100
AcDb2dVertex
 10
-6.713957151298878
 20
0.1856938310459331
 30
0.0
  0
VERTEX
  5
3ADC
330
3AD5
100
AcDbEntity
  8
0
100
AcDbVertex
100
AcDb2dVertex
 10
-6.783859369798868
 20
0.1801096318459319
 30
0.0
  0
SEQEND
  5
3ADD
330
3AD5
100
AcDbEntity
  8
0
  0
POLYLINE
  5
3ADE
330
17
100
AcDbEntity
  8
0
100
AcDb2dPolyline
 66
     1
 10
0.0
 20
0.0
 30
0.0
  0
VERTEX
  5
3ADF
330
3ADE
100
AcDbEntity
  8
0
100
AcDbVertex
100
AcDb2dVertex
 10
-6.626670704398868
 20
0.3163852384459407
 30
0.0
  0
VERTEX
  5
3AE0
330
3ADE
100
AcDbEntity
  8
0
100
AcDbVertex
100
AcDb2dVertex
 10
-6.633671834298873
 20
0.3222557784459301
 30
0.0
  0
VERTEX
  5
3AE1
330
3ADE
100
AcDbEntity
  8
0
100
AcDbVertex
100
AcDb2dVertex
 10
-6.663234822998866
 20
0.3394518302459293
 30
0.0
  0
SEQEND
  5
3AE2
330
3ADE
100
AcDbEntity
  8
0
  0
LINE
  5
3AE3
330
17
100
AcDbEntity
  8
0
100
AcDbLine
 10
-6.941125584798875
 20
0.3163120883459332
 30
0.0
 11
-6.953898599598879
 21
0.3021180241459493
 31
0.0
  0
POLYLINE
  5
3AE4
330
17
100
AcDbEntity
  8
0
100
AcDb2dPolyline
 66
     1
 10
0.0
 20
0.0
 30
0.0
  0
VERTEX
  5
3AE5
330
3AE4
100
AcDbEntity
  8
0
100
AcDbVertex
100
AcDb2dVertex
 10
-6.584045056698876
 20
0.358221720245945
 30
0.0
  0
VERTEX
  5
3AE6
330
3AE4
100
AcDbEntity
  8
0
100
AcDbVertex
100
AcDb2dVertex
 10
-6.680064141898874
 20
0.3955432443459248
 30
0.0
  0
VERTEX
  5
3AE7
330
3AE4
100
AcDbEntity
  8
0
100
AcDbVertex
100
AcDb2dVertex
 10
-6.783859369798868
 20
0.4084027890459315
 30
0.0
  0
SEQEND
  5
3AE8
330
3AE4
100
AcDbEntity
  8
0
  0
LINE
  5
3AE9
330
17
100
AcDbEntity
  8
0
100
AcDbLine
 10
-6.663234822998866
 20
0.3394518302459293
 30
0.0
 11
-6.709532663898876
 21
0.3553196490459474
 31
0.0
  0
LINE
  5
3AEA
330
17
100
AcDbEntity
  8
0
100
AcDbLine
 10
-6.765595146998869
 20
0.3637392559459389
 30
0.0
 11
-6.783859369798868
 21
0.3642774526459451
 31
0.0
  0
LINE
  5
3AEB
330
17
100
AcDbEntity
  8
0
100
AcDbLine
 10
-6.783859369798868
 20
0.3642774529459363
 30
0.0
 11
-6.805196660598873
 21
0.3635435550459309
 31
0.0
  0
POLYLINE
  5
3AEC
330
17
100
AcDbEntity
  8
0
100
AcDb2dPolyline
 66
     1
 10
0.0
 20
0.0
 30
0.0
  0
VERTEX
  5
3AED
330
3AEC
100
AcDbEntity
  8
0
100
AcDbVertex
100
AcDb2dVertex
 10
-6.783859369798868
 20
0.0700267436459345
 30
0.0
  0
VERTEX
  5
3AEE
330
3AEC
100
AcDbEntity
  8
0
100
AcDbVertex
100
AcDb2dVertex
 10
-6.680064141898874
 20
0.0758263306459472
 30
0.0
  0
VERTEX
  5
3AEF
330
3AEC
100
AcDbEntity
  8
0
100
AcDbVertex
100
AcDb2dVertex
 10
-6.584045056698876
 20
0.0944686125459331
 30
0.0
  0
VERTEX
  5
3AF0
330
3AEC
100
AcDbEntity
  8
0
100
AcDbVertex
100
AcDb2dVertex
 10
-6.511561143198868
 20
0.1279996352459367
 30
0.0
  0
VERTEX
  5
3AF1
330
3AEC
100
AcDbEntity
  8
0
100
AcDbVertex
100
AcDb2dVertex
 10
-6.471664870998871
 20
0.177217925045932
 30
0.0
  0
VERTEX
  5
3AF2
330
3AEC
100
AcDbEntity
  8
0
100
AcDbVertex
100
AcDb2dVertex
 10
-6.471664870998871
 20
0.2382129415459477
 30
0.0
  0
VERTEX
  5
3AF3
330
3AEC
100
AcDbEntity
  8
0
100
AcDbVertex
100
AcDb2dVertex
 10
-6.511561143198868
 20
0.3024901973459411
 30
0.0
  0
VERTEX
  5
3AF4
330
3AEC
100
AcDbEntity
  8
0
100
AcDbVertex
100
AcDb2dVertex
 10
-6.584045056698876
 20
0.358221720245945
 30
0.0
  0
SEQEND
  5
3AF5
330
3AEC
100
AcDbEntity
  8
0
  0
LINE
  5
3AF6
330
17
100
AcDbEntity
  8
0
100
AcDbLine
 10
-6.783859369798868
 20
0.4084027890459315
 30
0.0
 11
-6.887654597698876
 21
0.3955432443459532
 31
0.0
  0
LINE
  5
3AF7
330
17
100
AcDbEntity
  8
0
100
AcDbLine
 10
-6.805196660598873
 20
0.3635435550459309
 30
0.0
 11
-6.860377245198868
 21
0.3547721189459541
 31
0.0
  0
LINE
  5
3AF8
330
17
100
AcDbEntity
  8
0
100
AcDbLine
 10
-6.860377245198868
 20
0.3547721189459541
 30
0.0
 11
-6.905576812598873
 21
0.3389475024459276
 31
0.0
  0
POLYLINE
  5
3AF9
330
17
100
AcDbEntity
  8
0
100
AcDb2dPolyline
 66
     1
 10
0.0
 20
0.0
 30
0.0
  0
VERTEX
  5
3AFA
330
3AF9
100
AcDbEntity
  8
0
100
AcDbVertex
100
AcDb2dVertex
 10
-6.887654597698876
 20
0.3955432443459248
 30
0.0
  0
VERTEX
  5
3AFB
330
3AF9
100
AcDbEntity
  8
0
100
AcDbVertex
100
AcDb2dVertex
 10
-6.983673682798873
 20
0.358221720245945
 30
0.0
  0
VERTEX
  5
3AFC
330
3AF9
100
AcDbEntity
  8
0
100
AcDbVertex
100
AcDb2dVertex
 10
-7.056157596298866
 20
0.3024901973459411
 30
0.0
  0
VERTEX
  5
3AFD
330
3AF9
100
AcDbEntity
  8
0
100
AcDbVertex
100
AcDb2dVertex
 10
-7.096053868498863
 20
0.2382129415459477
 30
0.0
  0
VERTEX
  5
3AFE
330
3AF9
100
AcDbEntity
  8
0
100
AcDbVertex
100
AcDb2dVertex
 10
-7.096053868498863
 20
0.177217925045932
 30
0.0
  0
VERTEX
  5
3AFF
330
3AF9
100
AcDbEntity
  8
0
100
AcDbVertex
100
AcDb2dVertex
 10
-7.056157596298866
 20
0.1279996352459367
 30
0.0
  0
VERTEX
  5
3B00
330
3AF9
100
AcDbEntity
  8
0
100
AcDbVertex
100
AcDb2dVertex
 10
-6.983673682798873
 20
0.0944686125459331
 30
0.0
  0
VERTEX
  5
3B01
330
3AF9
100
AcDbEntity
  8
0
100
AcDbVertex
100
AcDb2dVertex
 10
-6.887654597698876
 20
0.0758263306459472
 30
0.0
  0
VERTEX
  5
3B02
330
3AF9
100
AcDbEntity
  8
0
100
AcDbVertex
100
AcDb2dVertex
 10
-6.783859369798868
 20
0.0700267436459345
 30
0.0
  0
SEQEND
  5
3B03
330
3AF9
100
AcDbEntity
  8
0
  0
LINE
  5
3B04
330
17
100
AcDbEntity
  8
0
100
AcDbLine
 10
-6.905576812598873
 20
0.3389475024459276
 30
0.0
 11
-6.934309764098877
 21
0.3220556603459332
 31
0.0
  0
LINE
  5
3B05
330
17
100
AcDbEntity
  8
0
100
AcDbLine
 10
-6.709532663898876
 20
0.3553196490459474
 30
0.0
 11
-6.765595146998869
 21
0.3637392559459389
 31
0.0
  0
ENDSEC
  0
SECTION
  2
OBJECTS
  0
DICTIONARY
  5
C
330
0
100
AcDbDictionary
281
     1
  3
ACAD_COLOR
350
28FA
  3
ACAD_GROUP
350
D
  3
ACAD_LAYOUT
350
47B
  3
ACAD_MATERIAL
350
28F9
  3
ACAD_MLINESTYLE
350
1A
  3
ACAD_PLOTSETTINGS
350
47C
  3
ACAD_PLOTSTYLENAME
350
479
  3
ACAD_TABLESTYLE
350
28FB
  3
ACDBHEADERROUNDTRIPXREC
350
3B20
  3
ACDBVARIABLEDICTIONARY
350
49
  0
DICTIONARY
  5
2ABF
330
2
100
AcDbDictionary
280
     1
281
     1
  3
ACAD_LAYERFILTERS
360
2F66
  3
ACAD_LAYERSTATES
360
2C63
  3
ACLYDICTIONARY
360
2F65
  0
DICTIONARY
  5
7D0
330
17
100
AcDbDictionary
280
     1
281
     1
  3
ACAD_LAYOUTSELFREF
360
1071
  3
ACAD_SORTENTS
360
2D11
  0
DICTIONARY
  5
7CE
330
14
100
AcDbDictionary
280
     1
281
     1
  3
ACAD_LAYOUTSELFREF
360
1070
  0
DICTIONARY
  5
28FA
102
{ACAD_REACTORS
330
C
102
}
330
C
100
AcDbDictionary
281
     1
  0
DICTIONARY
  5
D
102
{ACAD_REACTORS
330
C
102
}
330
C
100
AcDbDictionary
281
     1
  0
DICTIONARY
  5
47B
102
{ACAD_REACTORS
330
C
102
}
330
C
100
AcDbDictionary
281
     1
  3
Layout1
350
47E
  3
Model
350
47D
  0
DICTIONARY
  5
28F9
102
{ACAD_REACTORS
330
C
102
}
330
C
100
AcDbDictionary
281
     1
  0
DICTIONARY
  5
1A
102
{ACAD_REACTORS
330
C
102
}
330
C
100
AcDbDictionary
281
     1
  3
STANDARD
350
1B
  0
DICTIONARY
  5
47C
102
{ACAD_REACTORS
330
C
102
}
330
C
100
AcDbDictionary
281
     1
  0
ACDBDICTIONARYWDFLT
  5
479
102
{ACAD_REACTORS
330
C
102
}
330
C
100
AcDbDictionary
281
     1
  3
Normal
350
47A
100
AcDbDictionaryWithDefault
340
47A
  0
DICTIONARY
  5
28FB
102
{ACAD_REACTORS
330
C
102
}
330
C
100
AcDbDictionary
281
     1
  3
Standard
350
28FC
  0
DICTIONARY
  5
3B20
102
{ACAD_REACTORS
330
C
102
}
330
C
100
AcDbDictionary
281
     1
  0
DICTIONARY
  5
49
102
{ACAD_REACTORS
330
C
102
}
330
C
100
AcDbDictionary
281
     1
  3
CTABLESTYLE
350
2AA3
  3
DIMADEC
350
4A
  3
DIMASSOC
350
708
  3
PROJECTNAME
350
2F3C
  0
DICTIONARY
  5
2F66
102
{ACAD_REACTORS
330
2ABF
102
}
330
2ABF
100
AcDbDictionary
281
     1
  0
DICTIONARY
  5
2C63
102
{ACAD_REACTORS
330
2ABF
102
}
330
2ABF
100
AcDbDictionary
281
     1
  0
DICTIONARY
  5
2F65
102
{ACAD_REACTORS
330
2ABF
102
}
330
2ABF
100
AcDbDictionary
281
     1
1001
ACAD
1000
<All
  0
XRECORD
  5
1071
102
{ACAD_REACTORS
330
7D0
102
}
330
7D0
100
AcDbXrecord
280
     1
340
17
  0
SORTENTSTABLE
  5
2D11
102
{ACAD_REACTORS
330
7D0
102
}
330
7D0
100
AcDbSortentsTable
330
17
331
2A05
  5
2A05
331
2A3C
  5
2A3C
331
3769
  5
3769
331
2A44
  5
2A44
331
2A0D
  5
2A0D
331
2A4C
  5
2A4C
331
2A15
  5
2A15
331
2A54
  5
2A54
331
2D32
  5
2D32
331
29DE
  5
29DE
331
3962
  5
3962
331
396A
  5
396A
331
3779
  5
3779
331
2A9B
  5
2A9B
331
29E6
  5
29E6
331
2A1D
  5
2A1D
331
3838
  5
3838
331
3781
  5
3781
331
2A25
  5
2A25
331
29EE
  5
29EE
331
3789
  5
3789
331
2A6C
  5
2A6C
331
2A2D
  5
2A2D
331
29F6
  5
29F6
331
2A74
  5
2A74
331
2A35
  5
2A35
331
29FE
  5
29FE
331
3972
  5
3972
331
3982
  5
3982
331
2A3D
  5
2A3D
331
2A06
  5
2A06
331
376A
  5
376A
331
2A45
  5
2A45
331
2A0E
  5
2A0E
331
2A94
  5
2A94
331
2A4D
  5
2A4D
331
3772
  5
3772
331
2A55
  5
2A55
331
29DF
  5
29DF
331
3963
  5
3963
331
396B
  5
396B
331
2A9C
  5
2A9C
331
2A1E
  5
2A1E
331
377A
  5
377A
331
2A26
  5
2A26
331
29EF
  5
29EF
331
3782
  5
3782
331
2A6D
  5
2A6D
331
2A2E
  5
2A2E
331
29F7
  5
29F7
331
25D0
  5
25D0
331
378A
  5
378A
331
2A75
  5
2A75
331
2A36
  5
2A36
331
29FF
  5
29FF
331
3983
  5
3983
331
387C
  5
387C
331
2A3E
  5
2A3E
331
2A07
  5
2A07
331
2A46
  5
2A46
331
2A0F
  5
2A0F
331
376B
  5
376B
331
2A95
  5
2A95
331
2A4E
  5
2A4E
331
2D2C
  5
2D2C
331
29D8
  5
29D8
331
3773
  5
3773
331
3822
  5
3822
331
2A56
  5
2A56
331
3964
  5
3964
331
396C
  5
396C
331
29E0
  5
29E0
331
2A9D
  5
2A9D
331
29E8
  5
29E8
331
2A1F
  5
2A1F
331
377B
  5
377B
331
3783
  5
3783
331
29F0
  5
29F0
331
2A27
  5
2A27
331
378B
  5
378B
331
2A6E
  5
2A6E
331
29F8
  5
29F8
331
2A2F
  5
2A2F
331
380B
  5
380B
331
2A76
  5
2A76
331
2A37
  5
2A37
331
3984
  5
3984
331
2A00
  5
2A00
331
25E9
  5
25E9
331
2A08
  5
2A08
331
2A3F
  5
2A3F
331
376C
  5
376C
331
2A8E
  5
2A8E
331
2A10
  5
2A10
331
2A47
  5
2A47
331
2D2D
  5
2D2D
331
3774
  5
3774
331
2A96
  5
2A96
331
29D9
  5
29D9
331
2A4F
  5
2A4F
331
2A57
  5
2A57
331
3965
  5
3965
331
396D
  5
396D
331
3A7
  5
3A7
331
29E1
  5
29E1
331
377C
  5
377C
331
29E9
  5
29E9
331
2A20
  5
2A20
331
2A9E
  5
2A9E
331
3784
  5
3784
331
29F1
  5
29F1
331
2A28
  5
2A28
331
3843
  5
3843
331
378C
  5
378C
331
2A6F
  5
2A6F
331
29F9
  5
29F9
331
2A30
  5
2A30
331
2A77
  5
2A77
331
3985
  5
3985
331
2A01
  5
2A01
331
2A38
  5
2A38
331
3765
  5
3765
331
2A09
  5
2A09
331
2A40
  5
2A40
331
385B
  5
385B
331
376D
  5
376D
331
2A8F
  5
2A8F
331
2A11
  5
2A11
331
2A48
  5
2A48
331
3775
  5
3775
331
2A97
  5
2A97
331
29DA
  5
29DA
331
2A50
  5
2A50
331
3966
  5
3966
331
396E
  5
396E
331
400
  5
400
331
29E2
  5
29E2
331
2A58
  5
2A58
331
377D
  5
377D
331
2A60
  5
2A60
331
29EA
  5
29EA
331
2A21
  5
2A21
331
2A9F
  5
2A9F
331
3785
  5
3785
331
2A68
  5
2A68
331
29F2
  5
29F2
331
2A29
  5
2A29
331
378D
  5
378D
331
2A70
  5
2A70
331
29FA
  5
29FA
331
2A31
  5
2A31
331
3887
  5
3887
331
2A78
  5
2A78
331
2A02
  5
2A02
331
2A39
  5
2A39
331
3766
  5
3766
331
2A0A
  5
2A0A
331
2A41
  5
2A41
331
2A90
  5
2A90
331
2A12
  5
2A12
331
2A49
  5
2A49
331
3776
  5
3776
331
29DB
  5
29DB
331
2A51
  5
2A51
331
2D2F
  5
2D2F
331
382D
  5
382D
331
3967
  5
3967
331
396F
  5
396F
331
29E3
  5
29E3
331
2A1A
  5
2A1A
331
377E
  5
377E
331
2AA0
  5
2AA0
331
2A61
  5
2A61
331
29EB
  5
29EB
331
2A22
  5
2A22
331
3786
  5
3786
331
2A69
  5
2A69
331
29F3
  5
29F3
331
2A2A
  5
2A2A
331
2A71
  5
2A71
331
29FB
  5
29FB
331
2A32
  5
2A32
331
2A79
  5
2A79
331
2A03
  5
2A03
331
2A3A
  5
2A3A
331
3767
  5
3767
331
2A0B
  5
2A0B
331
2A42
  5
2A42
331
2A91
  5
2A91
331
2A13
  5
2A13
331
2A4A
  5
2A4A
331
3777
  5
3777
331
29DC
  5
29DC
331
2D30
  5
2D30
331
3968
  5
3968
331
29E4
  5
29E4
331
2A1B
  5
2A1B
331
2A5A
  5
2A5A
331
2A99
  5
2A99
331
377F
  5
377F
331
2AA1
  5
2AA1
331
29EC
  5
29EC
331
2A23
  5
2A23
331
3787
  5
3787
331
2A6A
  5
2A6A
331
29F4
  5
29F4
331
1ACD
  5
1ACD
331
2A2B
  5
2A2B
331
29FC
  5
29FC
331
2A33
  5
2A33
331
2A72
  5
2A72
331
3970
  5
3970
331
3871
  5
3871
331
2A04
  5
2A04
331
2A3B
  5
2A3B
331
3768
  5
3768
331
3817
  5
3817
331
2A0C
  5
2A0C
331
2A43
  5
2A43
331
2A92
  5
2A92
331
29D5
  5
29D5
331
2A4B
  5
2A4B
331
3866
  5
3866
331
29DD
  5
29DD
331
2D31
  5
2D31
331
3961
  5
3961
331
3969
  5
3969
331
3778
  5
3778
331
29E5
  5
29E5
331
2A1C
  5
2A1C
331
2A9A
  5
2A9A
331
3780
  5
3780
331
29ED
  5
29ED
331
2A24
  5
2A24
331
3788
  5
3788
331
2A6B
  5
2A6B
331
29F5
  5
29F5
331
2A2C
  5
2A2C
331
2A73
  5
2A73
331
29FD
  5
29FD
331
2A34
  5
2A34
331
3971
  5
3971
331
384F
  5
384F
  0
XRECORD
  5
1070
102
{ACAD_REACTORS
330
7CE
102
}
330
7CE
100
AcDbXrecord
280
     1
340
14
  0
LAYOUT
  5
47E
102
{ACAD_XDICTIONARY
360
3B23
102
}
102
{ACAD_REACTORS
330
47B
102
}
330
47B
100
AcDbPlotSettings
  1

  2
hp psc 2100 series
  4

  6

 40
0.0
 41
0.0
 42
0.0
 43
0.0
 44
0.0
 45
0.0
 46
0.0
 47
0.0
 48
0.0
 49
0.0
140
0.0
141
0.0
142
1.0
143
1.0
 70
   688
 72
     0
 73
     0
 74
     5
  7
monochrome.ctb
 75
    16
147
1.0
148
0.0
149
0.0
100
AcDbLayout
  1
Layout1
 70
     0
 71
     1
 10
0.0
 20
0.0
 11
12.0
 21
9.0
 12
0.0
 22
0.0
 32
0.0
 14
1.000000000000000E+20
 24
1.000000000000000E+20
 34
1.000000000000000E+20
 15
-1.000000000000000E+20
 25
-1.000000000000000E+20
 35
-1.000000000000000E+20
146
0.0
 13
0.0
 23
0.0
 33
0.0
 16
1.0
 26
0.0
 36
0.0
 17
0.0
 27
1.0
 37
0.0
 76
     0
330
14
  0
LAYOUT
  5
47D
102
{ACAD_XDICTIONARY
360
3B21
102
}
102
{ACAD_REACTORS
330
47B
102
}
330
47B
100
AcDbPlotSettings
  1

  2
HP LaserJet 2100 Series PS
  4
Letter
  6

 40
5.365749835968017
 41
5.408073902130126
 42
5.132904052734375
 43
5.090576171875
 44
215.8999938964844
 45
279.3999938964844
 46
0.0
 47
0.0
 48
0.0
 49
0.0
140
0.0
141
0.0
142
1.0
143
3.967254253308121
 70
 11952
 72
     0
 73
     0
 74
     2
  7
monochrome.ctb
 75
     0
147
0.2520635018958373
148
0.0
149
0.0
100
AcDbLayout
  1
Model
 70
     1
 71
     0
 10
0.0
 20
0.0
 11
12.0
 21
9.0
 12
0.0
 22
0.0
 32
0.0
 14
0.0
 24
0.0
 34
0.0
 15
0.0
 25
0.0
 35
0.0
146
0.0
 13
0.0
 23
0.0
 33
0.0
 16
1.0
 26
0.0
 36
0.0
 17
0.0
 27
1.0
 37
0.0
 76
     0
330
17
1001
ACAD_PSEXT
1000
HP LaserJet 2100 Series PS
1000
HP LaserJet 2100 Series PS
1000
LPT1:
1000

1070
     0
  0
MLINESTYLE
  5
1B
102
{ACAD_REACTORS
330
1A
102
}
330
1A
100
AcDbMlineStyle
  2
STANDARD
 70
     0
  3

 62
   256
 51
90.0
 52
90.0
 71
     2
 49
0.5
 62
   256
  6
BYLAYER
 49
-0.5
 62
   256
  6
BYLAYER
  0
ACDBPLACEHOLDER
  5
47A
102
{ACAD_REACTORS
330
479
102
}
330
479
  0
TABLESTYLE
  5
28FC
102
{ACAD_REACTORS
330
28FB
102
}
330
28FB
100
AcDbTableStyle
  3
Standard
 70
     0
 71
     0
 40
0.06
 41
0.06
280
     0
281
     0
  7
STANDARD
140
0.18
170
     2
 62
     0
 63
     7
283
     0
274
    -2
284
     1
 64
     0
275
    -2
285
     1
 65
     0
276
    -2
286
     1
 66
     0
277
    -2
287
     1
 67
     0
278
    -2
288
     1
 68
     0
279
    -2
289
     1
 69
     0
  7
STANDARD
140
0.25
170
     5
 62
     0
 63
     7
283
     0
274
    -2
284
     1
 64
     0
275
    -2
285
     1
 65
     0
276
    -2
286
     1
 66
     0
277
    -2
287
     1
 67
     0
278
    -2
288
     1
 68
     0
279
    -2
289
     1
 69
     0
  7
STANDARD
140
0.18
170
     5
 62
     0
 63
     7
283
     0
274
    -2
284
     1
 64
     0
275
    -2
285
     1
 65
     0
276
    -2
286
     1
 66
     0
277
    -2
287
     1
 67
     0
278
    -2
288
     1
 68
     0
279
    -2
289
     1
 69
     0
  0
DICTIONARYVAR
  5
2AA3
102
{ACAD_REACTORS
330
49
102
}
330
49
100
DictionaryVariables
280
     0
  1
STANDARD
  0
DICTIONARYVAR
  5
4A
102
{ACAD_REACTORS
330
49
102
}
330
49
100
DictionaryVariables
280
     0
  1
0
  0
DICTIONARYVAR
  5
708
102
{ACAD_REACTORS
330
49
102
}
330
49
100
DictionaryVariables
280
     0
  1
0
  0
DICTIONARYVAR
  5
2F3C
102
{ACAD_REACTORS
330
49
102
}
330
49
100
DictionaryVariables
280
     0
  1

  0
DICTIONARY
  5
3B23
330
47E
100
AcDbDictionary
280
     1
281
     1
  3
ACAD_XREC_ROUNDTRIP
360
3B24
  0
DICTIONARY
  5
3B21
330
47D
100
AcDbDictionary
280
     1
281
     1
  3
ACAD_XREC_ROUNDTRIP
360
3B22
  0
XRECORD
  5
3B24
102
{ACAD_REACTORS
330
3B23
102
}
330
3B23
100
AcDbXrecord
280
     1
102
SHADEPLOT
 70
     0
102
SHADEPLOTRESLEVEL
 70
     2
102
SHADEPLOTCUSTOMDPI
 70
   300
  0
XRECORD
  5
3B22
102
{ACAD_REACTORS
330
3B21
102
}
330
3B21
100
AcDbXrecord
280
     1
102
SHADEPLOT
 70
     0
102
SHADEPLOTRESLEVEL
 70
     2
102
SHADEPLOTCUSTOMDPI
 70
   300
  0
ENDSEC
  0
EOF
