  0
SECTION
  2
HEADER
  9
$ACADVER
  1
AC1018
  9
$ACADMAINTVER
 70
     6
  9
$DWGCODEPAGE
  3
ANSI_1252
  9
$INSBASE
 10
0.0
 20
0.0
 30
0.0
  9
$EXTMIN
 10
-0.4747528327610837
 20
0.1136023124964254
 30
-0.0000000000000151
  9
$EXTMAX
 10
4.519168666870961
 20
33.63630830028797
 30
0.0000000000000001
  9
$LIMMIN
 10
0.0
 20
0.0
  9
$LIMMAX
 10
24.0
 20
31.5
  9
$ORTHOMODE
 70
     1
  9
$REGENMODE
 70
     1
  9
$FILLMODE
 70
     1
  9
$QTEXTMODE
 70
     0
  9
$MIRRTEXT
 70
     0
  9
$LTSCALE
 40
0.5
  9
$ATTMODE
 70
     1
  9
$TEXTSIZE
 40
0.27
  9
$TRACEWID
 40
0.05
  9
$TEXTSTYLE
  7
STANDARD
  9
$CLAYER
  8
0
  9
$CELTYPE
  6
ByLayer
  9
$CECOLOR
 62
   256
  9
$CELTSCALE
 40
1.0
  9
$DISPSILH
 70
     0
  9
$DIMSCALE
 40
3.0
  9
$DIMASZ
 40
0.125
  9
$DIMEXO
 40
0.062
  9
$DIMDLI
 40
0.375
  9
$DIMRND
 40
0.0
  9
$DIMDLE
 40
0.0
  9
$DIMEXE
 40
0.08
  9
$DIMTP
 40
0.0
  9
$DIMTM
 40
0.0
  9
$DIMTXT
 40
0.09
  9
$DIMCEN
 40
-0.06
  9
$DIMTSZ
 40
0.0
  9
$DIMTOL
 70
     0
  9
$DIMLIM
 70
     0
  9
$DIMTIH
 70
     1
  9
$DIMTOH
 70
     1
  9
$DIMSE1
 70
     0
  9
$DIMSE2
 70
     0
  9
$DIMTAD
 70
     0
  9
$DIMZIN
 70
     0
  9
$DIMBLK
  1

  9
$DIMASO
 70
     0
  9
$DIMSHO
 70
     0
  9
$DIMPOST
  1

  9
$DIMAPOST
  1

  9
$DIMALT
 70
     0
  9
$DIMALTD
 70
     2
  9
$DIMALTF
 40
25.4
  9
$DIMLFAC
 40
1.0
  9
$DIMTOFL
 70
     0
  9
$DIMTVP
 40
0.0
  9
$DIMTIX
 70
     0
  9
$DIMSOXD
 70
     0
  9
$DIMSAH
 70
     0
  9
$DIMBLK1
  1

  9
$DIMBLK2
  1

  9
$DIMSTYLE
  2
Standard
  9
$DIMCLRD
 70
     0
  9
$DIMCLRE
 70
     0
  9
$DIMCLRT
 70
     0
  9
$DIMTFAC
 40
1.0
  9
$DIMGAP
 40
0.09
  9
$DIMJUST
 70
     0
  9
$DIMSD1
 70
     0
  9
$DIMSD2
 70
     0
  9
$DIMTOLJ
 70
     1
  9
$DIMTZIN
 70
     0
  9
$DIMALTZ
 70
     0
  9
$DIMALTTZ
 70
     0
  9
$DIMUPT
 70
     0
  9
$DIMDEC
 70
     5
  9
$DIMTDEC
 70
     5
  9
$DIMALTU
 70
     5
  9
$DIMALTTD
 70
     2
  9
$DIMTXSTY
  7
STANDARD
  9
$DIMAUNIT
 70
     0
  9
$DIMADEC
 70
     0
  9
$DIMALTRND
 40
0.0
  9
$DIMAZIN
 70
     0
  9
$DIMDSEP
 70
    46
  9
$DIMATFIT
 70
     3
  9
$DIMFRAC
 70
     2
  9
$DIMLDRBLK
  1

  9
$DIMLUNIT
 70
     5
  9
$DIMLWD
 70
    -2
  9
$DIMLWE
 70
    -2
  9
$DIMTMOVE
 70
     2
  9
$LUNITS
 70
     5
  9
$LUPREC
 70
     4
  9
$SKETCHINC
 40
0.1
  9
$FILLETRAD
 40
0.0
  9
$AUNITS
 70
     0
  9
$AUPREC
 70
     0
  9
$MENU
  1
simpson
  9
$ELEVATION
 40
0.0
  9
$PELEVATION
 40
0.0
  9
$THICKNESS
 40
0.0
  9
$LIMCHECK
 70
     0
  9
$CHAMFERA
 40
0.0
  9
$CHAMFERB
 40
0.0
  9
$CHAMFERC
 40
0.0
  9
$CHAMFERD
 40
0.0
  9
$SKPOLY
 70
     0
  9
$TDCREATE
 40
2450745.895540625
  9
$TDUCREATE
 40
2450746.228873958
  9
$TDUPDATE
 40
2454418.729667222
  9
$TDUUPDATE
 40
2454419.063000556
  9
$TDINDWG
 40
0.2845596875
  9
$TDUSRTIMER
 40
0.2845596875
  9
$USRTIMER
 70
     1
  9
$ANGBASE
 50
0.0
  9
$ANGDIR
 70
     0
  9
$PDMODE
 70
     0
  9
$PDSIZE
 40
0.0
  9
$PLINEWID
 40
0.0
  9
$SPLFRAME
 70
     0
  9
$SPLINETYPE
 70
     6
  9
$SPLINESEGS
 70
     8
  9
$HANDSEED
  5
1F8D
  9
$SURFTAB1
 70
     6
  9
$SURFTAB2
 70
     6
  9
$SURFTYPE
 70
     6
  9
$SURFU
 70
     6
  9
$SURFV
 70
     6
  9
$UCSBASE
  2

  9
$UCSNAME
  2

  9
$UCSORG
 10
0.0
 20
0.0
 30
0.0
  9
$UCSXDIR
 10
1.0
 20
0.0
 30
0.0
  9
$UCSYDIR
 10
0.0
 20
1.0
 30
0.0
  9
$UCSORTHOREF
  2

  9
$UCSORTHOVIEW
 70
     0
  9
$UCSORGTOP
 10
0.0
 20
0.0
 30
0.0
  9
$UCSORGBOTTOM
 10
0.0
 20
0.0
 30
0.0
  9
$UCSORGLEFT
 10
0.0
 20
0.0
 30
0.0
  9
$UCSORGRIGHT
 10
0.0
 20
0.0
 30
0.0
  9
$UCSORGFRONT
 10
0.0
 20
0.0
 30
0.0
  9
$UCSORGBACK
 10
0.0
 20
0.0
 30
0.0
  9
$PUCSBASE
  2

  9
$PUCSNAME
  2

  9
$PUCSORG
 10
0.0
 20
0.0
 30
0.0
  9
$PUCSXDIR
 10
1.0
 20
0.0
 30
0.0
  9
$PUCSYDIR
 10
0.0
 20
1.0
 30
0.0
  9
$PUCSORTHOREF
  2

  9
$PUCSORTHOVIEW
 70
     0
  9
$PUCSORGTOP
 10
0.0
 20
0.0
 30
0.0
  9
$PUCSORGBOTTOM
 10
0.0
 20
0.0
 30
0.0
  9
$PUCSORGLEFT
 10
0.0
 20
0.0
 30
0.0
  9
$PUCSORGRIGHT
 10
0.0
 20
0.0
 30
0.0
  9
$PUCSORGFRONT
 10
0.0
 20
0.0
 30
0.0
  9
$PUCSORGBACK
 10
0.0
 20
0.0
 30
0.0
  9
$USERI1
 70
     0
  9
$USERI2
 70
     0
  9
$USERI3
 70
     0
  9
$USERI4
 70
     0
  9
$USERI5
 70
     0
  9
$USERR1
 40
0.0
  9
$USERR2
 40
0.0
  9
$USERR3
 40
0.0
  9
$USERR4
 40
0.0
  9
$USERR5
 40
0.0
  9
$WORLDVIEW
 70
     1
  9
$SHADEDGE
 70
     3
  9
$SHADEDIF
 70
    70
  9
$TILEMODE
 70
     1
  9
$MAXACTVP
 70
    16
  9
$PINSBASE
 10
0.0
 20
0.0
 30
0.0
  9
$PLIMCHECK
 70
     0
  9
$PEXTMIN
 10
1.000000000000000E+20
 20
1.000000000000000E+20
 30
1.000000000000000E+20
  9
$PEXTMAX
 10
-1.000000000000000E+20
 20
-1.000000000000000E+20
 30
-1.000000000000000E+20
  9
$PLIMMIN
 10
0.0
 20
0.0
  9
$PLIMMAX
 10
12.0
 20
9.0
  9
$UNITMODE
 70
     0
  9
$VISRETAIN
 70
     0
  9
$PLINEGEN
 70
     0
  9
$PSLTSCALE
 70
     0
  9
$TREEDEPTH
 70
  3020
  9
$CMLSTYLE
  2
Standard
  9
$CMLJUST
 70
     0
  9
$CMLSCALE
 40
1.0
  9
$PROXYGRAPHICS
 70
     1
  9
$MEASUREMENT
 70
     0
  9
$CELWEIGHT
370
    -1
  9
$ENDCAPS
280
     0
  9
$JOINSTYLE
280
     0
  9
$LWDISPLAY
290
     0
  9
$INSUNITS
 70
     0
  9
$HYPERLINKBASE
  1

  9
$STYLESHEET
  1
monochrome.ctb
  9
$XEDIT
290
     1
  9
$CEPSNTYPE
380
     0
  9
$PSTYLEMODE
290
     1
  9
$FINGERPRINTGUID
  2
{9D555177-F8D3-4F85-906A-7F640A445D16}
  9
$VERSIONGUID
  2
{D64CA08F-97A9-4F89-BBFB-577A842DA027}
  9
$EXTNAMES
290
     1
  9
$PSVPSCALE
 40
0.0
  9
$OLESTARTUP
290
     0
  9
$SORTENTS
280
   127
  9
$INDEXCTL
280
     0
  9
$HIDETEXT
280
     1
  9
$XCLIPFRAME
290
     0
  9
$HALOGAP
280
     0
  9
$OBSCOLOR
 70
   257
  9
$OBSLTYPE
280
     0
  9
$INTERSECTIONDISPLAY
280
     0
  9
$INTERSECTIONCOLOR
 70
   257
  9
$DIMASSOC
280
     0
  9
$PROJECTNAME
  1

  0
ENDSEC
  0
SECTION
  2
CLASSES
  0
CLASS
  1
ACDBDICTIONARYWDFLT
  2
AcDbDictionaryWithDefault
  3
AutoCAD 2000
 90
        0
 91
        1
280
     0
281
     0
  0
CLASS
  1
ACDBPLACEHOLDER
  2
AcDbPlaceHolder
  3
ObjectDBX Classes
 90
        0
 91
        3
280
     0
281
     0
  0
CLASS
  1
LAYOUT
  2
AcDbLayout
  3
ObjectDBX Classes
 90
        0
 91
        3
280
     0
281
     0
  0
CLASS
  1
LONG_TRANSACTION
  2
AcDbLongTransaction
  3
ObjectDBX Classes
 90
   -65536
 91
        4
280
     1
281
     0
  0
CLASS
  1
LWPOLYLINE
  2
AcDbPolyline
  3
AutoCAD 2000
 90
        0
 91
        6
280
     0
281
     1
  0
CLASS
  1
HATCH
  2
AcDbHatch
  3
AutoCAD 2000
 90
        0
 91
        6
280
     0
281
     1
  0
CLASS
  1
XRECORD
  2
AcDbXrecord
  3
AutoCAD 2000
 90
        0
 91
        6
280
     0
281
     0
  0
CLASS
  1
LONG_TRANSACTION
  2
AcDbLongTransaction
  3
ObjectDBX Classes
 90
   -65536
 91
        4
280
     1
281
     0
  0
CLASS
  1
LWPOLYLINE
  2
AcDbPolyline
  3
AutoCAD 2000
 90
        0
 91
        6
280
     0
281
     1
  0
CLASS
  1
HATCH
  2
AcDbHatch
  3
AutoCAD 2000
 90
        0
 91
        6
280
     0
281
     1
  0
CLASS
  1
XRECORD
  2
AcDbXrecord
  3
AutoCAD 2000
 90
        0
 91
        6
280
     0
281
     0
  0
CLASS
  1
LONG_TRANSACTION
  2
AcDbLongTransaction
  3
ObjectDBX Classes
 90
   -65536
 91
        4
280
     1
281
     0
  0
CLASS
  1
LWPOLYLINE
  2
AcDbPolyline
  3
AutoCAD 2000
 90
        0
 91
        6
280
     0
281
     1
  0
CLASS
  1
HATCH
  2
AcDbHatch
  3
AutoCAD 2000
 90
        0
 91
        6
280
     0
281
     1
  0
CLASS
  1
XRECORD
  2
AcDbXrecord
  3
AutoCAD 2000
 90
        0
 91
        6
280
     0
281
     0
  0
CLASS
  1
LONG_TRANSACTION
  2
AcDbLongTransaction
  3
ObjectDBX Classes
 90
   -65536
 91
        4
280
     1
281
     0
  0
CLASS
  1
LWPOLYLINE
  2
AcDbPolyline
  3
AutoCAD 2000
 90
        0
 91
        6
280
     0
281
     1
  0
CLASS
  1
HATCH
  2
AcDbHatch
  3
AutoCAD 2000
 90
        0
 91
        6
280
     0
281
     1
  0
CLASS
  1
XRECORD
  2
AcDbXrecord
  3
AutoCAD 2000
 90
        0
 91
        6
280
     0
281
     0
  0
CLASS
  1
TABLESTYLE
  2
AcDbTableStyle
  3
ObjectDBX Classes
 90
     2047
 91
        2
280
     1
281
     0
  0
CLASS
  1
DICTIONARYVAR
  2
AcDbDictionaryVar
  3
AutoCAD 2000
 90
        0
 91
        1
280
     0
281
     0
  0
CLASS
  1
SORTENTSTABLE
  2
AcDbSortentsTable
  3
AutoCAD 2000
 90
        0
 91
        1
280
     0
281
     0
  0
ENDSEC
  0
SECTION
  2
TABLES
  0
TABLE
  2
VPORT
  5
8
330
0
100
AcDbSymbolTable
 70
     2
  0
VPORT
  5
1F83
330
8
100
AcDbSymbolTableRecord
100
AcDbViewportTableRecord
  2
*Active
 70
     0
 10
0.0
 20
0.0
 11
1.0
 21
1.0
 12
21.85871012058118
 22
17.55144838283685
 13
0.0
 23
0.0
 14
0.063
 24
0.063
 15
0.25
 25
0.25
 16
0.0
 26
0.0
 36
1.0
 17
0.0
 27
0.0
 37
0.0
 40
54.45363561728645
 41
1.78118609406953
 42
50.0
 43
0.0
 44
0.0
 50
0.0
 51
0.0
 71
     0
 72
   100
 73
     1
 74
     0
 75
     0
 76
     0
 77
     0
 78
     0
281
     0
 65
     1
110
0.0
120
0.0
130
0.0
111
1.0
121
0.0
131
0.0
112
0.0
122
1.0
132
0.0
 79
     0
146
0.0
  0
ENDTAB
  0
TABLE
  2
LTYPE
  5
5
330
0
100
AcDbSymbolTable
 70
     4
  0
LTYPE
  5
13
330
5
100
AcDbSymbolTableRecord
100
AcDbLinetypeTableRecord
  2
ByBlock
 70
     0
  3

 72
    65
 73
     0
 40
0.0
  0
LTYPE
  5
14
330
5
100
AcDbSymbolTableRecord
100
AcDbLinetypeTableRecord
  2
ByLayer
 70
     0
  3

 72
    65
 73
     0
 40
0.0
  0
LTYPE
  5
15
330
5
100
AcDbSymbolTableRecord
100
AcDbLinetypeTableRecord
  2
CONTINUOUS
 70
     0
  3
Solid line
 72
    65
 73
     0
 40
0.0
  0
ENDTAB
  0
TABLE
  2
LAYER
  5
2
102
{ACAD_XDICTIONARY
360
C09
102
}
330
0
100
AcDbSymbolTable
 70
    13
  0
LAYER
  5
10
330
2
100
AcDbSymbolTableRecord
100
AcDbLayerTableRecord
  2
0
 70
     0
 62
     7
  6
CONTINUOUS
370
    -3
390
F
  0
LAYER
  5
4E
330
2
100
AcDbSymbolTableRecord
100
AcDbLayerTableRecord
  2
DEFPOINTS
 70
     0
 62
     7
  6
CONTINUOUS
290
     0
370
    -3
390
F
  0
ENDTAB
  0
TABLE
  2
STYLE
  5
3
330
0
100
AcDbSymbolTable
 70
     6
  0
STYLE
  5
11
330
3
100
AcDbSymbolTableRecord
100
AcDbTextStyleTableRecord
  2
STANDARD
 70
     0
 40
0.0
 41
1.0
 50
0.0
 71
     0
 42
0.27
  3
TXT
  4

  0
ENDTAB
  0
TABLE
  2
VIEW
  5
6
330
0
100
AcDbSymbolTable
 70
     0
  0
ENDTAB
  0
TABLE
  2
UCS
  5
7
330
0
100
AcDbSymbolTable
 70
     0
  0
ENDTAB
  0
TABLE
  2
APPID
  5
9
330
0
100
AcDbSymbolTable
 70
     3
  0
APPID
  5
12
330
9
100
AcDbSymbolTableRecord
100
AcDbRegAppTableRecord
  2
ACAD
 70
     0
  0
APPID
  5
C08
330
9
100
AcDbSymbolTableRecord
100
AcDbRegAppTableRecord
  2
ACAD_PSEXT
 70
     0
  0
APPID
  5
1794
330
9
100
AcDbSymbolTableRecord
100
AcDbRegAppTableRecord
  2
ACAD_DSTYLE_DIMTEXT_FILL
 70
     0
  0
ENDTAB
  0
TABLE
  2
DIMSTYLE
  5
A
330
0
100
AcDbSymbolTable
 70
     3
100
AcDbDimStyleTable
  0
DIMSTYLE
105
561
330
A
100
AcDbSymbolTableRecord
100
AcDbDimStyleTableRecord
  2
Standard
 70
     0
  3

  4

340
11
  0
ENDTAB
  0
TABLE
  2
BLOCK_RECORD
  5
1
330
0
100
AcDbSymbolTable
 70
    15
  0
BLOCK_RECORD
  5
1E
102
{ACAD_XDICTIONARY
360
82F
102
}
330
1
100
AcDbSymbolTableRecord
100
AcDbBlockTableRecord
  2
*Model_Space
340
21
  0
BLOCK_RECORD
  5
1A
330
1
100
AcDbSymbolTableRecord
100
AcDbBlockTableRecord
  2
*Paper_Space
340
1D
  0
ENDTAB
  0
ENDSEC
  0
SECTION
  2
BLOCKS
  0
BLOCK
  5
51
330
1E
100
AcDbEntity
  8
0
100
AcDbBlockBegin
  2
*Model_Space
 70
     0
 10
0.0
 20
0.0
 30
0.0
  3
*Model_Space
  1

  4

  0
ENDBLK
  5
52
330
1E
100
AcDbEntity
  8
0
100
AcDbBlockEnd
  0
BLOCK
  5
4F
330
1A
100
AcDbEntity
 67
     1
  8
0
100
AcDbBlockBegin
  2
*Paper_Space
 70
     0
 10
0.0
 20
0.0
 30
0.0
  3
*Paper_Space
  1

  4

  0
ENDBLK
  5
50
330
1A
100
AcDbEntity
 67
     1
  8
0
100
AcDbBlockEnd
  0
ENDSEC
  0
SECTION
  2
ENTITIES
  0
TEXT
  5
470
330
1E
100
AcDbEntity
  8
0
100
AcDbText
 10
7.566920363
 20
24.907029066
 30
0.0
 40
0.27
  1
   
100
AcDbText
  0
TEXT
  5
473
330
1E
100
AcDbEntity
  8
0
100
AcDbText
 10
11.907898174
 20
21.328660945
 30
0.0
 40
0.27
  1
   
100
AcDbText
  0
TEXT
  5
474
330
1E
100
AcDbEntity
  8
0
100
AcDbText
 10
18.185367645
 20
27.578756393
 30
0.0
 40
0.27
  1
   
100
AcDbText
  0
CIRCLE
  5
8A9
330
1E
100
AcDbEntity
  8
0
100
AcDbCircle
 10
0.677789855989559
 20
32.38516020956351
 30
0.0
 40
0.4999860859651122
  0
CIRCLE
  5
8AA
330
1E
100
AcDbEntity
  8
0
100
AcDbCircle
 10
0.677789855989559
 20
32.38516020956351
 30
0.0
 40
0.4687360859651122
  0
LWPOLYLINE
  5
8AB
330
1E
100
AcDbEntity
  8
0
100
AcDbPolyline
 90
        2
 70
     0
 43
0.0135320625
 10
0.9797118569784189
 20
32.59676390139028
 10
0.5552493773529861
 20
32.59787730195227
  0
LWPOLYLINE
  5
8AC
330
1E
100
AcDbEntity
  8
0
100
AcDbPolyline
 90
        2
 70
     0
 43
0.0135320625
 10
0.6871459787234286
 20
32.74968790657353
 10
0.9261140177333047
 20
32.51071986756364
  0
LINE
  5
8AD
330
1E
100
AcDbEntity
  8
0
100
AcDbLine
 10
0.4630885243163334
 20
32.35879204907798
 30
0.0
 11
0.4630865349496673
 21
32.38223894331173
 31
0.0
  0
LINE
  5
8AE
330
1E
100
AcDbEntity
  8
0
100
AcDbLine
 10
0.4630885243163334
 20
32.40639437339167
 30
0.0
 11
0.4630865349496673
 21
32.38294747915791
 31
0.0
  0
SOLID
  5
8AF
330
1E
100
AcDbEntity
  8
0
100
AcDbTrace
 10
0.554617493587827
 20
32.38259321123482
 30
0.0
 11
0.4630885243163334
 21
32.35879204907798
 31
0.0
 12
0.4630865349496673
 22
32.38223894331173
 32
0.0
 13
0.4630865349496673
 23
32.38223894331173
 33
0.0
  0
LINE
  5
8B0
330
1E
100
AcDbEntity
  8
0
100
AcDbLine
 10
0.554617493587827
 20
32.38259321123482
 30
0.0
 11
0.4630885243163334
 21
32.35879204907798
 31
0.0
  0
LINE
  5
8B1
330
1E
100
AcDbEntity
  8
0
100
AcDbLine
 10
0.554617493587827
 20
32.38259321123482
 30
0.0
 11
0.4630885243163334
 21
32.40639437339167
 31
0.0
  0
SOLID
  5
8B2
330
1E
100
AcDbEntity
  8
0
100
AcDbTrace
 10
0.554617493587827
 20
32.38259321123482
 30
0.0
 11
0.4630885243163334
 21
32.40639437339167
 31
0.0
 12
0.4630865349496673
 22
32.38294747915791
 32
0.0
 13
0.4630865349496673
 23
32.38294747915791
 33
0.0
  0
LWPOLYLINE
  5
8B3
330
1E
100
AcDbEntity
  8
0
100
AcDbPolyline
 90
        2
 70
     0
 43
0.0135320625
 10
0.5979808568403158
 20
32.66052278469041
 10
0.8369488958501918
 20
32.42155474568054
  0
LWPOLYLINE
  5
8B5
330
1E
100
AcDbEntity
  8
0
100
AcDbPolyline
 90
        3
 70
     0
 43
0.0027064125
 10
0.4279938670486629
 20
32.50476587518011
 10
0.3072163732207756
 20
32.38398838135221
 10
0.425414705419449
 20
32.26579004915353
  0
LWPOLYLINE
  5
8B6
330
1E
100
AcDbEntity
  8
0
100
AcDbPolyline
 90
        2
 70
     0
 43
0.0027064125
 10
0.3193540807688109
 20
32.38318288310163
 10
0.5546174935879478
 20
32.38259321123482
  0
ARC
  5
B91
330
1E
100
AcDbEntity
  8
0
100
AcDbCircle
 10
32.10945570147929
 20
14.02750596547395
 30
0.0
 40
31.94593874843759
100
AcDbArc
 50
178.0980744248573
 51
201.488086935018
  0
LINE
  5
D22
330
1E
100
AcDbEntity
  8
0
100
AcDbLine
 10
0.1778037700244468
 20
30.08775229977501
 30
0.0
 11
1.177803770024447
 21
30.08775229977501
 31
0.0
  0
LINE
  5
D5F
330
1E
100
AcDbEntity
  8
0
100
AcDbLine
 10
0.1778037700244468
 20
24.11873915309266
 30
0.0
 11
0.1778037700244468
 21
30.08775229977501
 31
0.0
  0
ARC
  5
D96
330
1E
100
AcDbEntity
  8
0
100
AcDbCircle
 10
1.126674793303124
 20
30.09209921430796
 30
0.0
 40
0.05
100
AcDbArc
 50
276.6299012779999
 51
0.0
  0
LINE
  5
D97
330
1E
100
AcDbEntity
  8
0
100
AcDbLine
 10
0.2231612784858754
 20
29.98324119124101
 30
0.0
 11
1.132447570901938
 21
30.04243358193713
 31
0.0
  0
ARC
  5
D98
330
1E
100
AcDbEntity
  8
0
100
AcDbCircle
 10
0.2289340560846895
 20
29.93357555887017
 30
0.0
 40
0.05
100
AcDbArc
 50
96.62990127799989
 51
180.0
  0
LINE
  5
DD7
330
1E
100
AcDbEntity
  8
0
100
AcDbLine
 10
0.1811159352226142
 20
24.05623915309266
 30
0.0
 11
1.184754578263167
 21
24.05623915309266
 31
0.0
  0
LINE
  5
DD8
330
1E
100
AcDbEntity
  8
0
100
AcDbLine
 10
0.2090537700244468
 20
24.11873915309266
 30
0.0
 11
1.177803770024447
 21
24.11873915309266
 31
0.0
  0
ARC
  5
DD9
330
1E
100
AcDbEntity
  8
0
100
AcDbCircle
 10
0.1778043939149541
 20
24.08729168722852
 30
0.0
 40
0.03125
100
AcDbArc
 50
276.4444756747145
 51
0.3620491490063217
  0
ARC
  5
DDA
330
1E
100
AcDbEntity
  8
0
100
AcDbCircle
 10
0.1778037700244468
 20
24.08748915309266
 30
0.0
 40
0.03125
100
AcDbArc
 50
0.0
 51
90.0
  0
LINE
  5
DDB
330
1E
100
AcDbEntity
  8
0
100
AcDbLine
 10
0.1813119035359705
 20
24.05623915309266
 30
0.0
 11
0.2090537700244468
 21
24.05623915309266
 31
0.0
  0
LINE
  5
DDC
330
1E
100
AcDbEntity
  8
0
100
AcDbLine
 10
0.1778037700244468
 20
24.11873915309266
 30
0.0
 11
0.2090537700244468
 21
24.11873915309266
 31
0.0
  0
ARC
  5
DDD
330
1E
100
AcDbEntity
  8
0
100
AcDbCircle
 10
1.177793906942434
 20
24.08670407644337
 30
0.0
 40
0.03125
100
AcDbArc
 50
178.5604380308048
 51
282.8701046498811
  0
ARC
  5
DDE
330
1E
100
AcDbEntity
  8
0
100
AcDbCircle
 10
1.177803770024447
 20
24.08748915309266
 30
0.0
 40
0.03125
100
AcDbArc
 50
90.0
 51
180.0
  0
TEXT
  5
E2A
330
1E
100
AcDbEntity
  8
0
100
AcDbText
 10
0.569015779211199
 20
32.18446186178045
 30
0.0
 40
0.1353206250000001
  1
30
 50
314.9999999999999
100
AcDbText
  0
LINE
  5
EA0
330
1E
100
AcDbEntity
  8
0
100
AcDbLine
 10
1.184754578263174
 20
24.05623915309266
 30
0.0
 11
1.184754578263174
 21
15.08775229977501
 31
0.0
  0
LINE
  5
EA1
330
1E
100
AcDbEntity
  8
0
100
AcDbLine
 10
0.1811159352226142
 20
24.05623915309266
 30
0.0
 11
0.1811159352226142
 21
15.08775229977501
 31
0.0
  0
ARC
  5
EA2
330
1E
100
AcDbEntity
  8
0
100
AcDbCircle
 10
34.62570849292838
 20
14.56109381616473
 30
0.0
 40
33.4451008053664
100
AcDbArc
 50
179.0977286703839
 51
200.7125443271749
  0
LINE
  5
EA9
330
1E
100
AcDbEntity
  8
0
100
AcDbLine
 10
1.177803770024447
 20
24.11873915309266
 30
0.0
 11
1.177803770024447
 21
30.08775229977501
 31
0.0
  0
ARC
  5
EB2
330
1E
100
AcDbEntity
  8
0
100
AcDbCircle
 10
1.126674793303124
 20
29.96709921430796
 30
0.0
 40
0.05
100
AcDbArc
 50
276.6299012779999
 51
0.0
  0
LINE
  5
EB3
330
1E
100
AcDbEntity
  8
0
100
AcDbLine
 10
0.2231612784858754
 20
29.85824119124101
 30
0.0
 11
1.132447570901938
 21
29.91743358193713
 31
0.0
  0
ARC
  5
EB4
330
1E
100
AcDbEntity
  8
0
100
AcDbCircle
 10
0.2289340560846895
 20
29.80857555887017
 30
0.0
 40
0.05
100
AcDbArc
 50
96.62990127799989
 51
180.0
  0
ARC
  5
EB7
330
1E
100
AcDbEntity
  8
0
100
AcDbCircle
 10
1.125545162211743
 20
29.84209921430796
 30
0.0
 40
0.05
100
AcDbArc
 50
276.6299012779999
 51
0.0
  0
LINE
  5
EB8
330
1E
100
AcDbEntity
  8
0
100
AcDbLine
 10
0.2220316473944948
 20
29.73324119124101
 30
0.0
 11
1.131317939810558
 21
29.79243358193713
 31
0.0
  0
ARC
  5
EB9
330
1E
100
AcDbEntity
  8
0
100
AcDbCircle
 10
0.2278044249933089
 20
29.68357555887017
 30
0.0
 40
0.05
100
AcDbArc
 50
96.62990127799989
 51
180.0
  0
ARC
  5
EBA
330
1E
100
AcDbEntity
  8
0
100
AcDbCircle
 10
1.125545162211743
 20
29.71709921430796
 30
0.0
 40
0.05
100
AcDbArc
 50
276.6299012779999
 51
0.0
  0
LINE
  5
EBB
330
1E
100
AcDbEntity
  8
0
100
AcDbLine
 10
0.2220316473944948
 20
29.60824119124101
 30
0.0
 11
1.131317939810558
 21
29.66743358193713
 31
0.0
  0
ARC
  5
EBC
330
1E
100
AcDbEntity
  8
0
100
AcDbCircle
 10
0.2278044249933089
 20
29.55857555887017
 30
0.0
 40
0.05
100
AcDbArc
 50
96.62990127799989
 51
180.0
  0
ARC
  5
EBD
330
1E
100
AcDbEntity
  8
0
100
AcDbCircle
 10
1.125545162211736
 20
29.59209921430796
 30
0.0
 40
0.05
100
AcDbArc
 50
276.6299012779999
 51
0.0
  0
LINE
  5
EBE
330
1E
100
AcDbEntity
  8
0
100
AcDbLine
 10
0.2220316473944877
 20
29.48324119124101
 30
0.0
 11
1.13131793981055
 21
29.54243358193713
 31
0.0
  0
ARC
  5
EBF
330
1E
100
AcDbEntity
  8
0
100
AcDbCircle
 10
0.2278044249933018
 20
29.43357555887017
 30
0.0
 40
0.05
100
AcDbArc
 50
96.62990127799989
 51
180.0
  0
ARC
  5
EC0
330
1E
100
AcDbEntity
  8
0
100
AcDbCircle
 10
1.125545162211736
 20
29.46709921430796
 30
0.0
 40
0.05
100
AcDbArc
 50
276.6299012779999
 51
0.0
  0
LINE
  5
EC1
330
1E
100
AcDbEntity
  8
0
100
AcDbLine
 10
0.2220316473944877
 20
29.35824119124101
 30
0.0
 11
1.13131793981055
 21
29.41743358193713
 31
0.0
  0
ARC
  5
EC2
330
1E
100
AcDbEntity
  8
0
100
AcDbCircle
 10
0.2278044249933018
 20
29.30857555887017
 30
0.0
 40
0.05
100
AcDbArc
 50
96.62990127799989
 51
180.0
  0
ARC
  5
EC3
330
1E
100
AcDbEntity
  8
0
100
AcDbCircle
 10
1.125545162211729
 20
29.34209921430796
 30
0.0
 40
0.05
100
AcDbArc
 50
276.6299012779999
 51
0.0
  0
LINE
  5
EC4
330
1E
100
AcDbEntity
  8
0
100
AcDbLine
 10
0.2220316473944806
 20
29.23324119124101
 30
0.0
 11
1.131317939810543
 21
29.29243358193713
 31
0.0
  0
ARC
  5
EC5
330
1E
100
AcDbEntity
  8
0
100
AcDbCircle
 10
0.2278044249932947
 20
29.18357555887017
 30
0.0
 40
0.05
100
AcDbArc
 50
96.62990127799989
 51
180.0
  0
ARC
  5
EC6
330
1E
100
AcDbEntity
  8
0
100
AcDbCircle
 10
1.125545162211729
 20
29.21709921430796
 30
0.0
 40
0.05
100
AcDbArc
 50
276.6299012779999
 51
0.0
  0
LINE
  5
EC7
330
1E
100
AcDbEntity
  8
0
100
AcDbLine
 10
0.2220316473944806
 20
29.10824119124101
 30
0.0
 11
1.131317939810543
 21
29.16743358193713
 31
0.0
  0
ARC
  5
EC8
330
1E
100
AcDbEntity
  8
0
100
AcDbCircle
 10
0.2278044249932947
 20
29.05857555887017
 30
0.0
 40
0.05
100
AcDbArc
 50
96.62990127799989
 51
180.0
  0
ARC
  5
ECA
330
1E
100
AcDbEntity
  8
0
100
AcDbCircle
 10
1.126674793303124
 20
29.09217275062481
 30
0.0
 40
0.05
100
AcDbArc
 50
276.6299012779999
 51
0.0
  0
LINE
  5
ECB
330
1E
100
AcDbEntity
  8
0
100
AcDbLine
 10
0.2231612784858754
 20
28.98331472755785
 30
0.0
 11
1.132447570901938
 21
29.04250711825398
 31
0.0
  0
ARC
  5
ECC
330
1E
100
AcDbEntity
  8
0
100
AcDbCircle
 10
0.2289340560846895
 20
28.93364909518702
 30
0.0
 40
0.05
100
AcDbArc
 50
96.62990127799989
 51
180.0
  0
ARC
  5
ECD
330
1E
100
AcDbEntity
  8
0
100
AcDbCircle
 10
1.125545162211743
 20
28.96717275062481
 30
0.0
 40
0.05
100
AcDbArc
 50
276.6299012779999
 51
0.0
  0
LINE
  5
ECE
330
1E
100
AcDbEntity
  8
0
100
AcDbLine
 10
0.2220316473944948
 20
28.85831472755785
 30
0.0
 11
1.131317939810558
 21
28.91750711825398
 31
0.0
  0
ARC
  5
ECF
330
1E
100
AcDbEntity
  8
0
100
AcDbCircle
 10
0.2278044249933089
 20
28.80864909518702
 30
0.0
 40
0.05
100
AcDbArc
 50
96.62990127799989
 51
180.0
  0
ARC
  5
ED0
330
1E
100
AcDbEntity
  8
0
100
AcDbCircle
 10
1.125545162211743
 20
28.84217275062481
 30
0.0
 40
0.05
100
AcDbArc
 50
276.6299012779999
 51
0.0
  0
LINE
  5
ED1
330
1E
100
AcDbEntity
  8
0
100
AcDbLine
 10
0.2220316473944948
 20
28.73331472755785
 30
0.0
 11
1.131317939810558
 21
28.79250711825398
 31
0.0
  0
ARC
  5
ED2
330
1E
100
AcDbEntity
  8
0
100
AcDbCircle
 10
0.2278044249933089
 20
28.68364909518702
 30
0.0
 40
0.05
100
AcDbArc
 50
96.62990127799989
 51
180.0
  0
ARC
  5
ED3
330
1E
100
AcDbEntity
  8
0
100
AcDbCircle
 10
1.125545162211736
 20
28.71717275062481
 30
0.0
 40
0.05
100
AcDbArc
 50
276.6299012779999
 51
0.0
  0
LINE
  5
ED4
330
1E
100
AcDbEntity
  8
0
100
AcDbLine
 10
0.2220316473944877
 20
28.60831472755785
 30
0.0
 11
1.13131793981055
 21
28.66750711825398
 31
0.0
  0
ARC
  5
ED5
330
1E
100
AcDbEntity
  8
0
100
AcDbCircle
 10
0.2278044249933018
 20
28.55864909518702
 30
0.0
 40
0.05
100
AcDbArc
 50
96.62990127799989
 51
180.0
  0
ARC
  5
ED6
330
1E
100
AcDbEntity
  8
0
100
AcDbCircle
 10
1.125545162211736
 20
28.59217275062481
 30
0.0
 40
0.05
100
AcDbArc
 50
276.6299012779999
 51
0.0
  0
LINE
  5
ED7
330
1E
100
AcDbEntity
  8
0
100
AcDbLine
 10
0.2220316473944877
 20
28.48331472755785
 30
0.0
 11
1.13131793981055
 21
28.54250711825398
 31
0.0
  0
ARC
  5
ED8
330
1E
100
AcDbEntity
  8
0
100
AcDbCircle
 10
0.2278044249933018
 20
28.43364909518702
 30
0.0
 40
0.05
100
AcDbArc
 50
96.62990127799989
 51
180.0
  0
ARC
  5
ED9
330
1E
100
AcDbEntity
  8
0
100
AcDbCircle
 10
1.125545162211729
 20
28.46717275062481
 30
0.0
 40
0.05
100
AcDbArc
 50
276.6299012779999
 51
0.0
  0
LINE
  5
EDA
330
1E
100
AcDbEntity
  8
0
100
AcDbLine
 10
0.2220316473944806
 20
28.35831472755785
 30
0.0
 11
1.131317939810543
 21
28.41750711825398
 31
0.0
  0
ARC
  5
EDB
330
1E
100
AcDbEntity
  8
0
100
AcDbCircle
 10
0.2278044249932947
 20
28.30864909518702
 30
0.0
 40
0.05
100
AcDbArc
 50
96.62990127799989
 51
180.0
  0
ARC
  5
EDC
330
1E
100
AcDbEntity
  8
0
100
AcDbCircle
 10
1.125545162211729
 20
28.34217275062481
 30
0.0
 40
0.05
100
AcDbArc
 50
276.6299012779999
 51
0.0
  0
LINE
  5
EDD
330
1E
100
AcDbEntity
  8
0
100
AcDbLine
 10
0.2220316473944806
 20
28.23331472755785
 30
0.0
 11
1.131317939810543
 21
28.29250711825398
 31
0.0
  0
ARC
  5
EDE
330
1E
100
AcDbEntity
  8
0
100
AcDbCircle
 10
0.2278044249932947
 20
28.18364909518702
 30
0.0
 40
0.05
100
AcDbArc
 50
96.62990127799989
 51
180.0
  0
ARC
  5
EDF
330
1E
100
AcDbEntity
  8
0
100
AcDbCircle
 10
1.125545162211736
 20
28.21717275062481
 30
0.0
 40
0.05
100
AcDbArc
 50
276.6299012779999
 51
0.0
  0
LINE
  5
EE0
330
1E
100
AcDbEntity
  8
0
100
AcDbLine
 10
0.2220316473944877
 20
28.10831472755785
 30
0.0
 11
1.13131793981055
 21
28.16750711825398
 31
0.0
  0
ARC
  5
EE1
330
1E
100
AcDbEntity
  8
0
100
AcDbCircle
 10
0.2278044249933018
 20
28.05864909518702
 30
0.0
 40
0.05
100
AcDbArc
 50
96.62990127799989
 51
180.0
  0
ARC
  5
EE2
330
1E
100
AcDbEntity
  8
0
100
AcDbCircle
 10
1.124415531120356
 20
28.09217275062481
 30
0.0
 40
0.05
100
AcDbArc
 50
276.6299012779999
 51
0.0
  0
LINE
  5
EE3
330
1E
100
AcDbEntity
  8
0
100
AcDbLine
 10
0.220902016303107
 20
27.98331472755785
 30
0.0
 11
1.13018830871917
 21
28.04250711825398
 31
0.0
  0
ARC
  5
EE4
330
1E
100
AcDbEntity
  8
0
100
AcDbCircle
 10
0.2266747939019211
 20
27.93364909518702
 30
0.0
 40
0.05
100
AcDbArc
 50
96.62990127799989
 51
180.0
  0
ARC
  5
EE5
330
1E
100
AcDbEntity
  8
0
100
AcDbCircle
 10
1.124415531120356
 20
27.96717275062481
 30
0.0
 40
0.05
100
AcDbArc
 50
276.6299012779999
 51
0.0
  0
LINE
  5
EE6
330
1E
100
AcDbEntity
  8
0
100
AcDbLine
 10
0.220902016303107
 20
27.85831472755785
 30
0.0
 11
1.13018830871917
 21
27.91750711825398
 31
0.0
  0
ARC
  5
EE7
330
1E
100
AcDbEntity
  8
0
100
AcDbCircle
 10
0.2266747939019211
 20
27.80864909518702
 30
0.0
 40
0.05
100
AcDbArc
 50
96.62990127799989
 51
180.0
  0
ARC
  5
EE8
330
1E
100
AcDbEntity
  8
0
100
AcDbCircle
 10
1.124415531120349
 20
27.84217275062481
 30
0.0
 40
0.05
100
AcDbArc
 50
276.6299012779999
 51
0.0
  0
LINE
  5
EE9
330
1E
100
AcDbEntity
  8
0
100
AcDbLine
 10
0.2209020163030999
 20
27.73331472755785
 30
0.0
 11
1.130188308719163
 21
27.79250711825398
 31
0.0
  0
ARC
  5
EEA
330
1E
100
AcDbEntity
  8
0
100
AcDbCircle
 10
0.226674793901914
 20
27.68364909518702
 30
0.0
 40
0.05
100
AcDbArc
 50
96.62990127799989
 51
180.0
  0
ARC
  5
EEB
330
1E
100
AcDbEntity
  8
0
100
AcDbCircle
 10
1.124415531120349
 20
27.71717275062481
 30
0.0
 40
0.05
100
AcDbArc
 50
276.6299012779999
 51
0.0
  0
LINE
  5
EEC
330
1E
100
AcDbEntity
  8
0
100
AcDbLine
 10
0.2209020163030999
 20
27.60831472755785
 30
0.0
 11
1.130188308719163
 21
27.66750711825398
 31
0.0
  0
ARC
  5
EED
330
1E
100
AcDbEntity
  8
0
100
AcDbCircle
 10
0.226674793901914
 20
27.55864909518702
 30
0.0
 40
0.05
100
AcDbArc
 50
96.62990127799989
 51
180.0
  0
ARC
  5
EEE
330
1E
100
AcDbEntity
  8
0
100
AcDbCircle
 10
1.124415531120341
 20
27.59217275062481
 30
0.0
 40
0.05
100
AcDbArc
 50
276.6299012779999
 51
0.0
  0
LINE
  5
EEF
330
1E
100
AcDbEntity
  8
0
100
AcDbLine
 10
0.2209020163030928
 20
27.48331472755785
 30
0.0
 11
1.130188308719156
 21
27.54250711825398
 31
0.0
  0
ARC
  5
EF0
330
1E
100
AcDbEntity
  8
0
100
AcDbCircle
 10
0.2266747939019069
 20
27.43364909518702
 30
0.0
 40
0.05
100
AcDbArc
 50
96.62990127799989
 51
180.0
  0
ARC
  5
EF1
330
1E
100
AcDbEntity
  8
0
100
AcDbCircle
 10
1.124415531120341
 20
27.46717275062481
 30
0.0
 40
0.05
100
AcDbArc
 50
276.6299012779999
 51
0.0
  0
LINE
  5
EF2
330
1E
100
AcDbEntity
  8
0
100
AcDbLine
 10
0.2209020163030928
 20
27.35831472755785
 30
0.0
 11
1.130188308719156
 21
27.41750711825398
 31
0.0
  0
ARC
  5
EF3
330
1E
100
AcDbEntity
  8
0
100
AcDbCircle
 10
0.2266747939019069
 20
27.30864909518702
 30
0.0
 40
0.05
100
AcDbArc
 50
96.62990127799989
 51
180.0
  0
ARC
  5
EF4
330
1E
100
AcDbEntity
  8
0
100
AcDbCircle
 10
1.124415531120349
 20
27.34217275062481
 30
0.0
 40
0.05
100
AcDbArc
 50
276.6299012779999
 51
0.0
  0
LINE
  5
EF5
330
1E
100
AcDbEntity
  8
0
100
AcDbLine
 10
0.2209020163030999
 20
27.23331472755785
 30
0.0
 11
1.130188308719163
 21
27.29250711825398
 31
0.0
  0
ARC
  5
EF6
330
1E
100
AcDbEntity
  8
0
100
AcDbCircle
 10
0.226674793901914
 20
27.18364909518702
 30
0.0
 40
0.05
100
AcDbArc
 50
96.62990127799989
 51
180.0
  0
ARC
  5
F33
330
1E
100
AcDbEntity
  8
0
100
AcDbCircle
 10
1.125545162211736
 20
27.21724628694166
 30
0.0
 40
0.05
100
AcDbArc
 50
276.6299012779999
 51
0.0
  0
LINE
  5
F34
330
1E
100
AcDbEntity
  8
0
100
AcDbLine
 10
0.2220316473944877
 20
27.1083882638747
 30
0.0
 11
1.13131793981055
 21
27.16758065457083
 31
0.0
  0
ARC
  5
F35
330
1E
100
AcDbEntity
  8
0
100
AcDbCircle
 10
0.2278044249933018
 20
27.05872263150387
 30
0.0
 40
0.05
100
AcDbArc
 50
96.62990127799989
 51
180.0
  0
ARC
  5
F36
330
1E
100
AcDbEntity
  8
0
100
AcDbCircle
 10
1.124415531120356
 20
27.09224628694166
 30
0.0
 40
0.05
100
AcDbArc
 50
276.6299012779999
 51
0.0
  0
LINE
  5
F37
330
1E
100
AcDbEntity
  8
0
100
AcDbLine
 10
0.220902016303107
 20
26.9833882638747
 30
0.0
 11
1.13018830871917
 21
27.04258065457083
 31
0.0
  0
ARC
  5
F38
330
1E
100
AcDbEntity
  8
0
100
AcDbCircle
 10
0.2266747939019211
 20
26.93372263150387
 30
0.0
 40
0.05
100
AcDbArc
 50
96.62990127799989
 51
180.0
  0
ARC
  5
F39
330
1E
100
AcDbEntity
  8
0
100
AcDbCircle
 10
1.124415531120356
 20
26.96724628694166
 30
0.0
 40
0.05
100
AcDbArc
 50
276.6299012779999
 51
0.0
  0
LINE
  5
F3A
330
1E
100
AcDbEntity
  8
0
100
AcDbLine
 10
0.220902016303107
 20
26.8583882638747
 30
0.0
 11
1.13018830871917
 21
26.91758065457083
 31
0.0
  0
ARC
  5
F3B
330
1E
100
AcDbEntity
  8
0
100
AcDbCircle
 10
0.2266747939019211
 20
26.80872263150387
 30
0.0
 40
0.05
100
AcDbArc
 50
96.62990127799989
 51
180.0
  0
ARC
  5
F3C
330
1E
100
AcDbEntity
  8
0
100
AcDbCircle
 10
1.124415531120349
 20
26.84224628694166
 30
0.0
 40
0.05
100
AcDbArc
 50
276.6299012779999
 51
0.0
  0
LINE
  5
F3D
330
1E
100
AcDbEntity
  8
0
100
AcDbLine
 10
0.2209020163030999
 20
26.7333882638747
 30
0.0
 11
1.130188308719163
 21
26.79258065457083
 31
0.0
  0
ARC
  5
F3E
330
1E
100
AcDbEntity
  8
0
100
AcDbCircle
 10
0.226674793901914
 20
26.68372263150387
 30
0.0
 40
0.05
100
AcDbArc
 50
96.62990127799989
 51
180.0
  0
ARC
  5
F3F
330
1E
100
AcDbEntity
  8
0
100
AcDbCircle
 10
1.124415531120349
 20
26.71724628694166
 30
0.0
 40
0.05
100
AcDbArc
 50
276.6299012779999
 51
0.0
  0
LINE
  5
F40
330
1E
100
AcDbEntity
  8
0
100
AcDbLine
 10
0.2209020163030999
 20
26.6083882638747
 30
0.0
 11
1.130188308719163
 21
26.66758065457083
 31
0.0
  0
ARC
  5
F41
330
1E
100
AcDbEntity
  8
0
100
AcDbCircle
 10
0.226674793901914
 20
26.55872263150387
 30
0.0
 40
0.05
100
AcDbArc
 50
96.62990127799989
 51
180.0
  0
ARC
  5
F42
330
1E
100
AcDbEntity
  8
0
100
AcDbCircle
 10
1.124415531120341
 20
26.59224628694166
 30
0.0
 40
0.05
100
AcDbArc
 50
276.6299012779999
 51
0.0
  0
LINE
  5
F43
330
1E
100
AcDbEntity
  8
0
100
AcDbLine
 10
0.2209020163030928
 20
26.4833882638747
 30
0.0
 11
1.130188308719156
 21
26.54258065457083
 31
0.0
  0
ARC
  5
F44
330
1E
100
AcDbEntity
  8
0
100
AcDbCircle
 10
0.2266747939019069
 20
26.43372263150387
 30
0.0
 40
0.05
100
AcDbArc
 50
96.62990127799989
 51
180.0
  0
ARC
  5
F45
330
1E
100
AcDbEntity
  8
0
100
AcDbCircle
 10
1.124415531120341
 20
26.46724628694166
 30
0.0
 40
0.05
100
AcDbArc
 50
276.6299012779999
 51
0.0
  0
LINE
  5
F46
330
1E
100
AcDbEntity
  8
0
100
AcDbLine
 10
0.2209020163030928
 20
26.3583882638747
 30
0.0
 11
1.130188308719156
 21
26.41758065457083
 31
0.0
  0
ARC
  5
F47
330
1E
100
AcDbEntity
  8
0
100
AcDbCircle
 10
0.2266747939019069
 20
26.30872263150387
 30
0.0
 40
0.05
100
AcDbArc
 50
96.62990127799989
 51
180.0
  0
ARC
  5
F48
330
1E
100
AcDbEntity
  8
0
100
AcDbCircle
 10
1.124415531120349
 20
26.34224628694166
 30
0.0
 40
0.05
100
AcDbArc
 50
276.6299012779999
 51
0.0
  0
LINE
  5
F49
330
1E
100
AcDbEntity
  8
0
100
AcDbLine
 10
0.2209020163030999
 20
26.2333882638747
 30
0.0
 11
1.130188308719163
 21
26.29258065457083
 31
0.0
  0
ARC
  5
F4A
330
1E
100
AcDbEntity
  8
0
100
AcDbCircle
 10
0.226674793901914
 20
26.18372263150387
 30
0.0
 40
0.05
100
AcDbArc
 50
96.62990127799989
 51
180.0
  0
ARC
  5
F4B
330
1E
100
AcDbEntity
  8
0
100
AcDbCircle
 10
1.123285900028968
 20
26.21724628694166
 30
0.0
 40
0.05
100
AcDbArc
 50
276.6299012779999
 51
0.0
  0
LINE
  5
F4C
330
1E
100
AcDbEntity
  8
0
100
AcDbLine
 10
0.2197723852117193
 20
26.1083882638747
 30
0.0
 11
1.129058677627782
 21
26.16758065457083
 31
0.0
  0
ARC
  5
F4D
330
1E
100
AcDbEntity
  8
0
100
AcDbCircle
 10
0.2255451628105334
 20
26.05872263150387
 30
0.0
 40
0.05
100
AcDbArc
 50
96.62990127799989
 51
180.0
  0
ARC
  5
F4E
330
1E
100
AcDbEntity
  8
0
100
AcDbCircle
 10
1.123285900028968
 20
26.09224628694166
 30
0.0
 40
0.05
100
AcDbArc
 50
276.6299012779999
 51
0.0
  0
LINE
  5
F4F
330
1E
100
AcDbEntity
  8
0
100
AcDbLine
 10
0.2197723852117193
 20
25.9833882638747
 30
0.0
 11
1.129058677627782
 21
26.04258065457083
 31
0.0
  0
ARC
  5
F50
330
1E
100
AcDbEntity
  8
0
100
AcDbCircle
 10
0.2255451628105334
 20
25.93372263150387
 30
0.0
 40
0.05
100
AcDbArc
 50
96.62990127799989
 51
180.0
  0
ARC
  5
F51
330
1E
100
AcDbEntity
  8
0
100
AcDbCircle
 10
1.123285900028961
 20
25.96724628694166
 30
0.0
 40
0.05
100
AcDbArc
 50
276.6299012779999
 51
0.0
  0
LINE
  5
F52
330
1E
100
AcDbEntity
  8
0
100
AcDbLine
 10
0.2197723852117122
 20
25.8583882638747
 30
0.0
 11
1.129058677627775
 21
25.91758065457083
 31
0.0
  0
ARC
  5
F53
330
1E
100
AcDbEntity
  8
0
100
AcDbCircle
 10
0.2255451628105263
 20
25.80872263150387
 30
0.0
 40
0.05
100
AcDbArc
 50
96.62990127799989
 51
180.0
  0
ARC
  5
F54
330
1E
100
AcDbEntity
  8
0
100
AcDbCircle
 10
1.123285900028961
 20
25.84224628694166
 30
0.0
 40
0.05
100
AcDbArc
 50
276.6299012779999
 51
0.0
  0
LINE
  5
F55
330
1E
100
AcDbEntity
  8
0
100
AcDbLine
 10
0.2197723852117122
 20
25.7333882638747
 30
0.0
 11
1.129058677627775
 21
25.79258065457083
 31
0.0
  0
ARC
  5
F56
330
1E
100
AcDbEntity
  8
0
100
AcDbCircle
 10
0.2255451628105263
 20
25.68372263150387
 30
0.0
 40
0.05
100
AcDbArc
 50
96.62990127799989
 51
180.0
  0
ARC
  5
F57
330
1E
100
AcDbEntity
  8
0
100
AcDbCircle
 10
1.123285900028954
 20
25.71724628694166
 30
0.0
 40
0.05
100
AcDbArc
 50
276.6299012779999
 51
0.0
  0
LINE
  5
F58
330
1E
100
AcDbEntity
  8
0
100
AcDbLine
 10
0.2197723852117051
 20
25.6083882638747
 30
0.0
 11
1.129058677627768
 21
25.66758065457083
 31
0.0
  0
ARC
  5
F59
330
1E
100
AcDbEntity
  8
0
100
AcDbCircle
 10
0.2255451628105192
 20
25.55872263150387
 30
0.0
 40
0.05
100
AcDbArc
 50
96.62990127799989
 51
180.0
  0
LINE
  5
175E
330
1E
100
AcDbEntity
  8
0
100
AcDbLine
 10
4.315124521474651
 20
0.7945249781796449
 30
0.0
 11
3.119353640379629
 21
0.2869503531980335
 31
0.0
  0
LINE
  5
175F
330
1E
100
AcDbEntity
  8
0
100
AcDbLine
 10
3.965654600153847
 20
1.617824519107508
 30
0.0
 11
2.769883719058825
 21
1.1102498941259
 31
0.0
  0
LINE
  5
1760
330
1E
100
AcDbEntity
  8
0
100
AcDbLine
 10
4.096292818201022
 20
0.7559544500220028
 30
0.0
 11
3.785896009729143
 21
1.487203505604622
 31
0.0
  0
LINE
  5
1761
330
1E
100
AcDbEntity
  8
0
100
AcDbLine
 10
4.494883111899355
 20
0.925145991682534
 30
0.0
 11
4.184486303427477
 21
1.656395047265153
 31
0.0
  0
LINE
  5
1762
330
1E
100
AcDbEntity
  8
0
100
AcDbLine
 10
3.299112230804333
 20
0.4175713667009262
 30
0.0
 11
2.988715422332454
 21
1.148820422283546
 31
0.0
  0
LINE
  5
1763
330
1E
100
AcDbEntity
  8
0
100
AcDbLine
 10
2.900521937105999
 20
0.2483798250403915
 30
0.0
 11
2.590125128634121
 21
0.9796288806230109
 31
0.0
  0
ARC
  5
1764
330
1E
100
AcDbEntity
  8
0
100
AcDbCircle
 10
4.122201026783081
 20
1.249024249571786
 30
0.0
 40
0.4937499999999985
100
AcDbArc
 50
266.9921761143618
 51
319.0078238856381
  0
ARC
  5
1765
330
1E
100
AcDbEntity
  8
0
100
AcDbCircle
 10
2.974849936797526
 20
2.289696887248478
 30
0.0
 40
1.900000000000003
100
AcDbArc
 50
279.8264488927413
 51
306.1735511072587
  0
ARC
  5
1766
330
1E
100
AcDbEntity
  8
0
100
AcDbCircle
 10
2.926430145688052
 20
0.7414496245901781
 30
0.0
 40
0.4937499999999985
100
AcDbArc
 50
266.9921761143618
 51
319.0078238856381
  0
ARC
  5
1767
330
1E
100
AcDbEntity
  8
0
100
AcDbCircle
 10
4.158578094845431
 20
1.163325247715369
 30
0.0
 40
0.4937499999999985
100
AcDbArc
 50
86.99217611436986
 51
139.0078238856301
  0
ARC
  5
1768
330
1E
100
AcDbEntity
  8
0
100
AcDbCircle
 10
4.110158303735958
 20
-0.3849220149429335
 30
0.0
 40
1.900000000000003
100
AcDbArc
 50
99.82644889274131
 51
126.1735511072587
  0
ARC
  5
1769
330
1E
100
AcDbEntity
  8
0
100
AcDbCircle
 10
2.962807213750402
 20
0.6557506227337608
 30
0.0
 40
0.4937499999999985
100
AcDbArc
 50
86.99217611436986
 51
139.0078238856301
  0
LINE
  5
176A
330
1E
100
AcDbEntity
  8
0
100
AcDbLine
 10
2.070613919607304
 20
1.220812616049777
 30
0.0
 11
4.37187605323841
 21
2.197640437272963
 31
0.0
  0
LINE
  5
176B
330
1E
100
AcDbEntity
  8
0
100
AcDbLine
 10
2.217138092790783
 20
0.8756232960051094
 30
0.0
 11
4.518400226421889
 21
1.852451117228299
 31
0.0
  0
LINE
  5
176C
330
1E
100
AcDbEntity
  8
0
100
AcDbLine
 10
2.070613919607304
 20
1.220812616049777
 30
0.0
 11
2.217138092790783
 21
0.8756232960051094
 31
0.0
  0
LINE
  5
176D
330
1E
100
AcDbEntity
  8
0
100
AcDbLine
 10
4.37187605323841
 20
2.197640437272963
 30
0.0
 11
4.518400226421889
 21
1.852451117228299
 31
0.0
  0
LINE
  5
176E
330
1E
100
AcDbEntity
  8
0
100
AcDbLine
 10
3.819130426970368
 20
1.963013839152175
 30
0.0
 11
2.623359545875346
 21
1.455439214170564
 31
0.0
  0
LINE
  5
176F
330
1E
100
AcDbEntity
  8
0
100
AcDbLine
 10
3.469660505649564
 20
2.786313380080038
 30
0.0
 11
2.273889624554542
 21
2.278738755098427
 31
0.0
  0
ARC
  5
1770
330
1E
100
AcDbEntity
  8
0
100
AcDbCircle
 10
2.430436051183705
 20
1.90993848556271
 30
0.0
 40
0.4937499999999985
100
AcDbArc
 50
266.9921761143618
 51
319.0078238856381
  0
ARC
  5
1771
330
1E
100
AcDbEntity
  8
0
100
AcDbCircle
 10
2.466813119246119
 20
1.82423948370629
 30
0.0
 40
0.4937499999999985
100
AcDbArc
 50
86.99217611436986
 51
139.0078238856301
  0
LINE
  5
1772
330
1E
100
AcDbEntity
  8
0
100
AcDbLine
 10
2.404527842601716
 20
1.416868686012922
 30
0.0
 11
2.094131034129838
 21
2.148117741595542
 31
0.0
  0
LINE
  5
1773
330
1E
100
AcDbEntity
  8
0
100
AcDbLine
 10
3.600298723696739
 20
1.924443310994533
 30
0.0
 11
3.28990191522486
 21
2.655692366577153
 31
0.0
  0
LINE
  5
1774
330
1E
100
AcDbEntity
  8
0
100
AcDbLine
 10
3.998889017395072
 20
2.093634852655065
 30
0.0
 11
3.688492208923194
 21
2.824883908237684
 31
0.0
  0
LINE
  5
1775
330
1E
100
AcDbEntity
  8
0
100
AcDbLine
 10
2.80311813630005
 20
1.586060227673457
 30
0.0
 11
2.492721327828171
 21
2.317309283256076
 31
0.0
  0
ARC
  5
1776
330
1E
100
AcDbEntity
  8
0
100
AcDbCircle
 10
2.478855842293243
 20
3.458185748221007
 30
0.0
 40
1.900000000000003
100
AcDbArc
 50
279.8264488927413
 51
306.1735511072587
  0
ARC
  5
1777
330
1E
100
AcDbEntity
  8
0
100
AcDbCircle
 10
3.626206932278798
 20
2.417513110544316
 30
0.0
 40
0.4937499999999985
100
AcDbArc
 50
266.9921761143618
 51
319.0078238856381
  0
ARC
  5
1778
330
1E
100
AcDbEntity
  8
0
100
AcDbCircle
 10
3.614164209231674
 20
0.7835668460295935
 30
0.0
 40
1.900000000000003
100
AcDbArc
 50
99.82644889274131
 51
126.1735511072587
  0
ARC
  5
1779
330
1E
100
AcDbEntity
  8
0
100
AcDbCircle
 10
3.662584000341148
 20
2.331814108687897
 30
0.0
 40
0.4937499999999985
100
AcDbArc
 50
86.99217611436986
 51
139.0078238856301
  0
ARC
  5
177E
330
1E
100
AcDbEntity
  8
0
100
AcDbCircle
 10
2.974849936797526
 20
2.289696887248478
 30
0.0
 40
1.900000000000003
100
AcDbArc
 50
279.8264488927413
 51
306.1735511072586
  0
LINE
  5
177F
330
1E
100
AcDbEntity
  8
0
100
AcDbLine
 10
4.315124521474651
 20
0.7945249781796449
 30
0.0
 11
3.119353640379629
 21
0.2869503531980335
 31
0.0
  0
LINE
  5
1780
330
1E
100
AcDbEntity
  8
0
100
AcDbLine
 10
3.256986654200922
 20
0.3453721014442017
 30
0.0
 11
3.354669436323242
 21
0.1152458880810912
 31
0.0
  0
LINE
  5
1781
330
1E
100
AcDbEntity
  8
0
100
AcDbLine
 10
4.177491507653357
 20
0.7361032299334767
 30
0.0
 11
4.275174289775677
 21
0.5059770165703661
 31
0.0
  0
LINE
  5
1782
330
1E
100
AcDbEntity
  8
0
100
AcDbLine
 10
3.354669436323242
 20
0.1152458880810912
 30
0.0
 11
4.275174289775677
 21
0.5059770165703661
 31
0.0
  0
LINE
  5
17DA
330
1E
100
AcDbEntity
  8
0
100
AcDbLine
 10
0.677789855989559
 20
32.88514629552863
 30
0.0
 11
2.871761151067176
 21
32.88515857960387
 31
0.0
  0
LINE
  5
17DB
330
1E
100
AcDbEntity
  8
0
100
AcDbLine
 10
0.6777898559895519
 20
31.88514918732976
 30
0.0
 11
2.87176391927219
 21
31.88516272091115
 31
0.0
  0
LINE
  5
1814
330
1E
100
AcDbEntity
  8
0
100
AcDbLine
 10
3.688478294888334
 20
31.95214750767129
 30
0.0
 11
3.289888001189979
 21
31.51913480577906
 31
0.0
  0
LINE
  5
1815
330
1E
100
AcDbEntity
  8
0
100
AcDbLine
 10
3.688478294888341
 20
31.95214750767129
 30
0.0
 11
3.688478294888341
 21
32.81817291145572
 31
0.0
  0
LINE
  5
1819
330
1E
100
AcDbEntity
  8
0
100
AcDbLine
 10
3.688478294888334
 20
32.81817291145572
 30
0.0
 11
3.289888001189979
 21
33.25118561334794
 31
0.0
  0
LINE
  5
181C
330
1E
100
AcDbEntity
  8
0
100
AcDbLine
 10
3.998875103360149
 20
31.95214750767129
 30
0.0
 11
3.600284809661794
 21
31.51913480577906
 31
0.0
  0
LINE
  5
181D
330
1E
100
AcDbEntity
  8
0
100
AcDbLine
 10
3.998875103360156
 20
31.95214750767129
 30
0.0
 11
3.998875103360156
 21
32.81817291145572
 31
0.0
  0
LINE
  5
181E
330
1E
100
AcDbEntity
  8
0
100
AcDbLine
 10
3.998875103360149
 20
32.81817291145572
 30
0.0
 11
3.600284809661794
 21
33.25118561334794
 31
0.0
  0
LINE
  5
1820
330
1E
100
AcDbEntity
  8
0
100
AcDbLine
 10
3.688478294888334
 20
32.81817291145572
 30
0.0
 11
3.998875103360149
 21
32.81817291145572
 31
0.0
  0
LINE
  5
1821
330
1E
100
AcDbEntity
  8
0
100
AcDbLine
 10
3.688478294888334
 20
31.95214750767129
 30
0.0
 11
3.998875103360149
 21
31.95214750767129
 31
0.0
  0
LINE
  5
1827
330
1E
100
AcDbEntity
  8
0
100
AcDbLine
 10
4.371862139203515
 20
33.63516070938115
 30
0.0
 11
4.371862139203515
 21
31.13516070938115
 31
0.0
  0
ELLIPSE
  5
1829
330
1E
100
AcDbEntity
  8
0
100
AcDbEllipse
 10
2.871761151067176
 20
32.38516065024898
 30
0.0
 11
0.0
 21
0.4999979293548904
 31
0.0
210
0.0
220
0.0
230
1.0
 40
0.9473804039203563
 41
3.141592653589793
 42
6.283185307179586
  0
LINE
  5
183E
330
1E
100
AcDbEntity
  8
0
100
AcDbLine
 10
2.455777162896709
 20
31.88515780453581
 30
0.0
 11
2.792703569812105
 21
31.51913430596142
 31
0.0
  0
LINE
  5
183F
330
1E
100
AcDbEntity
  8
0
100
AcDbLine
 10
2.792703569812105
 20
31.51913430596142
 30
0.0
 11
3.600284809661794
 21
31.51913480577906
 31
0.0
  0
LINE
  5
1842
330
1E
100
AcDbEntity
  8
0
100
AcDbLine
 10
2.45577021861623
 20
32.88515407096472
 30
0.0
 11
2.792703569812105
 21
33.2511851135303
 31
0.0
  0
LINE
  5
1843
330
1E
100
AcDbEntity
  8
0
100
AcDbLine
 10
2.792703569812105
 20
33.2511851135303
 30
0.0
 11
3.600284809661794
 21
33.25118561334794
 31
0.0
  0
LINE
  5
1852
330
1E
100
AcDbEntity
  8
0
100
AcDbLine
 10
2.370596161591223
 20
31.88515727909478
 30
0.0
 11
2.370596161591223
 21
31.13515970974586
 31
0.0
  0
LINE
  5
1853
330
1E
100
AcDbEntity
  8
0
100
AcDbLine
 10
2.370596161591223
 20
31.13515970974586
 30
0.0
 11
4.518386312387001
 21
31.13515970974586
 31
0.0
  0
LINE
  5
1854
330
1E
100
AcDbEntity
  8
0
100
AcDbLine
 10
4.518386312387001
 20
31.13515970974586
 30
0.0
 11
4.518386312387001
 21
33.63515970974586
 31
0.0
  0
LINE
  5
1855
330
1E
100
AcDbEntity
  8
0
100
AcDbLine
 10
4.518386312387001
 20
33.63515970974586
 30
0.0
 11
2.370596161591223
 21
33.63515970974586
 31
0.0
  0
LINE
  5
1856
330
1E
100
AcDbEntity
  8
0
100
AcDbLine
 10
2.370596161591223
 20
33.63515970974586
 30
0.0
 11
2.370596161591223
 21
32.88515359407403
 31
0.0
  0
ELLIPSE
  5
1867
330
1E
100
AcDbEntity
  8
0
100
AcDbEllipse
 10
3.041295785501042
 20
32.38515983470027
 30
0.0
 11
0.0
 21
0.8660252788300262
 31
0.0
210
0.0
220
0.0
230
1.0
 40
0.7473020998437041
 41
2.186275186594725
 42
7.238506440005137
  0
ARC
  5
1C9A
330
1E
100
AcDbEntity
  8
0
100
AcDbCircle
 10
2.4361977678776
 20
2.348326503528787
 30
0.0
 40
0.05702375
100
AcDbArc
 50
120.2699696185624
 51
203.6400683405626
  0
ARC
  5
1C9B
330
1E
100
AcDbEntity
  8
0
100
AcDbCircle
 10
3.22509707865726
 20
2.910379208747687
 30
0.0
 40
0.05702375
100
AcDbArc
 50
300.2699696185624
 51
23.64006834056259
  0
LINE
  5
1C9C
330
1E
100
AcDbEntity
  8
0
100
AcDbLine
 10
2.407453519735643
 20
2.3975756280166
 30
0.0
 11
3.253841326799217
 21
2.861130084259873
 31
0.0
  0
ARC
  5
1C9F
330
1E
100
AcDbEntity
  8
0
100
AcDbCircle
 10
3.360715046748933
 20
0.2537603877362162
 30
0.0
 40
0.05702375
100
AcDbArc
 50
117.9431084069631
 51
201.3132071289633
  0
ARC
  5
1CA0
330
1E
100
AcDbEntity
  8
0
100
AcDbCircle
 10
4.116951654288823
 20
0.7428704069992431
 30
0.0
 40
0.05702375
100
AcDbArc
 50
297.9431084069631
 51
21.31320712896333
  0
LINE
  5
1CA1
330
1E
100
AcDbEntity
  8
0
100
AcDbLine
 10
3.332793819883651
 20
0.3036676688372406
 30
0.0
 11
4.145132791850838
 21
0.6930645298691704
 31
0.0
  0
ARC
  5
1CA2
330
1E
100
AcDbEntity
  8
0
100
AcDbCircle
 10
3.405378108602687
 20
0.1392835342540071
 30
0.0
 40
0.05702375
100
AcDbArc
 50
117.9431084069631
 51
201.3132071289633
  0
ARC
  5
1CA3
330
1E
100
AcDbEntity
  8
0
100
AcDbCircle
 10
4.161614716142584
 20
0.6283935535170375
 30
0.0
 40
0.05702375
100
AcDbArc
 50
297.9431084069631
 51
21.31320712896333
  0
LINE
  5
1CA4
330
1E
100
AcDbEntity
  8
0
100
AcDbLine
 10
3.377456881737405
 20
0.1891908153550315
 30
0.0
 11
4.189795853704592
 21
0.5785876763869577
 31
0.0
  0
ARC
  5
1CA5
330
1E
100
AcDbEntity
  8
0
100
AcDbCircle
 10
3.262625335605296
 20
2.791406859042882
 30
0.0
 40
0.05702375
100
AcDbArc
 50
300.2699696185624
 51
23.64006834056259
  0
LINE
  5
1CA6
330
1E
100
AcDbEntity
  8
0
100
AcDbLine
 10
3.044587139924744
 20
2.60527652826687
 30
0.0
 11
3.291369583747251
 21
2.742157734555073
 31
0.0
  0
CIRCLE
  5
1CB5
330
1E
100
AcDbEntity
  8
0
100
AcDbCircle
 10
3.566726745429637
 20
0.9725218179052195
 30
0.0
 40
0.210987875
  0
ARC
  5
1CB8
330
1E
100
AcDbEntity
  8
0
100
AcDbCircle
 10
2.398669510929564
 20
2.467298853233592
 30
0.0
 40
0.05702375
100
AcDbArc
 50
120.2699696185624
 51
203.6400683405626
  0
ARC
  5
1CB9
330
1E
100
AcDbEntity
  8
0
100
AcDbCircle
 10
3.187568821709224
 20
3.029351558452492
 30
0.0
 40
0.05702375
100
AcDbArc
 50
300.2699696185624
 51
23.64006834056259
  0
LINE
  5
1CBA
330
1E
100
AcDbEntity
  8
0
100
AcDbLine
 10
2.369925262787607
 20
2.516547977721405
 30
0.0
 11
3.21631306985118
 21
2.980102433964678
 31
0.0
  0
ARC
  5
1CBB
330
1E
100
AcDbEntity
  8
0
100
AcDbCircle
 10
2.358470183456827
 20
2.583558807047819
 30
0.0
 40
0.05702375
100
AcDbArc
 50
120.2699696185624
 51
203.6400683405626
  0
ARC
  5
1CBC
330
1E
100
AcDbEntity
  8
0
100
AcDbCircle
 10
3.147369494236488
 20
3.145611512266719
 30
0.0
 40
0.05702375
100
AcDbArc
 50
300.2699696185624
 51
23.64006834056259
  0
LINE
  5
1CBD
330
1E
100
AcDbEntity
  8
0
100
AcDbLine
 10
2.329725935314871
 20
2.632807931535632
 30
0.0
 11
3.176113742378444
 21
3.096362387778905
 31
0.0
  0
ENDSEC
  0
SECTION
  2
OBJECTS
  0
DICTIONARY
  5
C
330
0
100
AcDbDictionary
281
     1
  3
ACAD_COLOR
350
B4F
  3
ACAD_GROUP
350
D
  3
ACAD_LAYOUT
350
19
  3
ACAD_MATERIAL
350
B4E
  3
ACAD_MLINESTYLE
350
16
  3
ACAD_PLOTSETTINGS
350
18
  3
ACAD_PLOTSTYLENAME
350
E
  3
ACAD_TABLESTYLE
350
B50
  3
AcDbVariableDictionary
350
BE2
  0
DICTIONARY
  5
C09
330
2
100
AcDbDictionary
280
     1
281
     1
  3
ACAD_LAYERFILTERS
360
1F82
  3
ACAD_LAYERSTATES
360
C0A
  3
ACLYDICTIONARY
360
1F81
  0
DICTIONARY
  5
82F
330
1E
100
AcDbDictionary
280
     1
281
     1
  3
ACAD_SORTENTS
360
14CC
  0
DICTIONARY
  5
B4F
102
{ACAD_REACTORS
330
C
102
}
330
C
100
AcDbDictionary
281
     1
  0
DICTIONARY
  5
D
102
{ACAD_REACTORS
330
C
102
}
330
C
100
AcDbDictionary
281
     1
  0
DICTIONARY
  5
19
102
{ACAD_REACTORS
330
C
102
}
330
C
100
AcDbDictionary
281
     1
  3
Layout1
350
1D
  3
Model
350
21
  0
DICTIONARY
  5
B4E
102
{ACAD_REACTORS
330
C
102
}
330
C
100
AcDbDictionary
281
     1
  0
DICTIONARY
  5
16
102
{ACAD_REACTORS
330
C
102
}
330
C
100
AcDbDictionary
281
     1
  3
Standard
350
17
  0
DICTIONARY
  5
18
102
{ACAD_REACTORS
330
C
102
}
330
C
100
AcDbDictionary
281
     1
  0
ACDBDICTIONARYWDFLT
  5
E
102
{ACAD_REACTORS
330
C
102
}
330
C
100
AcDbDictionary
281
     1
  3
Normal
350
F
100
AcDbDictionaryWithDefault
340
F
  0
DICTIONARY
  5
B50
102
{ACAD_REACTORS
330
C
102
}
330
C
100
AcDbDictionary
281
     1
  3
Standard
350
B51
  0
DICTIONARY
  5
BE2
102
{ACAD_REACTORS
330
C
102
}
330
C
100
AcDbDictionary
281
     1
  3
CTABLESTYLE
350
BE3
  3
DIMASSOC
350
18B8
  0
DICTIONARY
  5
1F82
102
{ACAD_REACTORS
330
C09
102
}
330
C09
100
AcDbDictionary
281
     1
  0
DICTIONARY
  5
C0A
102
{ACAD_REACTORS
330
C09
102
}
330
C09
100
AcDbDictionary
281
     1
  0
DICTIONARY
  5
1F81
102
{ACAD_REACTORS
330
C09
102
}
330
C09
100
AcDbDictionary
281
     1
1001
ACAD
1000
<All
  0
SORTENTSTABLE
  5
14CC
102
{ACAD_REACTORS
330
82F
102
}
330
82F
100
AcDbSortentsTable
330
1E
331
0
  5
8BD
331
470
  5
470
331
473
  5
473
331
474
  5
474
331
8A9
  5
8A9
331
8AA
  5
8AA
331
8AB
  5
8AB
331
8AC
  5
8AC
331
8AD
  5
8AD
331
8AE
  5
8AE
331
8AF
  5
8AF
331
8B0
  5
8B0
331
8B1
  5
8B1
331
8B2
  5
8B2
331
8B3
  5
8B3
331
8B5
  5
8B5
331
8B6
  5
8B6
331
B91
  5
B91
331
D22
  5
D22
331
D5F
  5
D5F
331
D96
  5
D96
331
D97
  5
D97
331
D98
  5
D98
331
DD7
  5
DD7
331
DD8
  5
DD8
331
DD9
  5
DD9
331
DDA
  5
DDA
331
DDB
  5
DDB
331
DDC
  5
DDC
331
DDD
  5
DDD
331
DDE
  5
DDE
331
E2A
  5
E2A
331
EA0
  5
EA0
331
EA1
  5
EA1
331
EA2
  5
EA2
331
EA9
  5
EA9
331
EB2
  5
EB2
331
EB3
  5
EB3
331
EB4
  5
EB4
331
EB7
  5
EB7
331
EB8
  5
EB8
331
EB9
  5
EB9
331
EBA
  5
EBA
331
EBB
  5
EBB
331
EBC
  5
EBC
331
EBD
  5
EBD
331
EBE
  5
EBE
331
EBF
  5
EBF
331
EC0
  5
EC0
331
EC1
  5
EC1
331
EC2
  5
EC2
331
EC3
  5
EC3
331
EC4
  5
EC4
331
EC5
  5
EC5
331
EC6
  5
EC6
331
EC7
  5
EC7
331
EC8
  5
EC8
331
ECA
  5
ECA
331
ECB
  5
ECB
331
ECC
  5
ECC
331
ECD
  5
ECD
331
ECE
  5
ECE
331
ECF
  5
ECF
331
ED0
  5
ED0
331
ED1
  5
ED1
331
ED2
  5
ED2
331
ED3
  5
ED3
331
ED4
  5
ED4
331
ED5
  5
ED5
331
ED6
  5
ED6
331
ED7
  5
ED7
331
ED8
  5
ED8
331
ED9
  5
ED9
331
EDA
  5
EDA
331
EDB
  5
EDB
331
EDC
  5
EDC
331
EDD
  5
EDD
331
EDE
  5
EDE
331
EDF
  5
EDF
331
EE0
  5
EE0
331
EE1
  5
EE1
331
EE2
  5
EE2
331
EE3
  5
EE3
331
EE4
  5
EE4
331
EE5
  5
EE5
331
EE6
  5
EE6
331
EE7
  5
EE7
331
EE8
  5
EE8
331
EE9
  5
EE9
331
EEA
  5
EEA
331
EEB
  5
EEB
331
EEC
  5
EEC
331
EED
  5
EED
331
EEE
  5
EEE
331
EEF
  5
EEF
331
EF0
  5
EF0
331
EF1
  5
EF1
331
EF2
  5
EF2
331
EF3
  5
EF3
331
EF4
  5
EF4
331
EF5
  5
EF5
331
EF6
  5
EF6
331
F33
  5
F33
331
F34
  5
F34
331
F35
  5
F35
331
F36
  5
F36
331
F37
  5
F37
331
F38
  5
F38
331
F39
  5
F39
331
F3A
  5
F3A
331
F3B
  5
F3B
331
F3C
  5
F3C
331
F3D
  5
F3D
331
F3E
  5
F3E
331
F3F
  5
F3F
331
F40
  5
F40
331
F41
  5
F41
331
F42
  5
F42
331
F43
  5
F43
331
F44
  5
F44
331
F45
  5
F45
331
F46
  5
F46
331
F47
  5
F47
331
F48
  5
F48
331
F49
  5
F49
331
F4A
  5
F4A
331
F4B
  5
F4B
331
F4C
  5
F4C
331
F4D
  5
F4D
331
F4E
  5
F4E
331
F4F
  5
F4F
331
F50
  5
F50
331
F51
  5
F51
331
F52
  5
F52
331
F53
  5
F53
331
F54
  5
F54
331
F55
  5
F55
331
F56
  5
F56
331
F57
  5
F57
331
F58
  5
F58
331
F59
  5
F59
331
175E
  5
175E
331
175F
  5
175F
331
1760
  5
1760
331
1761
  5
1761
331
1762
  5
1762
331
1763
  5
1763
331
1764
  5
1764
331
1765
  5
1765
331
1766
  5
1766
331
1767
  5
1767
331
1768
  5
1768
331
1769
  5
1769
331
176A
  5
176A
331
176B
  5
176B
331
176C
  5
176C
331
176D
  5
176D
331
176E
  5
176E
331
176F
  5
176F
331
1770
  5
1770
331
1771
  5
1771
331
1772
  5
1772
331
1773
  5
1773
331
1774
  5
1774
331
1775
  5
1775
331
1776
  5
1776
331
1777
  5
1777
331
1778
  5
1778
331
1779
  5
1779
331
177E
  5
177E
331
177F
  5
177F
331
1780
  5
1780
331
1781
  5
1781
331
1782
  5
1782
331
17DA
  5
17DA
331
17DB
  5
17DB
331
1814
  5
1814
331
1815
  5
1815
331
1819
  5
1819
331
181C
  5
181C
331
181D
  5
181D
331
181E
  5
181E
331
1820
  5
1820
331
1821
  5
1821
331
1827
  5
1827
331
1829
  5
1829
331
183E
  5
183E
331
183F
  5
183F
331
1842
  5
1842
331
1843
  5
1843
331
1852
  5
184B
331
1853
  5
184C
331
1854
  5
184D
331
1855
  5
184E
331
1856
  5
184F
331
1867
  5
1867
  0
LAYOUT
  5
1D
102
{ACAD_REACTORS
330
19
102
}
330
19
100
AcDbPlotSettings
  1

  2
C:\ACAD2000\plotters\HP LaserJet 2100 Series PS.pc3
  4

  6

 40
0.0
 41
0.0
 42
0.0
 43
0.0
 44
0.0
 45
0.0
 46
0.0
 47
0.0
 48
0.0
 49
0.0
140
0.0
141
0.0
142
1.0
143
1.0
 70
   688
 72
     0
 73
     0
 74
     5
  7
monochrome.ctb
 75
    16
 76
     0
 77
     2
 78
   300
147
1.0
148
0.0
149
0.0
100
AcDbLayout
  1
Layout1
 70
     0
 71
     1
 10
0.0
 20
0.0
 11
12.0
 21
9.0
 12
0.0
 22
0.0
 32
0.0
 14
1.000000000000000E+20
 24
1.000000000000000E+20
 34
1.000000000000000E+20
 15
-1.000000000000000E+20
 25
-1.000000000000000E+20
 35
-1.000000000000000E+20
146
0.0
 13
0.0
 23
0.0
 33
0.0
 16
1.0
 26
0.0
 36
0.0
 17
0.0
 27
1.0
 37
0.0
 76
     0
330
1A
  0
LAYOUT
  5
21
102
{ACAD_REACTORS
330
19
102
}
330
19
100
AcDbPlotSettings
  1

  2
HP LaserJet 2100 Series PS
  4
Letter
  6

 40
5.365749835968018
 41
5.408073902130127
 42
5.132904052734375
 43
5.090576171875
 44
215.8999938964844
 45
279.3999938964844
 46
0.0
 47
0.0
 48
0.0
 49
0.0
140
0.0
141
0.0
142
1.0
143
3.96767797799008
 70
 28336
 72
     0
 73
     0
 74
     1
  7
monochrome.ctb
 75
     0
 76
     0
 77
     2
 78
   300
147
0.2520365829957232
148
0.0118031880652808
149
0.0773038459278524
100
AcDbLayout
  1
Model
 70
     1
 71
     0
 10
0.0
 20
0.0
 11
12.0
 21
9.0
 12
0.0
 22
0.0
 32
0.0
 14
0.0
 24
0.0
 34
0.0
 15
0.0
 25
0.0
 35
0.0
146
0.0
 13
0.0
 23
0.0
 33
0.0
 16
1.0
 26
0.0
 36
0.0
 17
0.0
 27
1.0
 37
0.0
 76
     0
330
1E
1001
ACAD_PSEXT
1000
HP LaserJet 2100 Series PS
1000
HP LaserJet 2100 Series PS
1000
LPT1:
1000

1070
     0
  0
MLINESTYLE
  5
17
102
{ACAD_REACTORS
330
16
102
}
330
16
100
AcDbMlineStyle
  2
STANDARD
 70
     0
  3

 62
   256
 51
90.0
 52
90.0
 71
     2
 49
0.5
 62
   256
  6
BYLAYER
 49
-0.5
 62
   256
  6
BYLAYER
  0
ACDBPLACEHOLDER
  5
F
102
{ACAD_REACTORS
330
E
102
}
330
E
  0
ACAD_PROXY_OBJECT
  5
B51
102
{ACAD_REACTORS
330
B50
102
}
330
B50
100
AcDbProxyObject
 90
      499
 91
      519
 95
   983063
 70
     0
 93
     1841
310
4214DD185B99185C9928B81E85EB51B8AE3F2E07A17AD46E2B8FC02B5E8DC0F42B1CFD028000000C1008070000C3001FDFF8000000C1003FBFF000000182007F7FE00000030400FEFFC00000060801FDFF8000000C1003FBFF00000018200000000000000681FA0B0000001820100E000186003FBFF000000182007F7FE000
310
00030400FEFFC00000060801FDFF8000000C1003FBFF000000182007F7FE000000304000AD7A3703D0AC73F4160000003040201C00030C007F7FE00000030400FEFFC00000060801FDFF8000000C1003FBFF000000182007F7FE00000030400FEFFC000000608000
340
11
340
11
340
11
 94
        0
  0
DICTIONARYVAR
  5
BE3
102
{ACAD_REACTORS
330
BE2
102
}
330
BE2
100
DictionaryVariables
280
     0
  1
STANDARD
  0
DICTIONARYVAR
  5
18B8
102
{ACAD_REACTORS
330
BE2
102
}
330
BE2
100
DictionaryVariables
280
     0
  1
0
  0
ENDSEC
  0
EOF
