  0
SECTION
  2
HEADER
  9
$ACADVER
  1
AC1018
  9
$ACADMAINTVER
 70
     6
  9
$DWGCODEPAGE
  3
ANSI_1252
  9
$INSBASE
 10
0.0
 20
0.0
 30
0.0
  9
$EXTMIN
 10
-0.9154525105065474
 20
0.0350908856484438
 30
-0.0000000000000053
  9
$EXTMAX
 10
2.65666398575479
 20
27.68429472052844
 30
0.0000000000000099
  9
$LIMMIN
 10
0.0
 20
0.0
  9
$LIMMAX
 10
24.0
 20
31.5
  9
$ORTHOMODE
 70
     1
  9
$REGENMODE
 70
     1
  9
$FILLMODE
 70
     1
  9
$QTEXTMODE
 70
     0
  9
$MIRRTEXT
 70
     0
  9
$LTSCALE
 40
0.5
  9
$ATTMODE
 70
     1
  9
$TEXTSIZE
 40
0.27
  9
$TRACEWID
 40
0.05
  9
$TEXTSTYLE
  7
STANDARD
  9
$CLAYER
  8
0
  9
$CELTYPE
  6
ByLayer
  9
$CECOLOR
 62
   256
  9
$CELTSCALE
 40
1.0
  9
$DISPSILH
 70
     0
  9
$DIMSCALE
 40
3.0
  9
$DIMASZ
 40
0.125
  9
$DIMEXO
 40
0.062
  9
$DIMDLI
 40
0.375
  9
$DIMRND
 40
0.0
  9
$DIMDLE
 40
0.0
  9
$DIMEXE
 40
0.08
  9
$DIMTP
 40
0.0
  9
$DIMTM
 40
0.0
  9
$DIMTXT
 40
0.09
  9
$DIMCEN
 40
-0.06
  9
$DIMTSZ
 40
0.0
  9
$DIMTOL
 70
     0
  9
$DIMLIM
 70
     0
  9
$DIMTIH
 70
     1
  9
$DIMTOH
 70
     1
  9
$DIMSE1
 70
     0
  9
$DIMSE2
 70
     0
  9
$DIMTAD
 70
     0
  9
$DIMZIN
 70
     0
  9
$DIMBLK
  1

  9
$DIMASO
 70
     0
  9
$DIMSHO
 70
     0
  9
$DIMPOST
  1

  9
$DIMAPOST
  1

  9
$DIMALT
 70
     0
  9
$DIMALTD
 70
     2
  9
$DIMALTF
 40
25.4
  9
$DIMLFAC
 40
1.0
  9
$DIMTOFL
 70
     0
  9
$DIMTVP
 40
0.0
  9
$DIMTIX
 70
     0
  9
$DIMSOXD
 70
     0
  9
$DIMSAH
 70
     0
  9
$DIMBLK1
  1

  9
$DIMBLK2
  1

  9
$DIMSTYLE
  2
Standard
  9
$DIMCLRD
 70
     0
  9
$DIMCLRE
 70
     0
  9
$DIMCLRT
 70
     0
  9
$DIMTFAC
 40
1.0
  9
$DIMGAP
 40
0.09
  9
$DIMJUST
 70
     0
  9
$DIMSD1
 70
     0
  9
$DIMSD2
 70
     0
  9
$DIMTOLJ
 70
     1
  9
$DIMTZIN
 70
     0
  9
$DIMALTZ
 70
     0
  9
$DIMALTTZ
 70
     0
  9
$DIMUPT
 70
     0
  9
$DIMDEC
 70
     5
  9
$DIMTDEC
 70
     5
  9
$DIMALTU
 70
     5
  9
$DIMALTTD
 70
     2
  9
$DIMTXSTY
  7
STANDARD
  9
$DIMAUNIT
 70
     0
  9
$DIMADEC
 70
     0
  9
$DIMALTRND
 40
0.0
  9
$DIMAZIN
 70
     0
  9
$DIMDSEP
 70
    46
  9
$DIMATFIT
 70
     3
  9
$DIMFRAC
 70
     2
  9
$DIMLDRBLK
  1

  9
$DIMLUNIT
 70
     5
  9
$DIMLWD
 70
    -2
  9
$DIMLWE
 70
    -2
  9
$DIMTMOVE
 70
     2
  9
$LUNITS
 70
     5
  9
$LUPREC
 70
     4
  9
$SKETCHINC
 40
0.1
  9
$FILLETRAD
 40
0.0
  9
$AUNITS
 70
     0
  9
$AUPREC
 70
     0
  9
$MENU
  1
simpson
  9
$ELEVATION
 40
0.0
  9
$PELEVATION
 40
0.0
  9
$THICKNESS
 40
0.0
  9
$LIMCHECK
 70
     0
  9
$CHAMFERA
 40
0.0
  9
$CHAMFERB
 40
0.0
  9
$CHAMFERC
 40
0.0
  9
$CHAMFERD
 40
0.0
  9
$SKPOLY
 70
     0
  9
$TDCREATE
 40
2450745.895540625
  9
$TDUCREATE
 40
2450746.228873958
  9
$TDUPDATE
 40
2454418.731491597
  9
$TDUUPDATE
 40
2454419.06482493
  9
$TDINDWG
 40
0.2969969676
  9
$TDUSRTIMER
 40
0.2969969676
  9
$USRTIMER
 70
     1
  9
$ANGBASE
 50
0.0
  9
$ANGDIR
 70
     0
  9
$PDMODE
 70
     0
  9
$PDSIZE
 40
0.0
  9
$PLINEWID
 40
0.0
  9
$SPLFRAME
 70
     0
  9
$SPLINETYPE
 70
     6
  9
$SPLINESEGS
 70
     8
  9
$HANDSEED
  5
1873
  9
$SURFTAB1
 70
     6
  9
$SURFTAB2
 70
     6
  9
$SURFTYPE
 70
     6
  9
$SURFU
 70
     6
  9
$SURFV
 70
     6
  9
$UCSBASE
  2

  9
$UCSNAME
  2

  9
$UCSORG
 10
0.0
 20
0.0
 30
0.0
  9
$UCSXDIR
 10
1.0
 20
0.0
 30
0.0
  9
$UCSYDIR
 10
0.0
 20
1.0
 30
0.0
  9
$UCSORTHOREF
  2

  9
$UCSORTHOVIEW
 70
     0
  9
$UCSORGTOP
 10
0.0
 20
0.0
 30
0.0
  9
$UCSORGBOTTOM
 10
0.0
 20
0.0
 30
0.0
  9
$UCSORGLEFT
 10
0.0
 20
0.0
 30
0.0
  9
$UCSORGRIGHT
 10
0.0
 20
0.0
 30
0.0
  9
$UCSORGFRONT
 10
0.0
 20
0.0
 30
0.0
  9
$UCSORGBACK
 10
0.0
 20
0.0
 30
0.0
  9
$PUCSBASE
  2

  9
$PUCSNAME
  2

  9
$PUCSORG
 10
0.0
 20
0.0
 30
0.0
  9
$PUCSXDIR
 10
1.0
 20
0.0
 30
0.0
  9
$PUCSYDIR
 10
0.0
 20
1.0
 30
0.0
  9
$PUCSORTHOREF
  2

  9
$PUCSORTHOVIEW
 70
     0
  9
$PUCSORGTOP
 10
0.0
 20
0.0
 30
0.0
  9
$PUCSORGBOTTOM
 10
0.0
 20
0.0
 30
0.0
  9
$PUCSORGLEFT
 10
0.0
 20
0.0
 30
0.0
  9
$PUCSORGRIGHT
 10
0.0
 20
0.0
 30
0.0
  9
$PUCSORGFRONT
 10
0.0
 20
0.0
 30
0.0
  9
$PUCSORGBACK
 10
0.0
 20
0.0
 30
0.0
  9
$USERI1
 70
     0
  9
$USERI2
 70
     0
  9
$USERI3
 70
     0
  9
$USERI4
 70
     0
  9
$USERI5
 70
     0
  9
$USERR1
 40
0.0
  9
$USERR2
 40
0.0
  9
$USERR3
 40
0.0
  9
$USERR4
 40
0.0
  9
$USERR5
 40
0.0
  9
$WORLDVIEW
 70
     1
  9
$SHADEDGE
 70
     3
  9
$SHADEDIF
 70
    70
  9
$TILEMODE
 70
     1
  9
$MAXACTVP
 70
    16
  9
$PINSBASE
 10
0.0
 20
0.0
 30
0.0
  9
$PLIMCHECK
 70
     0
  9
$PEXTMIN
 10
1.000000000000000E+20
 20
1.000000000000000E+20
 30
1.000000000000000E+20
  9
$PEXTMAX
 10
-1.000000000000000E+20
 20
-1.000000000000000E+20
 30
-1.000000000000000E+20
  9
$PLIMMIN
 10
0.0
 20
0.0
  9
$PLIMMAX
 10
12.0
 20
9.0
  9
$UNITMODE
 70
     0
  9
$VISRETAIN
 70
     0
  9
$PLINEGEN
 70
     0
  9
$PSLTSCALE
 70
     0
  9
$TREEDEPTH
 70
  3020
  9
$CMLSTYLE
  2
Standard
  9
$CMLJUST
 70
     0
  9
$CMLSCALE
 40
1.0
  9
$PROXYGRAPHICS
 70
     1
  9
$MEASUREMENT
 70
     0
  9
$CELWEIGHT
370
    -1
  9
$ENDCAPS
280
     0
  9
$JOINSTYLE
280
     0
  9
$LWDISPLAY
290
     0
  9
$INSUNITS
 70
     0
  9
$HYPERLINKBASE
  1

  9
$STYLESHEET
  1
monochrome.ctb
  9
$XEDIT
290
     1
  9
$CEPSNTYPE
380
     0
  9
$PSTYLEMODE
290
     1
  9
$FINGERPRINTGUID
  2
{9D555177-F8D3-4F85-906A-7F640A445D16}
  9
$VERSIONGUID
  2
{822C3490-0A2E-472E-BE6A-5B9458F9C512}
  9
$EXTNAMES
290
     1
  9
$PSVPSCALE
 40
0.0
  9
$OLESTARTUP
290
     0
  9
$SORTENTS
280
   127
  9
$INDEXCTL
280
     0
  9
$HIDETEXT
280
     1
  9
$XCLIPFRAME
290
     0
  9
$HALOGAP
280
     0
  9
$OBSCOLOR
 70
   257
  9
$OBSLTYPE
280
     0
  9
$INTERSECTIONDISPLAY
280
     0
  9
$INTERSECTIONCOLOR
 70
   257
  9
$DIMASSOC
280
     0
  9
$PROJECTNAME
  1

  0
ENDSEC
  0
SECTION
  2
CLASSES
  0
CLASS
  1
ACDBDICTIONARYWDFLT
  2
AcDbDictionaryWithDefault
  3
AutoCAD 2000
 90
        0
 91
        1
280
     0
281
     0
  0
CLASS
  1
ACDBPLACEHOLDER
  2
AcDbPlaceHolder
  3
ObjectDBX Classes
 90
        0
 91
        3
280
     0
281
     0
  0
CLASS
  1
LAYOUT
  2
AcDbLayout
  3
ObjectDBX Classes
 90
        0
 91
        3
280
     0
281
     0
  0
CLASS
  1
LONG_TRANSACTION
  2
AcDbLongTransaction
  3
ObjectDBX Classes
 90
   -65536
 91
        4
280
     1
281
     0
  0
CLASS
  1
LWPOLYLINE
  2
AcDbPolyline
  3
AutoCAD 2000
 90
        0
 91
        6
280
     0
281
     1
  0
CLASS
  1
HATCH
  2
AcDbHatch
  3
AutoCAD 2000
 90
        0
 91
        6
280
     0
281
     1
  0
CLASS
  1
XRECORD
  2
AcDbXrecord
  3
AutoCAD 2000
 90
        0
 91
        6
280
     0
281
     0
  0
CLASS
  1
LONG_TRANSACTION
  2
AcDbLongTransaction
  3
ObjectDBX Classes
 90
   -65536
 91
        4
280
     1
281
     0
  0
CLASS
  1
LWPOLYLINE
  2
AcDbPolyline
  3
AutoCAD 2000
 90
        0
 91
        6
280
     0
281
     1
  0
CLASS
  1
HATCH
  2
AcDbHatch
  3
AutoCAD 2000
 90
        0
 91
        6
280
     0
281
     1
  0
CLASS
  1
XRECORD
  2
AcDbXrecord
  3
AutoCAD 2000
 90
        0
 91
        6
280
     0
281
     0
  0
CLASS
  1
LONG_TRANSACTION
  2
AcDbLongTransaction
  3
ObjectDBX Classes
 90
   -65536
 91
        4
280
     1
281
     0
  0
CLASS
  1
LWPOLYLINE
  2
AcDbPolyline
  3
AutoCAD 2000
 90
        0
 91
        6
280
     0
281
     1
  0
CLASS
  1
HATCH
  2
AcDbHatch
  3
AutoCAD 2000
 90
        0
 91
        6
280
     0
281
     1
  0
CLASS
  1
XRECORD
  2
AcDbXrecord
  3
AutoCAD 2000
 90
        0
 91
        6
280
     0
281
     0
  0
CLASS
  1
LONG_TRANSACTION
  2
AcDbLongTransaction
  3
ObjectDBX Classes
 90
   -65536
 91
        4
280
     1
281
     0
  0
CLASS
  1
LWPOLYLINE
  2
AcDbPolyline
  3
AutoCAD 2000
 90
        0
 91
        6
280
     0
281
     1
  0
CLASS
  1
HATCH
  2
AcDbHatch
  3
AutoCAD 2000
 90
        0
 91
        6
280
     0
281
     1
  0
CLASS
  1
XRECORD
  2
AcDbXrecord
  3
AutoCAD 2000
 90
        0
 91
        6
280
     0
281
     0
  0
CLASS
  1
TABLESTYLE
  2
AcDbTableStyle
  3
ObjectDBX Classes
 90
     2047
 91
        2
280
     1
281
     0
  0
CLASS
  1
DICTIONARYVAR
  2
AcDbDictionaryVar
  3
AutoCAD 2000
 90
        0
 91
        1
280
     0
281
     0
  0
CLASS
  1
SORTENTSTABLE
  2
AcDbSortentsTable
  3
AutoCAD 2000
 90
        0
 91
        1
280
     0
281
     0
  0
ENDSEC
  0
SECTION
  2
TABLES
  0
TABLE
  2
VPORT
  5
8
330
0
100
AcDbSymbolTable
 70
     2
  0
VPORT
  5
186B
330
8
100
AcDbSymbolTableRecord
100
AcDbViewportTableRecord
  2
*Active
 70
     0
 10
0.0
 20
0.0
 11
1.0
 21
1.0
 12
18.86374798690664
 22
8.351182335547126
 13
0.0
 23
0.0
 14
0.063
 24
0.063
 15
0.25
 25
0.25
 16
0.0
 26
0.0
 36
1.0
 17
0.0
 27
0.0
 37
0.0
 40
50.99517797703377
 41
1.78118609406953
 42
50.0
 43
0.0
 44
0.0
 50
0.0
 51
0.0
 71
     0
 72
   100
 73
     1
 74
     0
 75
     0
 76
     0
 77
     0
 78
     0
281
     0
 65
     1
110
0.0
120
0.0
130
0.0
111
1.0
121
0.0
131
0.0
112
0.0
122
1.0
132
0.0
 79
     0
146
0.0
  0
ENDTAB
  0
TABLE
  2
LTYPE
  5
5
330
0
100
AcDbSymbolTable
 70
     3
  0
LTYPE
  5
13
330
5
100
AcDbSymbolTableRecord
100
AcDbLinetypeTableRecord
  2
ByBlock
 70
     0
  3

 72
    65
 73
     0
 40
0.0
  0
LTYPE
  5
14
330
5
100
AcDbSymbolTableRecord
100
AcDbLinetypeTableRecord
  2
ByLayer
 70
     0
  3

 72
    65
 73
     0
 40
0.0
  0
LTYPE
  5
15
330
5
100
AcDbSymbolTableRecord
100
AcDbLinetypeTableRecord
  2
CONTINUOUS
 70
     0
  3
Solid line
 72
    65
 73
     0
 40
0.0
  0
ENDTAB
  0
TABLE
  2
LAYER
  5
2
102
{ACAD_XDICTIONARY
360
C09
102
}
330
0
100
AcDbSymbolTable
 70
    11
  0
LAYER
  5
10
330
2
100
AcDbSymbolTableRecord
100
AcDbLayerTableRecord
  2
0
 70
     0
 62
     7
  6
CONTINUOUS
370
    -3
390
F
  0
LAYER
  5
4E
330
2
100
AcDbSymbolTableRecord
100
AcDbLayerTableRecord
  2
DEFPOINTS
 70
     0
 62
     7
  6
CONTINUOUS
290
     0
370
    -3
390
F
  0
ENDTAB
  0
TABLE
  2
STYLE
  5
3
330
0
100
AcDbSymbolTable
 70
     4
  0
STYLE
  5
11
330
3
100
AcDbSymbolTableRecord
100
AcDbTextStyleTableRecord
  2
STANDARD
 70
     0
 40
0.0
 41
1.0
 50
0.0
 71
     0
 42
0.27
  3
TXT
  4

  0
ENDTAB
  0
TABLE
  2
VIEW
  5
6
330
0
100
AcDbSymbolTable
 70
     0
  0
ENDTAB
  0
TABLE
  2
UCS
  5
7
330
0
100
AcDbSymbolTable
 70
     0
  0
ENDTAB
  0
TABLE
  2
APPID
  5
9
330
0
100
AcDbSymbolTable
 70
     3
  0
APPID
  5
12
330
9
100
AcDbSymbolTableRecord
100
AcDbRegAppTableRecord
  2
ACAD
 70
     0
  0
APPID
  5
C08
330
9
100
AcDbSymbolTableRecord
100
AcDbRegAppTableRecord
  2
ACAD_PSEXT
 70
     0
  0
APPID
  5
167B
330
9
100
AcDbSymbolTableRecord
100
AcDbRegAppTableRecord
  2
ACAD_DSTYLE_DIMTEXT_FILL
 70
     0
  0
ENDTAB
  0
TABLE
  2
DIMSTYLE
  5
A
330
0
100
AcDbSymbolTable
 70
     1
100
AcDbDimStyleTable
  0
DIMSTYLE
105
561
330
A
100
AcDbSymbolTableRecord
100
AcDbDimStyleTableRecord
  2
Standard
 70
     0
  3

  4

340
11
  0
ENDTAB
  0
TABLE
  2
BLOCK_RECORD
  5
1
330
0
100
AcDbSymbolTable
 70
     4
  0
BLOCK_RECORD
  5
1E
102
{ACAD_XDICTIONARY
360
82F
102
}
330
1
100
AcDbSymbolTableRecord
100
AcDbBlockTableRecord
  2
*Model_Space
340
21
  0
BLOCK_RECORD
  5
1A
330
1
100
AcDbSymbolTableRecord
100
AcDbBlockTableRecord
  2
*Paper_Space
340
1D
  0
ENDTAB
  0
ENDSEC
  0
SECTION
  2
BLOCKS
  0
BLOCK
  5
51
330
1E
100
AcDbEntity
  8
0
100
AcDbBlockBegin
  2
*Model_Space
 70
     0
 10
0.0
 20
0.0
 30
0.0
  3
*Model_Space
  1

  4

  0
ENDBLK
  5
52
330
1E
100
AcDbEntity
  8
0
100
AcDbBlockEnd
  0
BLOCK
  5
4F
330
1A
100
AcDbEntity
 67
     1
  8
0
100
AcDbBlockBegin
  2
*Paper_Space
 70
     0
 10
0.0
 20
0.0
 30
0.0
  3
*Paper_Space
  1

  4

  0
ENDBLK
  5
50
330
1A
100
AcDbEntity
 67
     1
  8
0
100
AcDbBlockEnd
  0
ENDSEC
  0
SECTION
  2
ENTITIES
  0
TEXT
  5
470
330
1E
100
AcDbEntity
  8
0
100
AcDbText
 10
7.566920363
 20
24.907029066
 30
0.0
 40
0.27
  1
   
100
AcDbText
  0
TEXT
  5
473
330
1E
100
AcDbEntity
  8
0
100
AcDbText
 10
11.907898174
 20
21.328660945
 30
0.0
 40
0.27
  1
   
100
AcDbText
  0
TEXT
  5
474
330
1E
100
AcDbEntity
  8
0
100
AcDbText
 10
18.185367645
 20
27.578756393
 30
0.0
 40
0.27
  1
   
100
AcDbText
  0
CIRCLE
  5
8A9
330
1E
100
AcDbEntity
  8
0
100
AcDbCircle
 10
-0.0490185237843299
 20
26.58847371415516
 30
0.0
 40
0.390625
  0
CIRCLE
  5
8AA
330
1E
100
AcDbEntity
  8
0
100
AcDbCircle
 10
-0.0490185237843299
 20
26.58847371415516
 30
0.0
 40
0.4374974016220072
  0
LWPOLYLINE
  5
8AB
330
1E
100
AcDbEntity
  8
0
100
AcDbPolyline
 90
        2
 70
     0
 43
0.0102515625
 10
0.1514149472740236
 20
26.75319117271947
 10
-0.1700894146615433
 20
26.74701960863484
  0
LWPOLYLINE
  5
8AC
330
1E
100
AcDbEntity
  8
0
100
AcDbPolyline
 90
        2
 70
     0
 43
0.0102515625
 10
-0.0727004126431972
 20
26.86418005333463
 10
0.112242186891482
 20
26.68713603000895
  0
LINE
  5
8AD
330
1E
100
AcDbEntity
  8
0
100
AcDbLine
 10
-0.2111965693758577
 20
26.56495434260621
 30
0.0
 11
-0.2115855695238729
 21
26.58271288132596
 31
0.0
  0
LINE
  5
8AE
330
1E
100
AcDbEntity
  8
0
100
AcDbLine
 10
-0.2119832657639478
 20
26.60100812764377
 30
0.0
 11
-0.211597279090558
 21
26.58324952316977
 31
0.0
  0
SOLID
  5
8AF
330
1E
100
AcDbEntity
  8
0
100
AcDbTrace
 10
-0.1422662904067131
 20
26.58449388205074
 30
0.0
 11
-0.2111965693758542
 21
26.56495434260621
 31
0.0
 12
-0.2115855695238729
 22
26.58271288132596
 32
0.0
 13
-0.2115855695238729
 23
26.58271288132596
 33
0.0
  0
LINE
  5
8B0
330
1E
100
AcDbEntity
  8
0
100
AcDbLine
 10
-0.1422662904067131
 20
26.58449388205074
 30
0.0
 11
-0.2111965693758577
 21
26.56495434260621
 31
0.0
  0
LINE
  5
8B1
330
1E
100
AcDbEntity
  8
0
100
AcDbLine
 10
-0.1422662904067131
 20
26.58449388205074
 30
0.0
 11
-0.2119832657639478
 21
26.60100812764377
 31
0.0
  0
SOLID
  5
8B2
330
1E
100
AcDbEntity
  8
0
100
AcDbTrace
 10
-0.1422662904067131
 20
26.58449388205074
 30
0.0
 11
-0.2119832657639442
 21
26.60100812764377
 31
0.0
 12
-0.211597279090558
 22
26.58324952316977
 32
0.0
 13
-0.211597279090558
 23
26.58324952316977
 33
0.0
  0
LWPOLYLINE
  5
8B3
330
1E
100
AcDbEntity
  8
0
100
AcDbPolyline
 90
        2
 70
     0
 43
0.0102515625
 10
-0.138760091518737
 20
26.79517321251519
 10
0.0461825080159421
 20
26.61812918918952
  0
LWPOLYLINE
  5
8B5
330
1E
100
AcDbEntity
  8
0
100
AcDbPolyline
 90
        3
 70
     0
 43
0.0020503125
 10
-0.2401895299243897
 20
26.67493426864474
 10
-0.3296698366762065
 20
26.58146192076775
 10
-0.2381935584757393
 20
26.49389243503425
  0
LWPOLYLINE
  5
8B6
330
1E
100
AcDbEntity
  8
0
100
AcDbPolyline
 90
        2
 70
     0
 43
0.0020503125
 10
-0.3204634798928261
 20
26.58105243298815
 10
-0.1422662904066279
 20
26.58449388205074
  0
TEXT
  5
E2A
330
1E
100
AcDbEntity
  8
0
100
AcDbText
 10
-0.128086690534456
 20
26.43466804673786
 30
0.0
 40
0.102515625
  1
24
 50
316.25
100
AcDbText
  0
ARC
  5
13AB
330
1E
100
AcDbEntity
  8
0
100
AcDbCircle
 10
29.6077022188115
 20
11.33361280209127
 30
0.0
 40
30.09937714432021
100
AcDbArc
 50
178.640620738057
 51
198.1900095640172
  0
LINE
  5
13B2
330
1E
100
AcDbEntity
  8
0
100
AcDbLine
 10
-0.4865159254063372
 20
18.07865976340011
 30
0.0
 11
-0.4865159254063372
 21
24.04767291008246
 31
0.0
  0
ARC
  5
13B5
330
1E
100
AcDbEntity
  8
0
100
AcDbCircle
 10
-0.4353856393460944
 20
23.87950751325833
 30
0.0
 40
0.05
100
AcDbArc
 50
96.62990127799989
 51
180.0
  0
LINE
  5
13C5
330
1E
100
AcDbEntity
  8
0
100
AcDbLine
 10
-0.4832037602081698
 20
18.01615976340011
 30
0.0
 11
0.3954348828323901
 21
18.01615976340011
 31
0.0
  0
LINE
  5
13C6
330
1E
100
AcDbEntity
  8
0
100
AcDbLine
 10
-0.4552659254063372
 20
18.07865976340011
 30
0.0
 11
0.3884840745936629
 21
18.07865976340011
 31
0.0
  0
ARC
  5
13C7
330
1E
100
AcDbEntity
  8
0
100
AcDbCircle
 10
-0.4865153015158228
 20
18.04721229753596
 30
0.0
 40
0.03125
100
AcDbArc
 50
276.4444756747145
 51
0.3620491490063217
  0
ARC
  5
13C8
330
1E
100
AcDbEntity
  8
0
100
AcDbCircle
 10
-0.4865159254063372
 20
18.04740976340011
 30
0.0
 40
0.03125
100
AcDbArc
 50
0.0
 51
90.0
  0
LINE
  5
13C9
330
1E
100
AcDbEntity
  8
0
100
AcDbLine
 10
-0.4830077918948064
 20
18.01615976340011
 30
0.0
 11
-0.4552659254063372
 21
18.01615976340011
 31
0.0
  0
LINE
  5
13CA
330
1E
100
AcDbEntity
  8
0
100
AcDbLine
 10
-0.4865159254063372
 20
18.07865976340011
 30
0.0
 11
-0.4552659254063372
 21
18.07865976340011
 31
0.0
  0
LINE
  5
13DF
330
1E
100
AcDbEntity
  8
0
100
AcDbLine
 10
-0.4832037602081698
 20
18.01615976340011
 30
0.0
 11
-0.4832037602081698
 21
12.04767291008246
 31
0.0
  0
ARC
  5
13E9
330
1E
100
AcDbEntity
  8
0
100
AcDbCircle
 10
-0.4353856393460944
 20
23.77175094548407
 30
0.0
 40
0.05
100
AcDbArc
 50
96.62990127799989
 51
180.0
  0
ARC
  5
149F
330
1E
100
AcDbEntity
  8
0
100
AcDbCircle
 10
0.3884742115116637
 20
18.04662468675082
 30
0.0
 40
0.03125
100
AcDbArc
 50
178.5604380308048
 51
282.8701046498811
  0
ARC
  5
14A0
330
1E
100
AcDbEntity
  8
0
100
AcDbCircle
 10
0.3884840745936629
 20
18.04740976340011
 30
0.0
 40
0.03125
100
AcDbArc
 50
90.0
 51
180.0
  0
LINE
  5
14A1
330
1E
100
AcDbEntity
  8
0
100
AcDbLine
 10
0.3954348828324044
 20
18.01615976340011
 30
0.0
 11
0.3954348828324044
 21
12.04767291008246
 31
0.0
  0
LINE
  5
14A2
330
1E
100
AcDbEntity
  8
0
100
AcDbLine
 10
0.3884840745936629
 20
18.07865976340011
 30
0.0
 11
0.3884840745936629
 21
24.04767291008246
 31
0.0
  0
ARC
  5
150F
330
1E
100
AcDbEntity
  8
0
100
AcDbCircle
 10
0.3382310791617158
 20
23.93027460092186
 30
0.0
 40
0.05
100
AcDbArc
 50
276.6299012779999
 51
0.0
  0
LINE
  5
1512
330
1E
100
AcDbEntity
  8
0
100
AcDbLine
 10
-0.442288048036275
 20
23.82141657785491
 30
0.0
 11
0.3453781154331495
 21
23.88060896855103
 31
0.0
  0
ARC
  5
1513
330
1E
100
AcDbEntity
  8
0
100
AcDbCircle
 10
0.3387679704414097
 20
24.03803116869612
 30
0.0
 40
0.05
100
AcDbArc
 50
276.6299012779999
 51
0.0
  0
LINE
  5
1514
330
1E
100
AcDbEntity
  8
0
100
AcDbLine
 10
-0.4411584169449014
 20
23.92917314562916
 30
0.0
 11
0.3445407480402167
 21
23.98836553632528
 31
0.0
  0
LINE
  5
1515
330
1E
100
AcDbEntity
  8
0
100
AcDbLine
 10
-0.4865159254063372
 20
24.04767291008246
 30
0.0
 11
0.3884840745936629
 21
24.04767291008246
 31
0.0
  0
ARC
  5
1530
330
1E
100
AcDbEntity
  8
0
100
AcDbCircle
 10
-0.4353856393460944
 20
23.66400549241354
 30
0.0
 40
0.05
100
AcDbArc
 50
96.62990127799989
 51
180.0
  0
ARC
  5
1531
330
1E
100
AcDbEntity
  8
0
100
AcDbCircle
 10
0.3382310791617158
 20
23.82252914785133
 30
0.0
 40
0.05
100
AcDbArc
 50
276.6299012779999
 51
0.0
  0
LINE
  5
1532
330
1E
100
AcDbEntity
  8
0
100
AcDbLine
 10
-0.442288048036275
 20
23.71367112478438
 30
0.0
 11
0.3453781154331495
 21
23.7728635154805
 31
0.0
  0
ARC
  5
1533
330
1E
100
AcDbEntity
  8
0
100
AcDbCircle
 10
-0.4353856393460944
 20
23.55626003934302
 30
0.0
 40
0.05
100
AcDbArc
 50
96.62990127799989
 51
180.0
  0
ARC
  5
1534
330
1E
100
AcDbEntity
  8
0
100
AcDbCircle
 10
0.3382310791617158
 20
23.71478369478081
 30
0.0
 40
0.05
100
AcDbArc
 50
276.6299012779999
 51
0.0
  0
LINE
  5
1535
330
1E
100
AcDbEntity
  8
0
100
AcDbLine
 10
-0.442288048036275
 20
23.60592567171386
 30
0.0
 11
0.3453781154331495
 21
23.66511806240997
 31
0.0
  0
ARC
  5
1536
330
1E
100
AcDbEntity
  8
0
100
AcDbCircle
 10
-0.43482468024132
 20
23.44855674183538
 30
0.0
 40
0.05
100
AcDbArc
 50
96.62990127799989
 51
180.0
  0
ARC
  5
1537
330
1E
100
AcDbEntity
  8
0
100
AcDbCircle
 10
0.3387920382664902
 20
23.60708039727317
 30
0.0
 40
0.05
100
AcDbArc
 50
276.6299012779999
 51
0.0
  0
LINE
  5
1538
330
1E
100
AcDbEntity
  8
0
100
AcDbLine
 10
-0.4417270889315006
 20
23.49822237420622
 30
0.0
 11
0.3459390745379238
 21
23.55741476490234
 31
0.0
  0
ARC
  5
1539
330
1E
100
AcDbEntity
  8
0
100
AcDbCircle
 10
-0.4342637211365457
 20
23.34085344432776
 30
0.0
 40
0.05
100
AcDbArc
 50
96.62990127799989
 51
180.0
  0
ARC
  5
153A
330
1E
100
AcDbEntity
  8
0
100
AcDbCircle
 10
0.3393529973712646
 20
23.49937709976555
 30
0.0
 40
0.05
100
AcDbArc
 50
276.6299012779999
 51
0.0
  0
LINE
  5
153B
330
1E
100
AcDbEntity
  8
0
100
AcDbLine
 10
-0.4411661298267262
 20
23.3905190766986
 30
0.0
 11
0.3465000336426982
 21
23.44971146739471
 31
0.0
  0
ARC
  5
153C
330
1E
100
AcDbEntity
  8
0
100
AcDbCircle
 10
-0.4353856393460944
 20
23.23302368013144
 30
0.0
 40
0.05
100
AcDbArc
 50
96.62990127799989
 51
180.0
  0
ARC
  5
153D
330
1E
100
AcDbEntity
  8
0
100
AcDbCircle
 10
0.3382310791617158
 20
23.39154733556923
 30
0.0
 40
0.05
100
AcDbArc
 50
276.6299012779999
 51
0.0
  0
LINE
  5
153E
330
1E
100
AcDbEntity
  8
0
100
AcDbLine
 10
-0.442288048036275
 20
23.28268931250228
 30
0.0
 11
0.3453781154331495
 21
23.3418817031984
 31
0.0
  0
ARC
  5
153F
330
1E
100
AcDbEntity
  8
0
100
AcDbCircle
 10
-0.4353856393460944
 20
23.12527822706091
 30
0.0
 40
0.05
100
AcDbArc
 50
96.62990127799989
 51
180.0
  0
ARC
  5
1540
330
1E
100
AcDbEntity
  8
0
100
AcDbCircle
 10
0.3382310791617158
 20
23.2838018824987
 30
0.0
 40
0.05
100
AcDbArc
 50
276.6299012779999
 51
0.0
  0
LINE
  5
1541
330
1E
100
AcDbEntity
  8
0
100
AcDbLine
 10
-0.442288048036275
 20
23.17494385943175
 30
0.0
 11
0.3453781154331495
 21
23.23413625012787
 31
0.0
  0
ARC
  5
1542
330
1E
100
AcDbEntity
  8
0
100
AcDbCircle
 10
-0.4353856393460944
 20
23.01753277399038
 30
0.0
 40
0.05
100
AcDbArc
 50
96.62990127799989
 51
180.0
  0
ARC
  5
1543
330
1E
100
AcDbEntity
  8
0
100
AcDbCircle
 10
0.3382310791617158
 20
23.17605642942817
 30
0.0
 40
0.05
100
AcDbArc
 50
276.6299012779999
 51
0.0
  0
LINE
  5
1544
330
1E
100
AcDbEntity
  8
0
100
AcDbLine
 10
-0.442288048036275
 20
23.06719840636122
 30
0.0
 11
0.3453781154331495
 21
23.12639079705734
 31
0.0
  0
ARC
  5
1545
330
1E
100
AcDbEntity
  8
0
100
AcDbCircle
 10
-0.4360927303000892
 20
22.90973405065323
 30
0.0
 40
0.05
100
AcDbArc
 50
96.62990127799989
 51
180.0
  0
ARC
  5
1546
330
1E
100
AcDbEntity
  8
0
100
AcDbCircle
 10
0.337523988207721
 20
23.06825770609102
 30
0.0
 40
0.05
100
AcDbArc
 50
276.6299012779999
 51
0.0
  0
LINE
  5
1547
330
1E
100
AcDbEntity
  8
0
100
AcDbLine
 10
-0.4429951389902698
 20
22.95939968302407
 30
0.0
 11
0.3446710244791547
 21
23.01859207372019
 31
0.0
  0
ARC
  5
1548
330
1E
100
AcDbEntity
  8
0
100
AcDbCircle
 10
-0.4360927303000892
 20
22.8019885975827
 30
0.0
 40
0.05
100
AcDbArc
 50
96.62990127799989
 51
180.0
  0
ARC
  5
1549
330
1E
100
AcDbEntity
  8
0
100
AcDbCircle
 10
0.337523988207721
 20
22.96051225302049
 30
0.0
 40
0.05
100
AcDbArc
 50
276.6299012779999
 51
0.0
  0
LINE
  5
154A
330
1E
100
AcDbEntity
  8
0
100
AcDbLine
 10
-0.4429951389902698
 20
22.85165422995354
 30
0.0
 11
0.3446710244791547
 21
22.91084662064966
 31
0.0
  0
ARC
  5
154B
330
1E
100
AcDbEntity
  8
0
100
AcDbCircle
 10
-0.4360927303000892
 20
22.69424314451217
 30
0.0
 40
0.05
100
AcDbArc
 50
96.62990127799989
 51
180.0
  0
ARC
  5
154C
330
1E
100
AcDbEntity
  8
0
100
AcDbCircle
 10
0.337523988207721
 20
22.85276679994996
 30
0.0
 40
0.05
100
AcDbArc
 50
276.6299012779999
 51
0.0
  0
LINE
  5
154D
330
1E
100
AcDbEntity
  8
0
100
AcDbLine
 10
-0.4429951389902698
 20
22.74390877688301
 30
0.0
 11
0.3446710244791547
 21
22.80310116757913
 31
0.0
  0
ARC
  5
154E
330
1E
100
AcDbEntity
  8
0
100
AcDbCircle
 10
-0.4355317711953148
 20
22.58653984700454
 30
0.0
 40
0.05
100
AcDbArc
 50
96.62990127799989
 51
180.0
  0
ARC
  5
154F
330
1E
100
AcDbEntity
  8
0
100
AcDbCircle
 10
0.3380849473124954
 20
22.74506350244233
 30
0.0
 40
0.05
100
AcDbArc
 50
276.6299012779999
 51
0.0
  0
LINE
  5
1550
330
1E
100
AcDbEntity
  8
0
100
AcDbLine
 10
-0.4424341798854954
 20
22.63620547937538
 30
0.0
 11
0.345231983583929
 21
22.6953978700715
 31
0.0
  0
ARC
  5
1551
330
1E
100
AcDbEntity
  8
0
100
AcDbCircle
 10
-0.4349708120905405
 20
22.47883654949691
 30
0.0
 40
0.05
100
AcDbArc
 50
96.62990127799989
 51
180.0
  0
ARC
  5
1552
330
1E
100
AcDbEntity
  8
0
100
AcDbCircle
 10
0.3386459064172698
 20
22.6373602049347
 30
0.0
 40
0.05
100
AcDbArc
 50
276.6299012779999
 51
0.0
  0
LINE
  5
1553
330
1E
100
AcDbEntity
  8
0
100
AcDbLine
 10
-0.441873220780721
 20
22.52850218186775
 30
0.0
 11
0.3457929426887034
 21
22.58769457256387
 31
0.0
  0
ARC
  5
1554
330
1E
100
AcDbEntity
  8
0
100
AcDbCircle
 10
-0.4360927303000892
 20
22.37100678530059
 30
0.0
 40
0.05
100
AcDbArc
 50
96.62990127799989
 51
180.0
  0
ARC
  5
1555
330
1E
100
AcDbEntity
  8
0
100
AcDbCircle
 10
0.337523988207721
 20
22.52953044073838
 30
0.0
 40
0.05
100
AcDbArc
 50
276.6299012779999
 51
0.0
  0
LINE
  5
1556
330
1E
100
AcDbEntity
  8
0
100
AcDbLine
 10
-0.4429951389902698
 20
22.42067241767143
 30
0.0
 11
0.3446710244791547
 21
22.47986480836755
 31
0.0
  0
ARC
  5
1557
330
1E
100
AcDbEntity
  8
0
100
AcDbCircle
 10
-0.4360927303000892
 20
22.26326133223007
 30
0.0
 40
0.05
100
AcDbArc
 50
96.62990127799989
 51
180.0
  0
ARC
  5
1558
330
1E
100
AcDbEntity
  8
0
100
AcDbCircle
 10
0.337523988207721
 20
22.42178498766786
 30
0.0
 40
0.05
100
AcDbArc
 50
276.6299012779999
 51
0.0
  0
LINE
  5
1559
330
1E
100
AcDbEntity
  8
0
100
AcDbLine
 10
-0.4429951389902698
 20
22.31292696460091
 30
0.0
 11
0.3446710244791547
 21
22.37211935529702
 31
0.0
  0
ARC
  5
155A
330
1E
100
AcDbEntity
  8
0
100
AcDbCircle
 10
-0.4360927303000892
 20
22.15551587915954
 30
0.0
 40
0.05
100
AcDbArc
 50
96.62990127799989
 51
180.0
  0
ARC
  5
155B
330
1E
100
AcDbEntity
  8
0
100
AcDbCircle
 10
0.337523988207721
 20
22.31403953459733
 30
0.0
 40
0.05
100
AcDbArc
 50
276.6299012779999
 51
0.0
  0
LINE
  5
155C
330
1E
100
AcDbEntity
  8
0
100
AcDbLine
 10
-0.4429951389902698
 20
22.20518151153038
 30
0.0
 11
0.3446710244791547
 21
22.2643739022265
 31
0.0
  0
ARC
  5
155D
330
1E
100
AcDbEntity
  8
0
100
AcDbCircle
 10
-0.4360927303000892
 20
22.0477702930599
 30
0.0
 40
0.05
100
AcDbArc
 50
96.62990127799989
 51
180.0
  0
ARC
  5
155E
330
1E
100
AcDbEntity
  8
0
100
AcDbCircle
 10
0.337523988207721
 20
22.20629394849769
 30
0.0
 40
0.05
100
AcDbArc
 50
276.6299012779999
 51
0.0
  0
LINE
  5
155F
330
1E
100
AcDbEntity
  8
0
100
AcDbLine
 10
-0.4429951389902698
 20
22.09743592543074
 30
0.0
 11
0.3446710244791547
 21
22.15662831612686
 31
0.0
  0
ARC
  5
1560
330
1E
100
AcDbEntity
  8
0
100
AcDbCircle
 10
-0.4360927303000892
 20
21.94002483998937
 30
0.0
 40
0.05
100
AcDbArc
 50
96.62990127799989
 51
180.0
  0
ARC
  5
1561
330
1E
100
AcDbEntity
  8
0
100
AcDbCircle
 10
0.337523988207721
 20
22.09854849542716
 30
0.0
 40
0.05
100
AcDbArc
 50
276.6299012779999
 51
0.0
  0
LINE
  5
1562
330
1E
100
AcDbEntity
  8
0
100
AcDbLine
 10
-0.4429951389902698
 20
21.98969047236021
 30
0.0
 11
0.3446710244791547
 21
22.04888286305633
 31
0.0
  0
ARC
  5
1563
330
1E
100
AcDbEntity
  8
0
100
AcDbCircle
 10
-0.4360927303000892
 20
21.83227938691884
 30
0.0
 40
0.05
100
AcDbArc
 50
96.62990127799989
 51
180.0
  0
ARC
  5
1564
330
1E
100
AcDbEntity
  8
0
100
AcDbCircle
 10
0.337523988207721
 20
21.99080304235663
 30
0.0
 40
0.05
100
AcDbArc
 50
276.6299012779999
 51
0.0
  0
LINE
  5
1565
330
1E
100
AcDbEntity
  8
0
100
AcDbLine
 10
-0.4429951389902698
 20
21.88194501928968
 30
0.0
 11
0.3446710244791547
 21
21.9411374099858
 31
0.0
  0
ARC
  5
1566
330
1E
100
AcDbEntity
  8
0
100
AcDbCircle
 10
-0.4355317711953148
 20
21.72457608941121
 30
0.0
 40
0.05
100
AcDbArc
 50
96.62990127799989
 51
180.0
  0
ARC
  5
1567
330
1E
100
AcDbEntity
  8
0
100
AcDbCircle
 10
0.3380849473124954
 20
21.883099744849
 30
0.0
 40
0.05
100
AcDbArc
 50
276.6299012779999
 51
0.0
  0
LINE
  5
1568
330
1E
100
AcDbEntity
  8
0
100
AcDbLine
 10
-0.4424341798854954
 20
21.77424172178205
 30
0.0
 11
0.345231983583929
 21
21.83343411247817
 31
0.0
  0
ARC
  5
1569
330
1E
100
AcDbEntity
  8
0
100
AcDbCircle
 10
-0.4349708120905405
 20
21.61687279190358
 30
0.0
 40
0.05
100
AcDbArc
 50
96.62990127799989
 51
180.0
  0
ARC
  5
156A
330
1E
100
AcDbEntity
  8
0
100
AcDbCircle
 10
0.3386459064172698
 20
21.77539644734137
 30
0.0
 40
0.05
100
AcDbArc
 50
276.6299012779999
 51
0.0
  0
LINE
  5
156B
330
1E
100
AcDbEntity
  8
0
100
AcDbLine
 10
-0.441873220780721
 20
21.66653842427442
 30
0.0
 11
0.3457929426887034
 21
21.72573081497054
 31
0.0
  0
ARC
  5
156C
330
1E
100
AcDbEntity
  8
0
100
AcDbCircle
 10
-0.4360927303000892
 20
21.50904302770726
 30
0.0
 40
0.05
100
AcDbArc
 50
96.62990127799989
 51
180.0
  0
ARC
  5
156D
330
1E
100
AcDbEntity
  8
0
100
AcDbCircle
 10
0.337523988207721
 20
21.66756668314505
 30
0.0
 40
0.05
100
AcDbArc
 50
276.6299012779999
 51
0.0
  0
LINE
  5
156E
330
1E
100
AcDbEntity
  8
0
100
AcDbLine
 10
-0.4429951389902698
 20
21.5587086600781
 30
0.0
 11
0.3446710244791547
 21
21.61790105077422
 31
0.0
  0
ARC
  5
156F
330
1E
100
AcDbEntity
  8
0
100
AcDbCircle
 10
-0.4360927303000892
 20
21.40129757463674
 30
0.0
 40
0.05
100
AcDbArc
 50
96.62990127799989
 51
180.0
  0
ARC
  5
1570
330
1E
100
AcDbEntity
  8
0
100
AcDbCircle
 10
0.337523988207721
 20
21.55982123007453
 30
0.0
 40
0.05
100
AcDbArc
 50
276.6299012779999
 51
0.0
  0
LINE
  5
1571
330
1E
100
AcDbEntity
  8
0
100
AcDbLine
 10
-0.4429951389902698
 20
21.45096320700758
 30
0.0
 11
0.3446710244791547
 21
21.51015559770369
 31
0.0
  0
ARC
  5
1572
330
1E
100
AcDbEntity
  8
0
100
AcDbCircle
 10
-0.4360927303000892
 20
21.29355212156621
 30
0.0
 40
0.05
100
AcDbArc
 50
96.62990127799989
 51
180.0
  0
ARC
  5
1573
330
1E
100
AcDbEntity
  8
0
100
AcDbCircle
 10
0.337523988207721
 20
21.452075777004
 30
0.0
 40
0.05
100
AcDbArc
 50
276.6299012779999
 51
0.0
  0
LINE
  5
1574
330
1E
100
AcDbEntity
  8
0
100
AcDbLine
 10
-0.4429951389902698
 20
21.34321775393705
 30
0.0
 11
0.3446710244791547
 21
21.40241014463317
 31
0.0
  0
ARC
  5
1575
330
1E
100
AcDbEntity
  8
0
100
AcDbCircle
 10
-0.4360927303000892
 20
21.18580653546657
 30
0.0
 40
0.05
100
AcDbArc
 50
96.62990127799989
 51
180.0
  0
ARC
  5
1576
330
1E
100
AcDbEntity
  8
0
100
AcDbCircle
 10
0.337523988207721
 20
21.34433019090436
 30
0.0
 40
0.05
100
AcDbArc
 50
276.6299012779999
 51
0.0
  0
LINE
  5
1577
330
1E
100
AcDbEntity
  8
0
100
AcDbLine
 10
-0.4429951389902698
 20
21.2354721678374
 30
0.0
 11
0.3446710244791547
 21
21.29466455853353
 31
0.0
  0
ARC
  5
1578
330
1E
100
AcDbEntity
  8
0
100
AcDbCircle
 10
-0.4360927303000892
 20
21.07806108239603
 30
0.0
 40
0.05
100
AcDbArc
 50
96.62990127799989
 51
180.0
  0
ARC
  5
1579
330
1E
100
AcDbEntity
  8
0
100
AcDbCircle
 10
0.337523988207721
 20
21.23658473783382
 30
0.0
 40
0.05
100
AcDbArc
 50
276.6299012779999
 51
0.0
  0
LINE
  5
157A
330
1E
100
AcDbEntity
  8
0
100
AcDbLine
 10
-0.4429951389902698
 20
21.12772671476688
 30
0.0
 11
0.3446710244791547
 21
21.18691910546299
 31
0.0
  0
ARC
  5
157B
330
1E
100
AcDbEntity
  8
0
100
AcDbCircle
 10
-0.4360927303000892
 20
20.97031562932551
 30
0.0
 40
0.05
100
AcDbArc
 50
96.62990127799989
 51
180.0
  0
ARC
  5
157C
330
1E
100
AcDbEntity
  8
0
100
AcDbCircle
 10
0.337523988207721
 20
21.1288392847633
 30
0.0
 40
0.05
100
AcDbArc
 50
276.6299012779999
 51
0.0
  0
LINE
  5
157D
330
1E
100
AcDbEntity
  8
0
100
AcDbLine
 10
-0.4429951389902698
 20
21.01998126169634
 30
0.0
 11
0.3446710244791547
 21
21.07917365239247
 31
0.0
  0
ARC
  5
157E
330
1E
100
AcDbEntity
  8
0
100
AcDbCircle
 10
-0.4355317711953148
 20
20.86261233181787
 30
0.0
 40
0.05
100
AcDbArc
 50
96.62990127799989
 51
180.0
  0
ARC
  5
157F
330
1E
100
AcDbEntity
  8
0
100
AcDbCircle
 10
0.3380849473124954
 20
21.02113598725566
 30
0.0
 40
0.05
100
AcDbArc
 50
276.6299012779999
 51
0.0
  0
LINE
  5
1580
330
1E
100
AcDbEntity
  8
0
100
AcDbLine
 10
-0.4424341798854954
 20
20.91227796418872
 30
0.0
 11
0.345231983583929
 21
20.97147035488483
 31
0.0
  0
ARC
  5
1581
330
1E
100
AcDbEntity
  8
0
100
AcDbCircle
 10
-0.4349708120905405
 20
20.75490903431025
 30
0.0
 40
0.05
100
AcDbArc
 50
96.62990127799989
 51
180.0
  0
ARC
  5
1582
330
1E
100
AcDbEntity
  8
0
100
AcDbCircle
 10
0.3386459064172698
 20
20.91343268974804
 30
0.0
 40
0.05
100
AcDbArc
 50
276.6299012779999
 51
0.0
  0
LINE
  5
1583
330
1E
100
AcDbEntity
  8
0
100
AcDbLine
 10
-0.441873220780721
 20
20.80457466668109
 30
0.0
 11
0.3457929426887034
 21
20.8637670573772
 31
0.0
  0
ARC
  5
1584
330
1E
100
AcDbEntity
  8
0
100
AcDbCircle
 10
-0.4360927303000892
 20
20.64707927011394
 30
0.0
 40
0.05
100
AcDbArc
 50
96.62990127799989
 51
180.0
  0
ARC
  5
1585
330
1E
100
AcDbEntity
  8
0
100
AcDbCircle
 10
0.337523988207721
 20
20.80560292555173
 30
0.0
 40
0.05
100
AcDbArc
 50
276.6299012779999
 51
0.0
  0
LINE
  5
1586
330
1E
100
AcDbEntity
  8
0
100
AcDbLine
 10
-0.4429951389902698
 20
20.69674490248477
 30
0.0
 11
0.3446710244791547
 21
20.75593729318089
 31
0.0
  0
ARC
  5
1587
330
1E
100
AcDbEntity
  8
0
100
AcDbCircle
 10
-0.4360927303000892
 20
20.5393338170434
 30
0.0
 40
0.05
100
AcDbArc
 50
96.62990127799989
 51
180.0
  0
ARC
  5
1588
330
1E
100
AcDbEntity
  8
0
100
AcDbCircle
 10
0.337523988207721
 20
20.69785747248119
 30
0.0
 40
0.05
100
AcDbArc
 50
276.6299012779999
 51
0.0
  0
LINE
  5
1589
330
1E
100
AcDbEntity
  8
0
100
AcDbLine
 10
-0.4429951389902698
 20
20.58899944941425
 30
0.0
 11
0.3446710244791547
 21
20.64819184011036
 31
0.0
  0
ARC
  5
158A
330
1E
100
AcDbEntity
  8
0
100
AcDbCircle
 10
-0.4360927303000892
 20
20.43158836397288
 30
0.0
 40
0.05
100
AcDbArc
 50
96.62990127799989
 51
180.0
  0
ARC
  5
158B
330
1E
100
AcDbEntity
  8
0
100
AcDbCircle
 10
0.337523988207721
 20
20.59011201941067
 30
0.0
 40
0.05
100
AcDbArc
 50
276.6299012779999
 51
0.0
  0
LINE
  5
158C
330
1E
100
AcDbEntity
  8
0
100
AcDbLine
 10
-0.4429951389902698
 20
20.48125399634371
 30
0.0
 11
0.3446710244791547
 21
20.54044638703984
 31
0.0
  0
ARC
  5
158D
330
1E
100
AcDbEntity
  8
0
100
AcDbCircle
 10
-0.4362388621493096
 20
20.32383179619862
 30
0.0
 40
0.05
100
AcDbArc
 50
96.62990127799989
 51
180.0
  0
ARC
  5
158E
330
1E
100
AcDbEntity
  8
0
100
AcDbCircle
 10
0.3373778563585006
 20
20.48235545163641
 30
0.0
 40
0.05
100
AcDbArc
 50
276.6299012779999
 51
0.0
  0
LINE
  5
158F
330
1E
100
AcDbEntity
  8
0
100
AcDbLine
 10
-0.4431412708394902
 20
20.37349742856946
 30
0.0
 11
0.3445248926299342
 21
20.43268981926558
 31
0.0
  0
ARC
  5
1590
330
1E
100
AcDbEntity
  8
0
100
AcDbCircle
 10
-0.4362388621493096
 20
20.21608634312809
 30
0.0
 40
0.05
100
AcDbArc
 50
96.62990127799989
 51
180.0
  0
ARC
  5
1591
330
1E
100
AcDbEntity
  8
0
100
AcDbCircle
 10
0.3373778563585006
 20
20.37460999856588
 30
0.0
 40
0.05
100
AcDbArc
 50
276.6299012779999
 51
0.0
  0
LINE
  5
1592
330
1E
100
AcDbEntity
  8
0
100
AcDbLine
 10
-0.4431412708394902
 20
20.26575197549893
 30
0.0
 11
0.3445248926299342
 21
20.32494436619505
 31
0.0
  0
ARC
  5
1593
330
1E
100
AcDbEntity
  8
0
100
AcDbCircle
 10
-0.4362388621493096
 20
20.10834089005756
 30
0.0
 40
0.05
100
AcDbArc
 50
96.62990127799989
 51
180.0
  0
ARC
  5
1594
330
1E
100
AcDbEntity
  8
0
100
AcDbCircle
 10
0.3373778563585006
 20
20.26686454549535
 30
0.0
 40
0.05
100
AcDbArc
 50
276.6299012779999
 51
0.0
  0
LINE
  5
1595
330
1E
100
AcDbEntity
  8
0
100
AcDbLine
 10
-0.4431412708394902
 20
20.1580065224284
 30
0.0
 11
0.3445248926299342
 21
20.21719891312452
 31
0.0
  0
ARC
  5
1596
330
1E
100
AcDbEntity
  8
0
100
AcDbCircle
 10
-0.4356779030445352
 20
20.00063759254993
 30
0.0
 40
0.05
100
AcDbArc
 50
96.62990127799989
 51
180.0
  0
ARC
  5
1597
330
1E
100
AcDbEntity
  8
0
100
AcDbCircle
 10
0.337938815463275
 20
20.15916124798772
 30
0.0
 40
0.05
100
AcDbArc
 50
276.6299012779999
 51
0.0
  0
LINE
  5
1598
330
1E
100
AcDbEntity
  8
0
100
AcDbLine
 10
-0.4425803117347158
 20
20.05030322492077
 30
0.0
 11
0.3450858517347086
 21
20.10949561561689
 31
0.0
  0
ARC
  5
1599
330
1E
100
AcDbEntity
  8
0
100
AcDbCircle
 10
-0.4351169439397609
 20
19.8929342950423
 30
0.0
 40
0.05
100
AcDbArc
 50
96.62990127799989
 51
180.0
  0
ARC
  5
159A
330
1E
100
AcDbEntity
  8
0
100
AcDbCircle
 10
0.3384997745680494
 20
20.05145795048009
 30
0.0
 40
0.05
100
AcDbArc
 50
276.6299012779999
 51
0.0
  0
LINE
  5
159B
330
1E
100
AcDbEntity
  8
0
100
AcDbLine
 10
-0.4420193526299414
 20
19.94259992741314
 30
0.0
 11
0.345646810839483
 21
20.00179231810926
 31
0.0
  0
ARC
  5
159C
330
1E
100
AcDbEntity
  8
0
100
AcDbCircle
 10
-0.4362388621493096
 20
19.78510453084599
 30
0.0
 40
0.05
100
AcDbArc
 50
96.62990127799989
 51
180.0
  0
ARC
  5
159D
330
1E
100
AcDbEntity
  8
0
100
AcDbCircle
 10
0.3373778563585006
 20
19.94362818628378
 30
0.0
 40
0.05
100
AcDbArc
 50
276.6299012779999
 51
0.0
  0
LINE
  5
159E
330
1E
100
AcDbEntity
  8
0
100
AcDbLine
 10
-0.4431412708394902
 20
19.83477016321682
 30
0.0
 11
0.3445248926299342
 21
19.89396255391294
 31
0.0
  0
ARC
  5
159F
330
1E
100
AcDbEntity
  8
0
100
AcDbCircle
 10
-0.4362388621493096
 20
19.67735907777546
 30
0.0
 40
0.05
100
AcDbArc
 50
96.62990127799989
 51
180.0
  0
ARC
  5
15A0
330
1E
100
AcDbEntity
  8
0
100
AcDbCircle
 10
0.3373778563585006
 20
19.83588273321325
 30
0.0
 40
0.05
100
AcDbArc
 50
276.6299012779999
 51
0.0
  0
LINE
  5
15A1
330
1E
100
AcDbEntity
  8
0
100
AcDbLine
 10
-0.4431412708394902
 20
19.7270247101463
 30
0.0
 11
0.3445248926299342
 21
19.78621710084241
 31
0.0
  0
ARC
  5
15A2
330
1E
100
AcDbEntity
  8
0
100
AcDbCircle
 10
-0.4362388621493096
 20
19.56961362470493
 30
0.0
 40
0.05
100
AcDbArc
 50
96.62990127799989
 51
180.0
  0
ARC
  5
15A3
330
1E
100
AcDbEntity
  8
0
100
AcDbCircle
 10
0.3373778563585006
 20
19.72813728014272
 30
0.0
 40
0.05
100
AcDbArc
 50
276.6299012779999
 51
0.0
  0
LINE
  5
15A4
330
1E
100
AcDbEntity
  8
0
100
AcDbLine
 10
-0.4431412708394902
 20
19.61927925707577
 30
0.0
 11
0.3445248926299342
 21
19.67847164777189
 31
0.0
  0
ARC
  5
15BF
330
1E
100
AcDbEntity
  8
0
100
AcDbCircle
 10
30.48634086185207
 20
11.33361280209127
 30
0.0
 40
30.09937714432021
100
AcDbArc
 50
178.640620738057
 51
197.5682922791396
  0
LINE
  5
15C8
330
1E
100
AcDbEntity
  8
0
100
AcDbLine
 10
0.9768688156061813
 20
1.923284629945194
 30
0.0
 11
1.719818799371097
 21
2.21997524594736
 31
0.0
  0
LINE
  5
15C9
330
1E
100
AcDbEntity
  8
0
100
AcDbLine
 10
2.472883132155346
 20
0.6567409709675438
 30
0.0
 11
1.507762792632903
 21
0.2713285551840485
 31
0.0
  0
LINE
  5
15CB
330
1E
100
AcDbEntity
  8
0
100
AcDbLine
 10
2.297195211434826
 20
0.6296530675252079
 30
0.0
 11
2.061504186082715
 21
1.219852534628043
 31
0.0
  0
LINE
  5
15CC
330
1E
100
AcDbEntity
  8
0
100
AcDbLine
 10
2.618901991275649
 20
0.7581238727863706
 30
0.0
 11
2.383210965923524
 21
1.348323339889198
 31
0.0
  0
LINE
  5
15CD
330
1E
100
AcDbEntity
  8
0
100
AcDbLine
 10
1.653781651753178
 20
0.3727114570028789
 30
0.0
 11
1.418090626401082
 21
0.9629109241057101
 31
0.0
  0
LINE
  5
15CE
330
1E
100
AcDbEntity
  8
0
100
AcDbLine
 10
1.332074871912383
 20
0.2442406517417126
 30
0.0
 11
1.096383846560272
 21
0.8344401188445474
 31
0.0
  0
ARC
  5
15CF
330
1E
100
AcDbEntity
  8
0
100
AcDbCircle
 10
2.326392140504282
 20
1.023572525451456
 30
0.0
 40
0.3949999999999989
100
AcDbArc
 50
265.761043343341
 51
317.7766911146174
  0
ARC
  5
15D0
330
1E
100
AcDbEntity
  8
0
100
AcDbCircle
 10
1.426610791990044
 20
1.875639732229097
 30
0.0
 40
1.520000000000003
100
AcDbArc
 50
278.5953161217206
 51
304.942418336238
  0
ARC
  5
15D1
330
1E
100
AcDbEntity
  8
0
100
AcDbCircle
 10
1.361271800981825
 20
0.6381601096679681
 30
0.0
 40
0.3949999999999989
100
AcDbArc
 50
265.761043343341
 51
317.7766911146174
  0
ARC
  5
15D2
330
1E
100
AcDbEntity
  8
0
100
AcDbCircle
 10
2.354014036854082
 20
0.9544038819629463
 30
0.0
 40
0.3949999999999989
100
AcDbArc
 50
85.76104334334916
 51
137.7766911146094
  0
ARC
  5
15D3
330
1E
100
AcDbEntity
  8
0
100
AcDbCircle
 10
2.288675045845906
 20
-0.2830757405981785
 30
0.0
 40
1.520000000000003
100
AcDbArc
 50
98.59531612172059
 51
124.9424183362379
  0
ARC
  5
15D4
330
1E
100
AcDbEntity
  8
0
100
AcDbCircle
 10
1.388893697331653
 20
0.5689914661794582
 30
0.0
 40
0.3949999999999989
100
AcDbArc
 50
85.76104334334916
 51
137.7766911146094
  0
LINE
  5
15D5
330
1E
100
AcDbEntity
  8
0
100
AcDbLine
 10
0.7154945353293769
 20
1.044235335095294
 30
0.0
 11
2.511913253552571
 21
1.770035609838619
 31
0.0
  0
LINE
  5
15D7
330
1E
100
AcDbEntity
  8
0
100
AcDbLine
 10
0.7154945353293769
 20
1.044235335095294
 30
0.0
 11
0.8267535163302071
 21
0.765629091183456
 31
0.0
  0
LINE
  5
15D8
330
1E
100
AcDbEntity
  8
0
100
AcDbLine
 10
2.511913253552571
 20
1.770035609838619
 30
0.0
 11
2.623172234553358
 21
1.491429365926784
 31
0.0
  0
LINE
  5
15DA
330
1E
100
AcDbEntity
  8
0
100
AcDbLine
 10
1.830903977249875
 20
2.264336145838023
 30
0.0
 11
0.865783637727418
 21
1.878923730054527
 31
0.0
  0
ARC
  5
15DB
330
1E
100
AcDbEntity
  8
0
100
AcDbCircle
 10
0.984652733028625
 20
1.581260819059125
 30
0.0
 40
0.3949999999999989
100
AcDbArc
 50
265.761043343341
 51
317.7766911146174
  0
ARC
  5
15DC
330
1E
100
AcDbEntity
  8
0
100
AcDbCircle
 10
1.012274629378481
 20
1.512092175570615
 30
0.0
 40
0.3949999999999989
100
AcDbArc
 50
85.76104334334916
 51
137.7766911146094
  0
LINE
  5
15DD
330
1E
100
AcDbEntity
  8
0
100
AcDbLine
 10
0.9554558039592394
 20
1.187341361132873
 30
0.0
 11
0.7197647786071428
 21
1.777540828235708
 31
0.0
  0
LINE
  5
15DE
330
1E
100
AcDbEntity
  8
0
100
AcDbLine
 10
1.920576143481696
 20
1.572753776916368
 30
0.0
 11
1.684885118129571
 21
2.162953244019199
 31
0.0
  0
LINE
  5
15DF
330
1E
100
AcDbEntity
  8
0
100
AcDbLine
 10
2.242282923322506
 20
1.701224582177527
 30
0.0
 11
2.006591897970381
 21
2.291424049280359
 31
0.0
  0
LINE
  5
15E0
330
1E
100
AcDbEntity
  8
0
100
AcDbLine
 10
1.277162583800063
 20
1.315812166394039
 30
0.0
 11
1.041471558447924
 21
1.906011633496867
 31
0.0
  0
ARC
  5
15E1
330
1E
100
AcDbEntity
  8
0
100
AcDbCircle
 10
1.049991724036872
 20
2.818740441620253
 30
0.0
 40
1.520000000000003
100
AcDbArc
 50
278.5953161217206
 51
304.942418336238
  0
ARC
  5
15E2
330
1E
100
AcDbEntity
  8
0
100
AcDbCircle
 10
1.949773072551139
 20
1.966673234842617
 30
0.0
 40
0.3949999999999989
100
AcDbArc
 50
265.761043343341
 51
317.7766911146174
  0
ARC
  5
15E3
330
1E
100
AcDbEntity
  8
0
100
AcDbCircle
 10
1.912055977892763
 20
0.6600249687929747
 30
0.0
 40
1.520000000000003
100
AcDbArc
 50
98.59531612172059
 51
124.9424183362379
  0
ARC
  5
15E4
330
1E
100
AcDbEntity
  8
0
100
AcDbCircle
 10
1.977394968900953
 20
1.897504591354107
 30
0.0
 40
0.3949999999999989
100
AcDbArc
 50
85.76104334334916
 51
137.7766911146094
  0
ARC
  5
15E5
330
1E
100
AcDbEntity
  8
0
100
AcDbCircle
 10
1.426610791990044
 20
1.875639732229097
 30
0.0
 40
1.520000000000003
100
AcDbArc
 50
278.5953161217206
 51
304.9424183362379
  0
LINE
  5
15E6
330
1E
100
AcDbEntity
  8
0
100
AcDbLine
 10
2.472883132155346
 20
0.6567409709675438
 30
0.0
 11
1.507762792632903
 21
0.2713285551840485
 31
0.0
  0
LINE
  5
15E9
330
1E
100
AcDbEntity
  8
0
100
AcDbLine
 10
1.675277775051161
 20
0.0360758758023962
 30
0.0
 11
2.48663708752397
 21
0.3728725814198803
 31
0.0
  0
ARC
  5
1612
330
1E
100
AcDbEntity
  8
0
100
AcDbCircle
 10
29.57868375407083
 20
11.32201576781118
 30
0.0
 40
30.09937714432021
100
AcDbArc
 50
201.4874627219095
 51
202.0215889506223
  0
LINE
  5
1615
330
1E
100
AcDbEntity
  8
0
100
AcDbLine
 10
2.391859557085578
 20
0.6182707908192775
 30
0.0
 11
2.48663708752397
 21
0.3728725814198803
 31
0.0
  0
LINE
  5
1627
330
1E
100
AcDbEntity
  8
0
100
AcDbLine
 10
-0.0490185237843299
 20
26.15097444769
 30
0.0
 11
1.223612940957384
 21
26.16050178108432
 31
0.0
  0
LINE
  5
1637
330
1E
100
AcDbEntity
  8
0
100
AcDbLine
 10
-0.0490185237843299
 20
27.02597111577717
 30
0.0
 11
1.223612940957384
 21
27.03049817816182
 31
0.0
  0
LINE
  5
1650
330
1E
100
AcDbEntity
  8
0
100
AcDbLine
 10
1.934156856081803
 20
26.21877854558048
 30
0.0
 11
1.587383300564238
 21
25.84205749493425
 31
0.0
  0
LINE
  5
1651
330
1E
100
AcDbEntity
  8
0
100
AcDbLine
 10
1.93415685608181
 20
26.21877854558048
 30
0.0
 11
1.93415685608181
 21
26.97222064687294
 31
0.0
  0
LINE
  5
1652
330
1E
100
AcDbEntity
  8
0
100
AcDbLine
 10
1.934156856081803
 20
26.97222064687294
 30
0.0
 11
1.587383300564238
 21
27.34894169751917
 31
0.0
  0
LINE
  5
1653
330
1E
100
AcDbEntity
  8
0
100
AcDbLine
 10
2.204202079452283
 20
26.21877854558048
 30
0.0
 11
1.857428523934711
 21
25.84205749493425
 31
0.0
  0
LINE
  5
1654
330
1E
100
AcDbEntity
  8
0
100
AcDbLine
 10
2.204202079452291
 20
26.21877854558048
 30
0.0
 11
2.204202079452291
 21
26.97222064687294
 31
0.0
  0
LINE
  5
1655
330
1E
100
AcDbEntity
  8
0
100
AcDbLine
 10
2.204202079452283
 20
26.97222064687294
 30
0.0
 11
1.857428523934711
 21
27.34894169751917
 31
0.0
  0
LINE
  5
1656
330
1E
100
AcDbEntity
  8
0
100
AcDbLine
 10
1.934156856081803
 20
26.97222064687294
 30
0.0
 11
2.204202079452283
 21
26.97222064687294
 31
0.0
  0
LINE
  5
1657
330
1E
100
AcDbEntity
  8
0
100
AcDbLine
 10
1.934156856081803
 20
26.21877854558048
 30
0.0
 11
2.204202079452283
 21
26.21877854558048
 31
0.0
  0
LINE
  5
1658
330
1E
100
AcDbEntity
  8
0
100
AcDbLine
 10
2.528700800636013
 20
27.68300003106806
 30
0.0
 11
2.528700800636013
 21
25.50800003106807
 31
0.0
  0
ELLIPSE
  5
1659
330
1E
100
AcDbEntity
  8
0
100
AcDbEllipse
 10
1.223612940957384
 20
26.59549997962307
 30
0.0
 11
0.0
 21
0.4349981985387544
 31
0.0
210
0.0
220
0.0
230
1.0
 40
0.9473804039203565
 41
3.141592653589793
 42
6.283185307179586
  0
LINE
  5
165A
330
1E
100
AcDbEntity
  8
0
100
AcDbLine
 10
0.861706871249087
 20
26.16049750385262
 30
0.0
 11
1.154832845265485
 21
25.8420570600929
 31
0.0
  0
LINE
  5
165B
330
1E
100
AcDbEntity
  8
0
100
AcDbLine
 10
1.154832845265485
 20
25.8420570600929
 30
0.0
 11
1.857428523934711
 21
25.84205749493425
 31
0.0
  0
LINE
  5
165C
330
1E
100
AcDbEntity
  8
0
100
AcDbLine
 10
0.8617008297250699
 20
27.03049425564577
 30
0.0
 11
1.154832845265485
 21
27.34894126267782
 31
0.0
  0
LINE
  5
165D
330
1E
100
AcDbEntity
  8
0
100
AcDbLine
 10
1.154832845265485
 20
27.34894126267782
 30
0.0
 11
1.857428523934711
 21
27.34894169751917
 31
0.0
  0
LINE
  5
165E
330
1E
100
AcDbEntity
  8
0
100
AcDbLine
 10
0.7875994001133186
 20
26.16049704671892
 30
0.0
 11
0.7875994001133186
 21
25.50799916138537
 31
0.0
  0
LINE
  5
165F
330
1E
100
AcDbEntity
  8
0
100
AcDbLine
 10
0.7875994001133186
 20
25.50799916138537
 30
0.0
 11
2.656176831305647
 21
25.50799916138537
 31
0.0
  0
LINE
  5
1660
330
1E
100
AcDbEntity
  8
0
100
AcDbLine
 10
2.656176831305647
 20
25.50799916138537
 30
0.0
 11
2.656176831305647
 21
27.68299916138537
 31
0.0
  0
LINE
  5
1661
330
1E
100
AcDbEntity
  8
0
100
AcDbLine
 10
2.656176831305647
 20
27.68299916138537
 30
0.0
 11
0.7875994001133186
 21
27.68299916138537
 31
0.0
  0
LINE
  5
1662
330
1E
100
AcDbEntity
  8
0
100
AcDbLine
 10
0.7875994001133186
 20
27.68299916138537
 30
0.0
 11
0.7875994001133186
 21
27.03049384075086
 31
0.0
  0
ELLIPSE
  5
1663
330
1E
100
AcDbEntity
  8
0
100
AcDbEllipse
 10
1.371108072914847
 20
26.5954992700957
 30
0.0
 11
0.0
 21
0.7534419925821225
 31
0.0
210
0.0
220
0.0
230
1.0
 40
0.7473020998437042
 41
2.186275186594725
 42
7.238506440005137
  0
LINE
  5
1755
330
1E
100
AcDbEntity
  8
0
100
AcDbLine
 10
0.8267535163302071
 20
0.765629091183456
 30
0.0
 11
2.623172234553358
 21
1.491429365926784
 31
0.0
  0
ARC
  5
1792
330
1E
100
AcDbEntity
  8
0
100
AcDbCircle
 10
1.058300494804598
 20
1.957561671772375
 30
0.0
 40
0.05
100
AcDbArc
 50
120.2699696185625
 51
203.6400683405626
  0
ARC
  5
1793
330
1E
100
AcDbEntity
  8
0
100
AcDbCircle
 10
1.69460988329276
 20
2.410791537463336
 30
0.0
 40
0.05
100
AcDbArc
 50
300.2699696185625
 51
23.64006834056262
  0
LINE
  5
1794
330
1E
100
AcDbEntity
  8
0
100
AcDbLine
 10
1.032061908301497
 20
2.000291694740316
 30
0.0
 11
1.719813634485865
 21
2.367608543984467
 31
0.0
  0
ARC
  5
17BA
330
1E
100
AcDbEntity
  8
0
100
AcDbCircle
 10
1.643534534552188
 20
0.2550021129511713
 30
0.0
 40
0.05
100
AcDbArc
 50
117.9431084069632
 51
201.3132071289633
  0
LINE
  5
17BC
330
1E
100
AcDbEntity
  8
0
100
AcDbLine
 10
1.61905243116081
 20
0.2987621963383766
 30
0.0
 11
1.831633565892226
 21
0.4006635324007846
 31
0.0
  0
ARC
  5
17BD
330
1E
100
AcDbEntity
  8
0
100
AcDbCircle
 10
1.682696341565718
 20
0.1546256439516647
 30
0.0
 40
0.05
100
AcDbArc
 50
117.9431084069632
 51
201.3132071289633
  0
ARC
  5
17BE
330
1E
100
AcDbEntity
  8
0
100
AcDbCircle
 10
2.345785499626954
 20
0.5834908266720476
 30
0.0
 40
0.05
100
AcDbArc
 50
297.9431084069632
 51
21.31320712896331
  0
LINE
  5
17BF
330
1E
100
AcDbEntity
  8
0
100
AcDbLine
 10
1.65821423817434
 20
0.1983857273388736
 30
0.0
 11
2.370495499900535
 21
0.5398196570891329
 31
0.0
  0
ARC
  5
17C0
330
1E
100
AcDbEntity
  8
0
100
AcDbCircle
 10
1.721858148579248
 20
0.0542491749521616
 30
0.0
 40
0.05
100
AcDbArc
 50
117.9431084069632
 51
201.3132071289633
  0
ARC
  5
17C1
330
1E
100
AcDbEntity
  8
0
100
AcDbCircle
 10
2.384947306640486
 20
0.4831143576725445
 30
0.0
 40
0.05
100
AcDbArc
 50
297.9431084069632
 51
21.31320712896331
  0
LINE
  5
17C2
330
1E
100
AcDbEntity
  8
0
100
AcDbLine
 10
1.69737604518787
 20
0.098009258339367
 30
0.0
 11
2.409657306914063
 21
0.4394431880896264
 31
0.0
  0
ARC
  5
17C6
330
1E
100
AcDbEntity
  8
0
100
AcDbCircle
 10
1.723953726302991
 20
2.304100731785887
 30
0.0
 40
0.05
100
AcDbArc
 50
300.2699696185625
 51
23.64006834056262
  0
LINE
  5
17C7
330
1E
100
AcDbEntity
  8
0
100
AcDbLine
 10
1.532251806089287
 20
2.145071998091492
 30
0.0
 11
1.749157477496095
 21
2.260917738307022
 31
0.0
  0
ARC
  5
17C8
330
1E
100
AcDbEntity
  8
0
100
AcDbCircle
 10
1.027542244268481
 20
2.06425247744982
 30
0.0
 40
0.05
100
AcDbArc
 50
120.2699696185625
 51
203.6400683405626
  0
ARC
  5
17C9
330
1E
100
AcDbEntity
  8
0
100
AcDbCircle
 10
1.663851632756643
 20
2.517482343140785
 30
0.0
 40
0.05
100
AcDbArc
 50
300.2699696185625
 51
23.64006834056262
  0
LINE
  5
17CA
330
1E
100
AcDbEntity
  8
0
100
AcDbLine
 10
1.00130365776538
 20
2.106982500417765
 30
0.0
 11
1.689055383949748
 21
2.474299349661912
 31
0.0
  0
ARC
  5
17CB
330
1E
100
AcDbEntity
  8
0
100
AcDbCircle
 10
0.9967839937323362
 20
2.170943283127251
 30
0.0
 40
0.05
100
AcDbArc
 50
120.2699696185625
 51
203.6400683405626
  0
ARC
  5
17CC
330
1E
100
AcDbEntity
  8
0
100
AcDbCircle
 10
1.633093382220498
 20
2.624173148818215
 30
0.0
 40
0.05
100
AcDbArc
 50
300.2699696185625
 51
23.64006834056262
  0
LINE
  5
17CD
330
1E
100
AcDbEntity
  8
0
100
AcDbLine
 10
0.9705454072292348
 20
2.213673306095195
 30
0.0
 11
1.658297133413603
 21
2.580990155339343
 31
0.0
  0
ARC
  5
17CE
330
1E
100
AcDbEntity
  8
0
100
AcDbCircle
 10
0.9660257431961909
 20
2.277634088804682
 30
0.0
 40
0.05
100
AcDbArc
 50
120.2699696185625
 51
203.6400683405626
  0
ARC
  5
17CF
330
1E
100
AcDbEntity
  8
0
100
AcDbCircle
 10
1.602335131684352
 20
2.730863954495646
 30
0.0
 40
0.05
100
AcDbArc
 50
300.2699696185625
 51
23.64006834056262
  0
LINE
  5
17D0
330
1E
100
AcDbEntity
  8
0
100
AcDbLine
 10
0.9397871566930895
 20
2.320364111772626
 30
0.0
 11
1.627538882877458
 21
2.687680961016774
 31
0.0
  0
CIRCLE
  5
17EA
330
1E
100
AcDbEntity
  8
0
100
AcDbCircle
 10
1.863333092639353
 20
0.7848555307698817
 30
0.0
 40
0.185
  0
ENDSEC
  0
SECTION
  2
OBJECTS
  0
DICTIONARY
  5
C
330
0
100
AcDbDictionary
281
     1
  3
ACAD_COLOR
350
B4F
  3
ACAD_GROUP
350
D
  3
ACAD_LAYOUT
350
19
  3
ACAD_MATERIAL
350
B4E
  3
ACAD_MLINESTYLE
350
16
  3
ACAD_PLOTSETTINGS
350
18
  3
ACAD_PLOTSTYLENAME
350
E
  3
ACAD_TABLESTYLE
350
B50
  3
AcDbVariableDictionary
350
BE2
  0
DICTIONARY
  5
C09
330
2
100
AcDbDictionary
280
     1
281
     1
  3
ACAD_LAYERFILTERS
360
1868
  3
ACAD_LAYERSTATES
360
C0A
  3
ACLYDICTIONARY
360
1867
  0
DICTIONARY
  5
82F
330
1E
100
AcDbDictionary
280
     1
281
     1
  3
ACAD_SORTENTS
360
1613
  0
DICTIONARY
  5
B4F
102
{ACAD_REACTORS
330
C
102
}
330
C
100
AcDbDictionary
281
     1
  0
DICTIONARY
  5
D
102
{ACAD_REACTORS
330
C
102
}
330
C
100
AcDbDictionary
281
     1
  0
DICTIONARY
  5
19
102
{ACAD_REACTORS
330
C
102
}
330
C
100
AcDbDictionary
281
     1
  3
Layout1
350
1D
  3
Model
350
21
  0
DICTIONARY
  5
B4E
102
{ACAD_REACTORS
330
C
102
}
330
C
100
AcDbDictionary
281
     1
  0
DICTIONARY
  5
16
102
{ACAD_REACTORS
330
C
102
}
330
C
100
AcDbDictionary
281
     1
  3
Standard
350
17
  0
DICTIONARY
  5
18
102
{ACAD_REACTORS
330
C
102
}
330
C
100
AcDbDictionary
281
     1
  0
ACDBDICTIONARYWDFLT
  5
E
102
{ACAD_REACTORS
330
C
102
}
330
C
100
AcDbDictionary
281
     1
  3
Normal
350
F
100
AcDbDictionaryWithDefault
340
F
  0
DICTIONARY
  5
B50
102
{ACAD_REACTORS
330
C
102
}
330
C
100
AcDbDictionary
281
     1
  3
Standard
350
B51
  0
DICTIONARY
  5
BE2
102
{ACAD_REACTORS
330
C
102
}
330
C
100
AcDbDictionary
281
     1
  3
CTABLESTYLE
350
BE3
  3
DIMASSOC
350
F7D
  0
DICTIONARY
  5
1868
102
{ACAD_REACTORS
330
C09
102
}
330
C09
100
AcDbDictionary
281
     1
  0
DICTIONARY
  5
C0A
102
{ACAD_REACTORS
330
C09
102
}
330
C09
100
AcDbDictionary
281
     1
  0
DICTIONARY
  5
1867
102
{ACAD_REACTORS
330
C09
102
}
330
C09
100
AcDbDictionary
281
     1
1001
ACAD
1000
<All
  0
SORTENTSTABLE
  5
1613
102
{ACAD_REACTORS
330
82F
102
}
330
82F
100
AcDbSortentsTable
330
1E
331
0
  5
A94
331
159B
  5
159B
331
1541
  5
1541
331
1544
  5
1544
331
1561
  5
1561
331
1574
  5
1574
331
159A
  5
159A
331
1598
  5
1598
331
1596
  5
1596
331
15DD
  5
15DD
331
15A3
  5
15A3
331
1515
  5
1515
331
1533
  5
1533
331
15A0
  5
15A0
331
154F
  5
154F
331
1612
  5
15F1
331
1539
  5
1539
331
1542
  5
1542
331
15DB
  5
15DB
331
13DF
  5
13DF
331
8AE
  5
8AE
331
13B5
  5
13B5
331
1567
  5
1567
331
159E
  5
159E
331
1564
  5
1564
331
1591
  5
1591
331
1590
  5
1590
331
159F
  5
159F
331
15C9
  5
15C9
331
15D3
  5
15D3
331
15A4
  5
15A4
331
15D2
  5
15D2
331
15D8
  5
15D8
331
158F
  5
158F
331
158E
  5
158E
331
158D
  5
158D
331
158C
  5
158C
331
15A1
  5
15A1
331
15D5
  5
15D5
331
15D1
  5
15D1
331
154B
  5
154B
331
1572
  5
1572
331
8AB
  5
8AB
331
15D0
  5
15D0
331
13CA
  5
13CA
331
1578
  5
1578
331
14A0
  5
14A0
331
15DF
  5
15DF
331
8AD
  5
8AD
331
15D4
  5
15D4
331
158A
  5
158A
331
1573
  5
1573
331
15BF
  5
15BF
331
1599
  5
1599
331
1555
  5
1555
331
15CB
  5
15CB
331
15CC
  5
15CC
331
1534
  5
1534
331
1543
  5
1543
331
15CF
  5
15CF
331
470
  5
470
331
1579
  5
1579
331
15E6
  5
15E6
331
8B2
  5
8B2
331
1566
  5
1566
331
155A
  5
155A
331
1558
  5
1558
331
473
  5
473
331
1536
  5
1536
331
13C8
  5
13C8
331
15A2
  5
15A2
331
153B
  5
153B
331
157C
  5
157C
331
157B
  5
157B
331
1581
  5
1581
331
13C6
  5
13C6
331
1548
  5
1548
331
153C
  5
153C
331
1557
  5
1557
331
1568
  5
1568
331
1554
  5
1554
331
1560
  5
1560
331
8A9
  5
8A9
331
156E
  5
156E
331
13C7
  5
13C7
331
1535
  5
1535
331
15E0
  5
15E0
331
15CD
  5
15CD
331
1553
  5
1553
331
15DC
  5
15DC
331
1538
  5
1538
331
15E5
  5
15E5
331
13B2
  5
13B2
331
8B0
  5
8B0
331
1530
  5
1530
331
1513
  5
1513
331
1547
  5
1547
331
13AB
  5
13AB
331
15DE
  5
15DE
331
153E
  5
153E
331
15CE
  5
15CE
331
1531
  5
1531
331
13C9
  5
13C9
331
153D
  5
153D
331
1583
  5
1583
331
1592
  5
1592
331
153F
  5
153F
331
157F
  5
157F
331
154D
  5
154D
331
1537
  5
1537
331
1552
  5
1552
331
157D
  5
157D
331
157A
  5
157A
331
1551
  5
1551
331
1569
  5
1569
331
159D
  5
159D
331
15E9
  5
15E9
331
1588
  5
1588
331
1589
  5
1589
331
1584
  5
1584
331
E2A
  5
E2A
331
15E2
  5
15E2
331
155D
  5
155D
331
13E9
  5
13E9
331
1595
  5
1595
331
1597
  5
1597
331
1594
  5
1594
331
8AF
  5
8AF
331
14A2
  5
14A2
331
150F
  5
150F
331
1545
  5
1545
331
15E3
  5
15E3
331
1540
  5
1540
331
1565
  5
1565
331
156F
  5
156F
331
8AA
  5
8AA
331
14A1
  5
14A1
331
1514
  5
1514
331
474
  5
474
331
1586
  5
1586
331
1587
  5
1587
331
15DA
  5
15DA
331
1577
  5
1577
331
8B5
  5
8B5
331
8B6
  5
8B6
331
15D7
  5
15D7
331
155E
  5
155E
331
1559
  5
1559
331
1532
  5
1532
331
1575
  5
1575
331
15E4
  5
15E4
331
154E
  5
154E
331
156C
  5
156C
331
1556
  5
1556
331
1550
  5
1550
331
156D
  5
156D
331
154C
  5
154C
331
156B
  5
156B
331
8B3
  5
8B3
331
8B1
  5
8B1
331
13C5
  5
13C5
331
1563
  5
1563
331
1546
  5
1546
331
1512
  5
1512
331
1593
  5
1593
331
1582
  5
1582
331
15E1
  5
15E1
331
1585
  5
1585
331
149F
  5
149F
331
1549
  5
1549
331
1570
  5
1570
331
155C
  5
155C
331
8AC
  5
8AC
331
1562
  5
1562
331
153A
  5
153A
331
158B
  5
158B
331
159C
  5
159C
331
155F
  5
155F
331
157E
  5
157E
331
1571
  5
1571
331
1580
  5
1580
331
1576
  5
1576
331
156A
  5
156A
331
154A
  5
154A
331
155B
  5
155B
331
15C8
  5
15C8
  0
LAYOUT
  5
1D
102
{ACAD_REACTORS
330
19
102
}
330
19
100
AcDbPlotSettings
  1

  2
C:\ACAD2000\plotters\HP LaserJet 2100 Series PS.pc3
  4

  6

 40
0.0
 41
0.0
 42
0.0
 43
0.0
 44
0.0
 45
0.0
 46
0.0
 47
0.0
 48
0.0
 49
0.0
140
0.0
141
0.0
142
1.0
143
1.0
 70
   688
 72
     0
 73
     0
 74
     5
  7
monochrome.ctb
 75
    16
 76
     0
 77
     2
 78
   300
147
1.0
148
0.0
149
0.0
100
AcDbLayout
  1
Layout1
 70
     0
 71
     1
 10
0.0
 20
0.0
 11
12.0
 21
9.0
 12
0.0
 22
0.0
 32
0.0
 14
1.000000000000000E+20
 24
1.000000000000000E+20
 34
1.000000000000000E+20
 15
-1.000000000000000E+20
 25
-1.000000000000000E+20
 35
-1.000000000000000E+20
146
0.0
 13
0.0
 23
0.0
 33
0.0
 16
1.0
 26
0.0
 36
0.0
 17
0.0
 27
1.0
 37
0.0
 76
     0
330
1A
  0
LAYOUT
  5
21
102
{ACAD_REACTORS
330
19
102
}
330
19
100
AcDbPlotSettings
  1

  2
HP LaserJet 2100 Series PS
  4
Letter
  6

 40
5.365749835968018
 41
5.408073902130127
 42
5.132904052734375
 43
5.090576171875
 44
215.8999938964844
 45
279.3999938964844
 46
0.0
 47
0.0
 48
0.0
 49
0.0
140
0.0
141
0.0
142
1.0
143
2.976609345163682
 70
 28336
 72
     0
 73
     0
 74
     1
  7
monochrome.ctb
 75
     0
 76
     0
 77
     2
 78
   300
147
0.3359527180228652
148
0.0186558713093291
149
0.0244152514081676
100
AcDbLayout
  1
Model
 70
     1
 71
     0
 10
0.0
 20
0.0
 11
12.0
 21
9.0
 12
0.0
 22
0.0
 32
0.0
 14
0.0
 24
0.0
 34
0.0
 15
0.0
 25
0.0
 35
0.0
146
0.0
 13
0.0
 23
0.0
 33
0.0
 16
1.0
 26
0.0
 36
0.0
 17
0.0
 27
1.0
 37
0.0
 76
     0
330
1E
1001
ACAD_PSEXT
1000
HP LaserJet 2100 Series PS
1000
HP LaserJet 2100 Series PS
1000
LPT1:
1000

1070
     0
  0
MLINESTYLE
  5
17
102
{ACAD_REACTORS
330
16
102
}
330
16
100
AcDbMlineStyle
  2
STANDARD
 70
     0
  3

 62
   256
 51
90.0
 52
90.0
 71
     2
 49
0.5
 62
   256
  6
BYLAYER
 49
-0.5
 62
   256
  6
BYLAYER
  0
ACDBPLACEHOLDER
  5
F
102
{ACAD_REACTORS
330
E
102
}
330
E
  0
ACAD_PROXY_OBJECT
  5
B51
102
{ACAD_REACTORS
330
B50
102
}
330
B50
100
AcDbProxyObject
 90
      499
 91
      519
 95
   983063
 70
     0
 93
     1841
310
4214DD185B99185C9928B81E85EB51B8AE3F2E07A17AD46E2B8FC02B5E8DC0F42B1CFD028000000C1008070000C3001FDFF8000000C1003FBFF000000182007F7FE00000030400FEFFC00000060801FDFF8000000C1003FBFF00000018200000000000000681FA0B0000001820100E000186003FBFF000000182007F7FE000
310
00030400FEFFC00000060801FDFF8000000C1003FBFF000000182007F7FE000000304000AD7A3703D0AC73F4160000003040201C00030C007F7FE00000030400FEFFC00000060801FDFF8000000C1003FBFF000000182007F7FE00000030400FEFFC000000608000
340
11
340
11
340
11
 94
        0
  0
DICTIONARYVAR
  5
BE3
102
{ACAD_REACTORS
330
BE2
102
}
330
BE2
100
DictionaryVariables
280
     0
  1
STANDARD
  0
DICTIONARYVAR
  5
F7D
102
{ACAD_REACTORS
330
BE2
102
}
330
BE2
100
DictionaryVariables
280
     0
  1
0
  0
ENDSEC
  0
EOF
