  0
SECTION
  2
HEADER
  9
$ACADVER
  1
AC1015
  9
$ACADMAINTVER
 70
    20
  9
$DWGCODEPAGE
  3
ANSI_1252
  9
$INSBASE
 10
0.0
 20
0.0
 30
0.0
  9
$EXTMIN
 10
0.4999999999999999
 20
0.4999999999999999
 30
0.0
  9
$EXTMAX
 10
6.500000000000001
 20
4.5
 30
0.0
  9
$LIMMIN
 10
0.0
 20
0.0
  9
$LIMMAX
 10
7.0
 20
5.0
  9
$ORTHOMODE
 70
     0
  9
$REGENMODE
 70
     1
  9
$FILLMODE
 70
     1
  9
$QTEXTMODE
 70
     0
  9
$MIRRTEXT
 70
     0
  9
$LTSCALE
 40
1.0
  9
$ATTMODE
 70
     1
  9
$TEXTSIZE
 40
0.2
  9
$TRACEWID
 40
0.05
  9
$TEXTSTYLE
  7
Standard
  9
$CLAYER
  8
0
  9
$CELTYPE
  6
ByLayer
  9
$CECOLOR
 62
   256
  9
$CELTSCALE
 40
1.0
  9
$DISPSILH
 70
     0
  9
$DIMSCALE
 40
1.0
  9
$DIMASZ
 40
0.0708661417322835
  9
$DIMEXO
 40
0.0625
  9
$DIMDLI
 40
0.38
  9
$DIMRND
 40
0.0
  9
$DIMDLE
 40
0.0
  9
$DIMEXE
 40
0.18
  9
$DIMTP
 40
0.0
  9
$DIMTM
 40
0.0
  9
$DIMTXT
 40
0.0708661417322835
  9
$DIMCEN
 40
0.09
  9
$DIMTSZ
 40
0.0
  9
$DIMTOL
 70
     0
  9
$DIMLIM
 70
     0
  9
$DIMTIH
 70
     1
  9
$DIMTOH
 70
     1
  9
$DIMSE1
 70
     0
  9
$DIMSE2
 70
     0
  9
$DIMTAD
 70
     0
  9
$DIMZIN
 70
     0
  9
$DIMBLK
  1

  9
$DIMASO
 70
     1
  9
$DIMSHO
 70
     1
  9
$DIMPOST
  1

  9
$DIMAPOST
  1

  9
$DIMALT
 70
     0
  9
$DIMALTD
 70
     2
  9
$DIMALTF
 40
25.4
  9
$DIMLFAC
 40
1.0
  9
$DIMTOFL
 70
     0
  9
$DIMTVP
 40
0.0
  9
$DIMTIX
 70
     0
  9
$DIMSOXD
 70
     0
  9
$DIMSAH
 70
     0
  9
$DIMBLK1
  1

  9
$DIMBLK2
  1

  9
$DIMSTYLE
  2
Standard
  9
$DIMCLRD
 70
     0
  9
$DIMCLRE
 70
     0
  9
$DIMCLRT
 70
     0
  9
$DIMTFAC
 40
1.0
  9
$DIMGAP
 40
0.09
  9
$DIMJUST
 70
     0
  9
$DIMSD1
 70
     0
  9
$DIMSD2
 70
     0
  9
$DIMTOLJ
 70
     1
  9
$DIMTZIN
 70
     0
  9
$DIMALTZ
 70
     0
  9
$DIMALTTZ
 70
     0
  9
$DIMUPT
 70
     0
  9
$DIMDEC
 70
     4
  9
$DIMTDEC
 70
     4
  9
$DIMALTU
 70
     2
  9
$DIMALTTD
 70
     2
  9
$DIMTXSTY
  7
Standard
  9
$DIMAUNIT
 70
     0
  9
$DIMADEC
 70
     0
  9
$DIMALTRND
 40
0.0
  9
$DIMAZIN
 70
     0
  9
$DIMDSEP
 70
    46
  9
$DIMATFIT
 70
     3
  9
$DIMFRAC
 70
     0
  9
$DIMLDRBLK
  1

  9
$DIMLUNIT
 70
     2
  9
$DIMLWD
 70
    -2
  9
$DIMLWE
 70
    -2
  9
$DIMTMOVE
 70
     0
  9
$LUNITS
 70
     2
  9
$LUPREC
 70
     4
  9
$SKETCHINC
 40
0.1
  9
$FILLETRAD
 40
0.0
  9
$AUNITS
 70
     0
  9
$AUPREC
 70
     0
  9
$MENU
  1
.
  9
$ELEVATION
 40
0.0
  9
$PELEVATION
 40
0.0
  9
$THICKNESS
 40
0.0
  9
$LIMCHECK
 70
     0
  9
$CHAMFERA
 40
0.0
  9
$CHAMFERB
 40
0.0
  9
$CHAMFERC
 40
0.0
  9
$CHAMFERD
 40
0.0
  9
$SKPOLY
 70
     0
  9
$TDCREATE
 40
2456345.384293067
  9
$TDUCREATE
 40
2456345.717626400
  9
$TDUPDATE
 40
2456345.460071633
  9
$TDUUPDATE
 40
2456345.793404965
  9
$TDINDWG
 40
0.0120423611
  9
$TDUSRTIMER
 40
0.0120423611
  9
$USRTIMER
 70
     1
  9
$ANGBASE
 50
0.0
  9
$ANGDIR
 70
     0
  9
$PDMODE
 70
     0
  9
$PDSIZE
 40
0.0
  9
$PLINEWID
 40
0.0
  9
$SPLFRAME
 70
     0
  9
$SPLINETYPE
 70
     6
  9
$SPLINESEGS
 70
     8
  9
$HANDSEED
  5
324
  9
$SURFTAB1
 70
     6
  9
$SURFTAB2
 70
     6
  9
$SURFTYPE
 70
     6
  9
$SURFU
 70
     6
  9
$SURFV
 70
     6
  9
$UCSBASE
  2

  9
$UCSNAME
  2

  9
$UCSORG
 10
0.0
 20
0.0
 30
0.0
  9
$UCSXDIR
 10
1.0
 20
0.0
 30
0.0
  9
$UCSYDIR
 10
0.0
 20
1.0
 30
0.0
  9
$UCSORTHOREF
  2

  9
$UCSORTHOVIEW
 70
     0
  9
$UCSORGTOP
 10
0.0
 20
0.0
 30
0.0
  9
$UCSORGBOTTOM
 10
0.0
 20
0.0
 30
0.0
  9
$UCSORGLEFT
 10
0.0
 20
0.0
 30
0.0
  9
$UCSORGRIGHT
 10
0.0
 20
0.0
 30
0.0
  9
$UCSORGFRONT
 10
0.0
 20
0.0
 30
0.0
  9
$UCSORGBACK
 10
0.0
 20
0.0
 30
0.0
  9
$PUCSBASE
  2

  9
$PUCSNAME
  2

  9
$PUCSORG
 10
0.0
 20
0.0
 30
0.0
  9
$PUCSXDIR
 10
1.0
 20
0.0
 30
0.0
  9
$PUCSYDIR
 10
0.0
 20
1.0
 30
0.0
  9
$PUCSORTHOREF
  2

  9
$PUCSORTHOVIEW
 70
     0
  9
$PUCSORGTOP
 10
0.0
 20
0.0
 30
0.0
  9
$PUCSORGBOTTOM
 10
0.0
 20
0.0
 30
0.0
  9
$PUCSORGLEFT
 10
0.0
 20
0.0
 30
0.0
  9
$PUCSORGRIGHT
 10
0.0
 20
0.0
 30
0.0
  9
$PUCSORGFRONT
 10
0.0
 20
0.0
 30
0.0
  9
$PUCSORGBACK
 10
0.0
 20
0.0
 30
0.0
  9
$USERI1
 70
     0
  9
$USERI2
 70
     0
  9
$USERI3
 70
     0
  9
$USERI4
 70
     0
  9
$USERI5
 70
     0
  9
$USERR1
 40
0.0
  9
$USERR2
 40
0.0
  9
$USERR3
 40
0.0
  9
$USERR4
 40
0.0
  9
$USERR5
 40
0.0
  9
$WORLDVIEW
 70
     1
  9
$SHADEDGE
 70
     3
  9
$SHADEDIF
 70
    70
  9
$TILEMODE
 70
     1
  9
$MAXACTVP
 70
    64
  9
$PINSBASE
 10
0.0
 20
0.0
 30
0.0
  9
$PLIMCHECK
 70
     0
  9
$PEXTMIN
 10
0.0
 20
0.0
 30
0.0
  9
$PEXTMAX
 10
7.0
 20
5.0
 30
0.0
  9
$PLIMMIN
 10
0.0
 20
0.0
  9
$PLIMMAX
 10
7.0
 20
5.0
  9
$UNITMODE
 70
     0
  9
$VISRETAIN
 70
     1
  9
$PLINEGEN
 70
     0
  9
$PSLTSCALE
 70
     1
  9
$TREEDEPTH
 70
  3020
  9
$CMLSTYLE
  2
Standard
  9
$CMLJUST
 70
     0
  9
$CMLSCALE
 40
1.0
  9
$PROXYGRAPHICS
 70
     1
  9
$MEASUREMENT
 70
     0
  9
$CELWEIGHT
370
    -1
  9
$ENDCAPS
280
     0
  9
$JOINSTYLE
280
     0
  9
$LWDISPLAY
290
     0
  9
$INSUNITS
 70
     1
  9
$HYPERLINKBASE
  1

  9
$STYLESHEET
  1

  9
$XEDIT
290
     1
  9
$CEPSNTYPE
380
     0
  9
$PSTYLEMODE
290
     1
  9
$FINGERPRINTGUID
  2
{13680B67-EDF8-4AD0-BED5-F06BA501F9F0}
  9
$VERSIONGUID
  2
{DB26510E-CEE4-467A-B788-778A9F1D5E83}
  9
$EXTNAMES
290
     1
  9
$PSVPSCALE
 40
0.0
  9
$OLESTARTUP
290
     0
  0
ENDSEC
  0
SECTION
  2
CLASSES
  0
CLASS
  1
ACDBDICTIONARYWDFLT
  2
AcDbDictionaryWithDefault
  3
ObjectDBX Classes
 90
        0
280
     0
281
     0
  0
CLASS
  1
MATERIAL
  2
AcDbMaterial
  3
ObjectDBX Classes
 90
     1153
280
     0
281
     0
  0
CLASS
  1
VISUALSTYLE
  2
AcDbVisualStyle
  3
ObjectDBX Classes
 90
     4095
280
     0
281
     0
  0
CLASS
  1
SCALE
  2
AcDbScale
  3
ObjectDBX Classes
 90
     1153
280
     0
281
     0
  0
CLASS
  1
TABLESTYLE
  2
AcDbTableStyle
  3
ObjectDBX Classes
 90
     4095
280
     0
281
     0
  0
CLASS
  1
MLEADERSTYLE
  2
AcDbMLeaderStyle
  3
ACDB_MLEADERSTYLE_CLASS
 90
     4095
280
     0
281
     0
  0
CLASS
  1
DICTIONARYVAR
  2
AcDbDictionaryVar
  3
ObjectDBX Classes
 90
        0
280
     0
281
     0
  0
CLASS
  1
CELLSTYLEMAP
  2
AcDbCellStyleMap
  3
ObjectDBX Classes
 90
     1152
280
     0
281
     0
  0
CLASS
  1
ACDBPLACEHOLDER
  2
AcDbPlaceHolder
  3
ObjectDBX Classes
 90
        0
280
     0
281
     0
  0
CLASS
  1
LAYOUT
  2
AcDbLayout
  3
ObjectDBX Classes
 90
        0
280
     0
281
     0
  0
ENDSEC
  0
SECTION
  2
TABLES
  0
TABLE
  2
VPORT
  5
8
102
{ACAD_XDICTIONARY
360
294
102
}
330
0
100
AcDbSymbolTable
 70
     1
  0
VPORT
  5
57
330
8
100
AcDbSymbolTableRecord
100
AcDbViewportTableRecord
  2
*Active
 70
     0
 10
0.0
 20
0.0
 11
1.0
 21
1.0
 12
4.909381663113006
 22
2.5
 13
0.0
 23
0.0
 14
1.0
 24
1.0
 15
0.0
 25
0.0
 16
0.0
 26
0.0
 36
1.0
 17
0.0
 27
0.0
 37
0.0
 40
5.000622865266603
 41
1.963752665245202
 42
50.0
 43
0.0
 44
0.0
 50
0.0
 51
0.0
 71
     0
 72
   100
 73
     1
 74
     1
 75
     0
 76
     0
 77
     0
 78
     0
281
     0
 65
     1
110
0.0
120
0.0
130
0.0
111
1.0
121
0.0
131
0.0
112
0.0
122
1.0
132
0.0
 79
     0
146
0.0
1001
ACAD_NAV_VCDISPLAY
1070
     3
  0
ENDTAB
  0
TABLE
  2
LTYPE
  5
5
330
0
100
AcDbSymbolTable
 70
    59
  0
LTYPE
  5
5B
330
5
100
AcDbSymbolTableRecord
100
AcDbLinetypeTableRecord
  2
ByBlock
 70
     0
  3

 72
    65
 73
     0
 40
0.0
  0
LTYPE
  5
5C
330
5
100
AcDbSymbolTableRecord
100
AcDbLinetypeTableRecord
  2
ByLayer
 70
     0
  3

 72
    65
 73
     0
 40
0.0
  0
LTYPE
  5
5D
330
5
100
AcDbSymbolTableRecord
100
AcDbLinetypeTableRecord
  2
Continuous
 70
     0
  3
Solid line
 72
    65
 73
     0
 40
0.0
  0
LTYPE
  5
7C
330
5
100
AcDbSymbolTableRecord
100
AcDbLinetypeTableRecord
  2
BY_STANDARD
 70
     0
  3
By Standard ____________    ____    ____   _
 72
    65
 73
     6
 40
1.240299999999999
 49
0.6614
 74
     0
 49
-0.0827
 74
     0
 49
0.1654
 74
     0
 49
-0.0827
 74
     0
 49
0.1654
 74
     0
 49
-0.0827
 74
     0
  0
LTYPE
  5
7D
330
5
100
AcDbSymbolTableRecord
100
AcDbLinetypeTableRecord
  2
CHAIN
 70
     0
  3
Chain ____ _ ____ _ ____ _ ____ _ ____ _ ____
 72
    65
 73
     4
 40
0.7087
 49
0.4724000000000001
 74
     0
 49
-0.0591
 74
     0
 49
0.1181
 74
     0
 49
-0.0591
 74
     0
  0
LTYPE
  5
7E
330
5
100
AcDbSymbolTableRecord
100
AcDbLinetypeTableRecord
  2
DASH_DOT
 70
     0
  3
Dash dot __ . __ . __ . __ . __ . __ . __ . __
 72
    65
 73
     4
 40
0.37
 49
0.24
 74
     0
 49
-0.06
 74
     0
 49
0.01
 74
     0
 49
-0.06
 74
     0
  0
LTYPE
  5
7F
330
5
100
AcDbSymbolTableRecord
100
AcDbLinetypeTableRecord
  2
DOUBLE_DASH_DOT
 70
     0
  3
Double-Dash Dot __ __ . __ __ . __ __ . __ _
 72
    65
 73
     6
 40
0.4398
 49
0.24
 74
     0
 49
-0.06
 74
     0
 49
0.0098
 74
     0
 49
-0.06
 74
     0
 49
0.01
 74
     0
 49
-0.06
 74
     0
  0
LTYPE
  5
80
330
5
100
AcDbSymbolTableRecord
100
AcDbLinetypeTableRecord
  2
DASH_TRIPLE_DOT
 70
     0
  3
Dash Triple-Dot _ . . . _ . . . _ . . . _
 72
    65
 73
     8
 40
0.51
 49
0.24
 74
     0
 49
-0.06
 74
     0
 49
0.01
 74
     0
 49
-0.06
 74
     0
 49
0.01
 74
     0
 49
-0.06
 74
     0
 49
0.01
 74
     0
 49
-0.06
 74
     0
  0
LTYPE
  5
81
330
5
100
AcDbSymbolTableRecord
100
AcDbLinetypeTableRecord
  2
DASHED
 70
     0
  3
Dashed __ __ __ __ __ __ __ __ __ __ __ __ __ _
 72
    65
 73
     2
 40
0.2067
 49
0.1654
 74
     0
 49
-0.0413
 74
     0
  0
LTYPE
  5
82
330
5
100
AcDbSymbolTableRecord
100
AcDbLinetypeTableRecord
  2
DASH_DOUBLE_DOT
 70
     0
  3
Dash Double-Dot __ . . __ . . __ . . __ . .
 72
    65
 73
     6
 40
0.4398
 49
0.24
 74
     0
 49
-0.06
 74
     0
 49
0.0098
 74
     0
 49
-0.06
 74
     0
 49
0.01
 74
     0
 49
-0.06
 74
     0
  0
LTYPE
  5
83
330
5
100
AcDbSymbolTableRecord
100
AcDbLinetypeTableRecord
  2
DASHED_SPACE
 70
     0
  3
Dashed Space __ __ __ __ __ __ __ __ __ __ __ _
 72
    65
 73
     2
 40
0.2067
 49
0.1654
 74
     0
 49
-0.0413
 74
     0
  0
LTYPE
  5
84
330
5
100
AcDbSymbolTableRecord
100
AcDbLinetypeTableRecord
  2
DOTTED
 70
     0
  3
Dotted . . . . . . . . . . . . . . . . . . . . 
 72
    65
 73
     2
 40
0.0482
 49
0.0069
 74
     0
 49
-0.0413
 74
     0
  0
LTYPE
  5
85
330
5
100
AcDbSymbolTableRecord
100
AcDbLinetypeTableRecord
  2
DOUBLE_DASH_CHAIN
 70
     0
  3
Double-Dash Chain ______  __  __  ______  __  _
 72
    65
 73
     6
 40
1.240299999999999
 49
0.6614
 74
     0
 49
-0.0827
 74
     0
 49
0.1654
 74
     0
 49
-0.0827
 74
     0
 49
0.1654
 74
     0
 49
-0.0827
 74
     0
  0
LTYPE
  5
87
330
5
100
AcDbSymbolTableRecord
100
AcDbLinetypeTableRecord
  2
DOUBLE_DASH_DOUBLE_DOT
 70
     0
  3
Double-Dash Double-dot _ _ . . _ _ . . _
 72
    65
 73
     8
 40
0.7400000000000001
 49
0.24
 74
     0
 49
-0.06
 74
     0
 49
0.24
 74
     0
 49
-0.06
 74
     0
 49
0.01
 74
     0
 49
-0.06
 74
     0
 49
0.01
 74
     0
 49
-0.06
 74
     0
  0
LTYPE
  5
88
330
5
100
AcDbSymbolTableRecord
100
AcDbLinetypeTableRecord
  2
DOUBLE_DASH_TRIPLE_DOT
 70
     0
  3
Double Dash Triple Dot __ __ . . . __ __ . .
 72
    65
 73
    10
 40
0.8100000000000001
 49
0.24
 74
     0
 49
-0.06
 74
     0
 49
0.24
 74
     0
 49
-0.06
 74
     0
 49
0.01
 74
     0
 49
-0.06
 74
     0
 49
0.01
 74
     0
 49
-0.06
 74
     0
 49
0.01
 74
     0
 49
-0.06
 74
     0
  0
LTYPE
  5
89
330
5
100
AcDbSymbolTableRecord
100
AcDbLinetypeTableRecord
  2
LONG_DASH_DOTTED
 70
     0
  3
Long Dash Dotted ____ . ____ . ____ . ____ . _
 72
    65
 73
     4
 40
0.3543
 49
0.2362
 74
     0
 49
-0.0295
 74
     0
 49
0.0591
 74
     0
 49
-0.0295
 74
     0
  0
LTYPE
  5
8A
330
5
100
AcDbSymbolTableRecord
100
AcDbLinetypeTableRecord
  2
LONG_DASH_DOUBLE_DOT
 70
     0
  3
Long Dash Double Dot ________  .  .  ________  
 72
    65
 73
     6
 40
0.6799999999999999
 49
0.48
 74
     0
 49
-0.06
 74
     0
 49
0.01
 74
     0
 49
-0.06
 74
     0
 49
0.01
 74
     0
 49
-0.06
 74
     0
  0
LTYPE
  5
8B
330
5
100
AcDbSymbolTableRecord
100
AcDbLinetypeTableRecord
  2
LONG_DASH_TRIPLE_DOT
 70
     0
  3
Long Dash Triple Dot ____ ... ____ ... ____
 72
    65
 73
     8
 40
0.3689
 49
0.2362
 74
     0
 49
-0.0295
 74
     0
 49
0.0049
 74
     0
 49
-0.0295
 74
     0
 49
0.0049
 74
     0
 49
-0.0295
 74
     0
 49
0.0049
 74
     0
 49
-0.0295
 74
     0
  0
LTYPE
  5
8C
330
5
100
AcDbSymbolTableRecord
100
AcDbLinetypeTableRecord
  2
BORDER
 70
     0
  3
Border __ __ . __ __ . __ __ . __ __ . __ __ .
 72
    65
 73
     6
 40
1.75
 49
0.5
 74
     0
 49
-0.25
 74
     0
 49
0.5
 74
     0
 49
-0.25
 74
     0
 49
0.0
 74
     0
 49
-0.25
 74
     0
  0
LTYPE
  5
8D
330
5
100
AcDbSymbolTableRecord
100
AcDbLinetypeTableRecord
  2
BORDER2
 70
     0
  3
Border (.5x) __.__.__.__.__.__.__.__.__.__.__.
 72
    65
 73
     6
 40
0.875
 49
0.25
 74
     0
 49
-0.125
 74
     0
 49
0.25
 74
     0
 49
-0.125
 74
     0
 49
0.0
 74
     0
 49
-0.125
 74
     0
  0
LTYPE
  5
8E
330
5
100
AcDbSymbolTableRecord
100
AcDbLinetypeTableRecord
  2
BORDERX2
 70
     0
  3
Border (2x) ____  ____  .  ____  ____  .  ___
 72
    65
 73
     6
 40
3.5
 49
1.0
 74
     0
 49
-0.5
 74
     0
 49
1.0
 74
     0
 49
-0.5
 74
     0
 49
0.0
 74
     0
 49
-0.5
 74
     0
  0
LTYPE
  5
8F
330
5
100
AcDbSymbolTableRecord
100
AcDbLinetypeTableRecord
  2
CENTER
 70
     0
  3
Center ____ _ ____ _ ____ _ ____ _ ____ _ ____
 72
    65
 73
     4
 40
2.0
 49
1.25
 74
     0
 49
-0.25
 74
     0
 49
0.25
 74
     0
 49
-0.25
 74
     0
  0
LTYPE
  5
90
330
5
100
AcDbSymbolTableRecord
100
AcDbLinetypeTableRecord
  2
CENTER2
 70
     0
  3
Center (.5x) ___ _ ___ _ ___ _ ___ _ ___ _ ___
 72
    65
 73
     4
 40
1.125
 49
0.75
 74
     0
 49
-0.125
 74
     0
 49
0.125
 74
     0
 49
-0.125
 74
     0
  0
LTYPE
  5
91
330
5
100
AcDbSymbolTableRecord
100
AcDbLinetypeTableRecord
  2
CENTERX2
 70
     0
  3
Center (2x) ________  __  ________  __  _____
 72
    65
 73
     4
 40
4.0
 49
2.5
 74
     0
 49
-0.5
 74
     0
 49
0.5
 74
     0
 49
-0.5
 74
     0
  0
LTYPE
  5
92
330
5
100
AcDbSymbolTableRecord
100
AcDbLinetypeTableRecord
  2
DASHDOT2
 70
     0
  3
Dash dot (.5x) _._._._._._._._._._._._._._._.
 72
    65
 73
     4
 40
0.5
 49
0.25
 74
     0
 49
-0.125
 74
     0
 49
0.0
 74
     0
 49
-0.125
 74
     0
  0
LTYPE
  5
93
330
5
100
AcDbSymbolTableRecord
100
AcDbLinetypeTableRecord
  2
DASHDOTX2
 70
     0
  3
Dash dot (2x) ____  .  ____  .  ____  .  ___
 72
    65
 73
     4
 40
2.0
 49
1.0
 74
     0
 49
-0.5
 74
     0
 49
0.0
 74
     0
 49
-0.5
 74
     0
  0
LTYPE
  5
95
330
5
100
AcDbSymbolTableRecord
100
AcDbLinetypeTableRecord
  2
DASHED2
 70
     0
  3
Dashed (.5x) _ _ _ _ _ _ _ _ _ _ _ _ _ _ _ _ _
 72
    65
 73
     2
 40
0.375
 49
0.25
 74
     0
 49
-0.125
 74
     0
  0
LTYPE
  5
96
330
5
100
AcDbSymbolTableRecord
100
AcDbLinetypeTableRecord
  2
DASHEDX2
 70
     0
  3
Dashed (2x) ____  ____  ____  ____  ____  ___
 72
    65
 73
     2
 40
1.5
 49
1.0
 74
     0
 49
-0.5
 74
     0
  0
LTYPE
  5
97
330
5
100
AcDbSymbolTableRecord
100
AcDbLinetypeTableRecord
  2
DIVIDE
 70
     0
  3
Divide ____ . . ____ . . ____ . . ____ . . ____
 72
    65
 73
     6
 40
1.25
 49
0.5
 74
     0
 49
-0.25
 74
     0
 49
0.0
 74
     0
 49
-0.25
 74
     0
 49
0.0
 74
     0
 49
-0.25
 74
     0
  0
LTYPE
  5
98
330
5
100
AcDbSymbolTableRecord
100
AcDbLinetypeTableRecord
  2
DIVIDE2
 70
     0
  3
Divide (.5x) __..__..__..__..__..__..__..__.._
 72
    65
 73
     6
 40
0.625
 49
0.25
 74
     0
 49
-0.125
 74
     0
 49
0.0
 74
     0
 49
-0.125
 74
     0
 49
0.0
 74
     0
 49
-0.125
 74
     0
  0
LTYPE
  5
99
330
5
100
AcDbSymbolTableRecord
100
AcDbLinetypeTableRecord
  2
DIVIDEX2
 70
     0
  3
Divide (2x) ________  .  .  ________  .  .  _
 72
    65
 73
     6
 40
2.5
 49
1.0
 74
     0
 49
-0.5
 74
     0
 49
0.0
 74
     0
 49
-0.5
 74
     0
 49
0.0
 74
     0
 49
-0.5
 74
     0
  0
LTYPE
  5
9A
330
5
100
AcDbSymbolTableRecord
100
AcDbLinetypeTableRecord
  2
DOT
 70
     0
  3
Dot . . . . . . . . . . . . . . . . . . . . . .
 72
    65
 73
     2
 40
0.25
 49
0.0
 74
     0
 49
-0.25
 74
     0
  0
LTYPE
  5
9B
330
5
100
AcDbSymbolTableRecord
100
AcDbLinetypeTableRecord
  2
DOT2
 70
     0
  3
Dot (.5x) .....................................
 72
    65
 73
     2
 40
0.125
 49
0.0
 74
     0
 49
-0.125
 74
     0
  0
LTYPE
  5
9C
330
5
100
AcDbSymbolTableRecord
100
AcDbLinetypeTableRecord
  2
DOTX2
 70
     0
  3
Dot (2x) .  .  .  .  .  .  .  .  .  .  .  .  . 
 72
    65
 73
     2
 40
0.5
 49
0.0
 74
     0
 49
-0.5
 74
     0
  0
LTYPE
  5
9D
330
5
100
AcDbSymbolTableRecord
100
AcDbLinetypeTableRecord
  2
HIDDEN
 70
     0
  3
Hidden __ __ __ __ __ __ __ __ __ __ __ __ __ _
 72
    65
 73
     2
 40
0.375
 49
0.25
 74
     0
 49
-0.125
 74
     0
  0
LTYPE
  5
9E
330
5
100
AcDbSymbolTableRecord
100
AcDbLinetypeTableRecord
  2
HIDDEN2
 70
     0
  3
Hidden (.5x) _ _ _ _ _ _ _ _ _ _ _ _ _ _ _ _ _
 72
    65
 73
     2
 40
0.1875
 49
0.125
 74
     0
 49
-0.0625
 74
     0
  0
LTYPE
  5
9F
330
5
100
AcDbSymbolTableRecord
100
AcDbLinetypeTableRecord
  2
HIDDENX2
 70
     0
  3
Hidden (2x) ____ ____ ____ ____ ____ ____ ____
 72
    65
 73
     2
 40
0.75
 49
0.5
 74
     0
 49
-0.25
 74
     0
  0
LTYPE
  5
A0
330
5
100
AcDbSymbolTableRecord
100
AcDbLinetypeTableRecord
  2
PHANTOM
 70
     0
  3
Phantom ______  __  __  ______  __  __  ______
 72
    65
 73
     6
 40
2.5
 49
1.25
 74
     0
 49
-0.25
 74
     0
 49
0.25
 74
     0
 49
-0.25
 74
     0
 49
0.25
 74
     0
 49
-0.25
 74
     0
  0
LTYPE
  5
A1
330
5
100
AcDbSymbolTableRecord
100
AcDbLinetypeTableRecord
  2
PHANTOM2
 70
     0
  3
Phantom (.5x) ___ _ _ ___ _ _ ___ _ _ ___ _ _
 72
    65
 73
     6
 40
1.25
 49
0.625
 74
     0
 49
-0.125
 74
     0
 49
0.125
 74
     0
 49
-0.125
 74
     0
 49
0.125
 74
     0
 49
-0.125
 74
     0
  0
LTYPE
  5
A2
330
5
100
AcDbSymbolTableRecord
100
AcDbLinetypeTableRecord
  2
PHANTOMX2
 70
     0
  3
Phantom (2x) ____________    ____    ____   _
 72
    65
 73
     6
 40
5.0
 49
2.5
 74
     0
 49
-0.5
 74
     0
 49
0.5
 74
     0
 49
-0.5
 74
     0
 49
0.5
 74
     0
 49
-0.5
 74
     0
  0
LTYPE
  5
A3
330
5
100
AcDbSymbolTableRecord
100
AcDbLinetypeTableRecord
  2
ACAD_ISO02W100
 70
     0
  3
ISO dash __ __ __ __ __ __ __ __ __ __ __ __ __
 72
    65
 73
     2
 40
0.59
 49
0.47
 74
     0
 49
-0.12
 74
     0
  0
LTYPE
  5
A4
330
5
100
AcDbSymbolTableRecord
100
AcDbLinetypeTableRecord
  2
ACAD_ISO03W100
 70
     0
  3
ISO dash space __    __    __    __    __    __
 72
    65
 73
     2
 40
1.179999999999999
 49
0.47
 74
     0
 49
-0.71
 74
     0
  0
LTYPE
  5
A5
330
5
100
AcDbSymbolTableRecord
100
AcDbLinetypeTableRecord
  2
ACAD_ISO04W100
 70
     0
  3
ISO long-dash dot ____ . ____ . ____ . ____ . _
 72
    65
 73
     4
 40
1.179999999999999
 49
0.9399999999999998
 74
     0
 49
-0.12
 74
     0
 49
0.0
 74
     0
 49
-0.12
 74
     0
  0
LTYPE
  5
A6
330
5
100
AcDbSymbolTableRecord
100
AcDbLinetypeTableRecord
  2
ACAD_ISO05W100
 70
     0
  3
ISO long-dash double-dot ____ .. ____ .. ____ .
 72
    65
 73
     6
 40
1.299999999999999
 49
0.9399999999999998
 74
     0
 49
-0.12
 74
     0
 49
0.0
 74
     0
 49
-0.12
 74
     0
 49
0.0
 74
     0
 49
-0.12
 74
     0
  0
LTYPE
  5
A7
330
5
100
AcDbSymbolTableRecord
100
AcDbLinetypeTableRecord
  2
ACAD_ISO06W100
 70
     0
  3
ISO long-dash triple-dot ____ ... ____ ... ____
 72
    65
 73
     8
 40
1.419999999999999
 49
0.9399999999999998
 74
     0
 49
-0.12
 74
     0
 49
0.0
 74
     0
 49
-0.12
 74
     0
 49
0.0
 74
     0
 49
-0.12
 74
     0
 49
0.0
 74
     0
 49
-0.12
 74
     0
  0
LTYPE
  5
A8
330
5
100
AcDbSymbolTableRecord
100
AcDbLinetypeTableRecord
  2
ACAD_ISO07W100
 70
     0
  3
ISO dot . . . . . . . . . . . . . . . . . . . .
 72
    65
 73
     2
 40
0.12
 49
0.0
 74
     0
 49
-0.12
 74
     0
  0
LTYPE
  5
A9
330
5
100
AcDbSymbolTableRecord
100
AcDbLinetypeTableRecord
  2
ACAD_ISO08W100
 70
     0
  3
ISO long-dash short-dash ____ __ ____ __ ____ _
 72
    65
 73
     4
 40
0.95
 49
0.47
 74
     0
 49
-0.12
 74
     0
 49
0.24
 74
     0
 49
-0.12
 74
     0
  0
LTYPE
  5
AA
330
5
100
AcDbSymbolTableRecord
100
AcDbLinetypeTableRecord
  2
ACAD_ISO09W100
 70
     0
  3
ISO long-dash double-short-dash ____ __ __ ____
 72
    65
 73
     6
 40
1.31
 49
0.47
 74
     0
 49
-0.12
 74
     0
 49
0.24
 74
     0
 49
-0.12
 74
     0
 49
0.24
 74
     0
 49
-0.12
 74
     0
  0
LTYPE
  5
AB
330
5
100
AcDbSymbolTableRecord
100
AcDbLinetypeTableRecord
  2
ACAD_ISO10W100
 70
     0
  3
ISO dash dot __ . __ . __ . __ . __ . __ . __ .
 72
    65
 73
     4
 40
0.71
 49
0.47
 74
     0
 49
-0.12
 74
     0
 49
0.0
 74
     0
 49
-0.12
 74
     0
  0
LTYPE
  5
AC
330
5
100
AcDbSymbolTableRecord
100
AcDbLinetypeTableRecord
  2
ACAD_ISO11W100
 70
     0
  3
ISO double-dash dot __ __ . __ __ . __ __ . __ 
 72
    65
 73
     6
 40
1.299999999999999
 49
0.47
 74
     0
 49
-0.12
 74
     0
 49
0.47
 74
     0
 49
-0.12
 74
     0
 49
0.0
 74
     0
 49
-0.12
 74
     0
  0
LTYPE
  5
AD
330
5
100
AcDbSymbolTableRecord
100
AcDbLinetypeTableRecord
  2
ACAD_ISO12W100
 70
     0
  3
ISO dash double-dot __ . . __ . . __ . . __ . .
 72
    65
 73
     6
 40
0.8299999999999998
 49
0.47
 74
     0
 49
-0.12
 74
     0
 49
0.0
 74
     0
 49
-0.12
 74
     0
 49
0.0
 74
     0
 49
-0.12
 74
     0
  0
LTYPE
  5
AE
330
5
100
AcDbSymbolTableRecord
100
AcDbLinetypeTableRecord
  2
ACAD_ISO13W100
 70
     0
  3
ISO double-dash double-dot __ __ . . __ __ . . 
 72
    65
 73
     8
 40
1.419999999999999
 49
0.47
 74
     0
 49
-0.12
 74
     0
 49
0.47
 74
     0
 49
-0.12
 74
     0
 49
0.0
 74
     0
 49
-0.12
 74
     0
 49
0.0
 74
     0
 49
-0.12
 74
     0
  0
LTYPE
  5
AF
330
5
100
AcDbSymbolTableRecord
100
AcDbLinetypeTableRecord
  2
ACAD_ISO14W100
 70
     0
  3
ISO dash triple-dot __ . . . __ . . . __ . . . 
 72
    65
 73
     8
 40
0.95
 49
0.47
 74
     0
 49
-0.12
 74
     0
 49
0.0
 74
     0
 49
-0.12
 74
     0
 49
0.0
 74
     0
 49
-0.12
 74
     0
 49
0.0
 74
     0
 49
-0.12
 74
     0
  0
LTYPE
  5
B0
330
5
100
AcDbSymbolTableRecord
100
AcDbLinetypeTableRecord
  2
ACAD_ISO15W100
 70
     0
  3
ISO double-dash triple-dot __ __ . . . __ __ . 
 72
    65
 73
    10
 40
1.539999999999999
 49
0.47
 74
     0
 49
-0.12
 74
     0
 49
0.47
 74
     0
 49
-0.12
 74
     0
 49
0.0
 74
     0
 49
-0.12
 74
     0
 49
0.0
 74
     0
 49
-0.12
 74
     0
 49
0.0
 74
     0
 49
-0.12
 74
     0
  0
LTYPE
  5
B3
330
5
100
AcDbSymbolTableRecord
100
AcDbLinetypeTableRecord
  2
FENCELINE1
 70
     0
  3
Fenceline circle ----0-----0----0-----0----0---
 72
    65
 73
     4
 40
1.45
 49
0.25
 74
     0
 49
-0.1
 74
     4
 75
   133
340
B2
 46
0.1
 50
0.0
 44
-0.1
 45
0.0
 49
-0.1
 74
     0
 49
1.0
 74
     0
  0
LTYPE
  5
B4
330
5
100
AcDbSymbolTableRecord
100
AcDbLinetypeTableRecord
  2
FENCELINE2
 70
     0
  3
Fenceline square ----[]-----[]----[]-----[]----
 72
    65
 73
     4
 40
1.45
 49
0.25
 74
     0
 49
-0.1
 74
     4
 75
   132
340
B2
 46
0.1
 50
0.0
 44
-0.1
 45
0.0
 49
-0.1
 74
     0
 49
1.0
 74
     0
  0
LTYPE
  5
B5
330
5
100
AcDbSymbolTableRecord
100
AcDbLinetypeTableRecord
  2
TRACKS
 70
     0
  3
Tracks -|-|-|-|-|-|-|-|-|-|-|-|-|-|-|-|-|-|-|-|
 72
    65
 73
     2
 40
0.3
 49
0.15
 74
     4
 75
   130
340
B2
 46
0.25
 50
0.0
 44
0.0
 45
0.0
 49
0.15
 74
     0
  0
LTYPE
  5
B6
330
5
100
AcDbSymbolTableRecord
100
AcDbLinetypeTableRecord
  2
BATTING
 70
     0
  3
Batting SSSSSSSSSSSSSSSSSSSSSSSSSSSSSSSSSSSSSSS
 72
    65
 73
     4
 40
0.4001000000000001
 49
0.0001
 74
     0
 49
-0.1
 74
     4
 75
   134
340
B2
 46
0.1
 50
0.0
 44
-0.1
 45
0.0
 49
-0.2
 74
     4
 75
   134
340
B2
 46
0.1
 50
180.0
 44
0.1
 45
0.0
 49
-0.1
 74
     0
  0
LTYPE
  5
B7
330
5
100
AcDbSymbolTableRecord
100
AcDbLinetypeTableRecord
  2
HOT_WATER_SUPPLY
 70
     0
  3
Hot water supply ---- HW ---- HW ---- HW ----
 72
    65
 73
     3
 40
0.9
 49
0.5
 74
     0
 49
-0.2
 74
     2
 75
     0
340
55
 46
0.1
 50
0.0
 44
-0.1
 45
-0.05
  9
HW
 49
-0.2
 74
     0
  0
LTYPE
  5
B8
330
5
100
AcDbSymbolTableRecord
100
AcDbLinetypeTableRecord
  2
GAS_LINE
 70
     0
  3
Gas line ----GAS----GAS----GAS----GAS----GAS---
 72
    65
 73
     3
 40
0.95
 49
0.5
 74
     0
 49
-0.2
 74
     2
 75
     0
340
55
 46
0.1
 50
0.0
 44
-0.1
 45
-0.05
  9
GAS
 49
-0.25
 74
     0
  0
LTYPE
  5
B9
330
5
100
AcDbSymbolTableRecord
100
AcDbLinetypeTableRecord
  2
ZIGZAG
 70
     0
  3
Zig zag /\/\/\/\/\/\/\/\/\/\/\/\/\/\/\/\/\/\/\/
 72
    65
 73
     4
 40
0.8001000000000001
 49
0.0001
 74
     0
 49
-0.2
 74
     4
 75
   131
340
B2
 46
0.2
 50
0.0
 44
-0.2
 45
0.0
 49
-0.4
 74
     4
 75
   131
340
B2
 46
0.2
 50
180.0
 44
0.2
 45
0.0
 49
-0.2
 74
     0
  0
ENDTAB
  0
TABLE
  2
LAYER
  5
2
330
0
100
AcDbSymbolTable
 70
     3
  0
LAYER
  5
54
330
2
100
AcDbSymbolTableRecord
100
AcDbLayerTableRecord
  2
0
 70
     0
 62
     7
  6
Continuous
370
    -3
390
F
  0
LAYER
  5
BE
330
2
100
AcDbSymbolTableRecord
100
AcDbLayerTableRecord
  2
Border (ANSI)
 70
     0
 62
     7
  6
Continuous
370
    25
390
F
  0
LAYER
  5
D0
330
2
100
AcDbSymbolTableRecord
100
AcDbLayerTableRecord
  2
Visible (ANSI)
 70
     0
 62
     7
  6
Continuous
370
    18
390
F
  0
ENDTAB
  0
TABLE
  2
STYLE
  5
3
330
0
100
AcDbSymbolTable
 70
     5
  0
STYLE
  5
55
330
3
100
AcDbSymbolTableRecord
100
AcDbTextStyleTableRecord
  2
Standard
 70
     0
 40
0.0
 41
0.8000000119209289
 50
0.0
 71
     0
 42
0.2
  3
txt
  4

  0
STYLE
  5
5A
330
3
100
AcDbSymbolTableRecord
100
AcDbTextStyleTableRecord
  2
Annotative
 70
     0
 40
0.0
 41
1.0
 50
0.0
 71
     0
 42
0.2
  3
txt
  4

1001
AcadAnnotative
1000
AnnotativeData
1002
{
1070
     1
1070
     1
1002
}
  0
STYLE
  5
B2
330
3
100
AcDbSymbolTableRecord
100
AcDbTextStyleTableRecord
  2

 70
     1
 40
0.0
 41
1.0
 50
0.0
 71
     0
 42
0.2
  3
ltypeshp.shx
  4

  0
STYLE
  5
D5
330
3
100
AcDbSymbolTableRecord
100
AcDbTextStyleTableRecord
  2
Label Text (ANSI)
 70
     0
 40
0.0
 41
0.8000000119209289
 50
0.0
 71
     0
 42
0.2
  3
txt_IV25.ttf
  4

1001
ACAD
1000
Txt_IV25
1071
      256
  0
STYLE
  5
D6
330
3
100
AcDbSymbolTableRecord
100
AcDbTextStyleTableRecord
  2
Note Text (ANSI)
 70
     0
 40
0.0
 41
0.8000000119209289
 50
0.0
 71
     0
 42
0.2
  3
txt_IV25.ttf
  4

1001
ACAD
1000
Txt_IV25
1071
      256
  0
ENDTAB
  0
TABLE
  2
VIEW
  5
6
330
0
100
AcDbSymbolTable
 70
     0
  0
ENDTAB
  0
TABLE
  2
UCS
  5
7
330
0
100
AcDbSymbolTable
 70
     0
  0
ENDTAB
  0
TABLE
  2
APPID
  5
9
330
0
100
AcDbSymbolTable
 70
     4
  0
APPID
  5
56
330
9
100
AcDbSymbolTableRecord
100
AcDbRegAppTableRecord
  2
ACAD
 70
     0
  0
APPID
  5
5E
330
9
100
AcDbSymbolTableRecord
100
AcDbRegAppTableRecord
  2
AcadAnnotative
 70
     0
  0
APPID
  5
2CA
330
9
100
AcDbSymbolTableRecord
100
AcDbRegAppTableRecord
  2
ACAD_MLEADERVER
 70
     0
  0
APPID
  5
2E1
330
9
100
AcDbSymbolTableRecord
100
AcDbRegAppTableRecord
  2
ACAD_NAV_VCDISPLAY
 70
     0
  0
ENDTAB
  0
TABLE
  2
DIMSTYLE
  5
A
330
0
100
AcDbSymbolTable
 70
    21
100
AcDbDimStyleTable
 71
     0
  0
DIMSTYLE
105
58
330
A
100
AcDbSymbolTableRecord
100
AcDbDimStyleTableRecord
  2
Standard
 70
     0
340
55
  0
DIMSTYLE
105
59
330
A
100
AcDbSymbolTableRecord
100
AcDbDimStyleTableRecord
  2
Annotative
 70
     0
340
55
1001
AcadAnnotative
1000
AnnotativeData
1002
{
1070
     1
1070
     1
1002
}
  0
DIMSTYLE
105
D7
330
A
100
AcDbSymbolTableRecord
100
AcDbDimStyleTableRecord
  2
Architectural (ANSI)
 70
     0
 41
0.0984251946210861
 43
0.2362204724409449
 44
0.125
 45
0.00000001
 46
0.3937007874015748
 78
     3
 79
     3
140
0.0799999982118607
146
1.500000119209289
147
0.031496062992126
171
     1
176
   256
177
   256
178
     5
272
     2
274
     1
276
     2
277
     4
284
    12
285
     4
286
    12
340
D6
371
    -1
372
    -1
  0
DIMSTYLE
105
D8
330
A
100
AcDbSymbolTableRecord
100
AcDbDimStyleTableRecord
  2
Architectural (ANSI)$7
 70
     0
 41
0.0984251946210861
 43
0.2362204724409449
 44
0.125
 45
0.00000001
 46
0.3937007874015748
 78
     3
 79
     3
140
0.0799999982118607
146
1.500000119209289
147
0.031496062992126
171
     1
176
     5
177
   256
178
     5
272
     2
274
     1
276
     2
277
     4
284
    12
285
     4
286
    12
340
D6
371
    -1
372
    -1
  0
DIMSTYLE
105
D9
330
A
100
AcDbSymbolTableRecord
100
AcDbDimStyleTableRecord
  2
decimal
 70
     0
 41
0.0984251946210861
 43
0.2362204724409449
 44
0.062
 45
0.00000001
 46
0.3937007874015748
140
0.0799999982118607
147
0.031496062992126
171
     1
176
     5
177
     5
178
     5
271
     3
274
     1
286
    12
340
D6
371
     9
372
     9
  0
DIMSTYLE
105
DA
330
A
100
AcDbSymbolTableRecord
100
AcDbDimStyleTableRecord
  2
decimal$7
 70
     0
 41
0.0984251946210861
 43
0.2362204724409449
 44
0.062
 45
0.00000001
 46
0.3937007874015748
140
0.0799999982118607
147
0.031496062992126
171
     1
176
     5
177
     5
178
     5
271
     3
274
     1
286
    12
340
D6
371
    -1
372
     9
  0
DIMSTYLE
105
DB
330
A
100
AcDbSymbolTableRecord
100
AcDbDimStyleTableRecord
  2
Default - Fraction (ANSI)
 70
     0
 41
0.0984251946210861
 43
0.2362204724409449
 44
0.125
 45
0.00000001
 46
0.3937007874015748
 79
     3
140
0.0799999982118607
146
1.500000119209289
147
0.031496062992126
171
     1
176
   256
177
   256
178
     5
272
     2
274
     1
276
     2
277
     5
284
    12
285
     4
286
    12
340
D6
371
    -1
372
    -1
  0
DIMSTYLE
105
DC
330
A
100
AcDbSymbolTableRecord
100
AcDbDimStyleTableRecord
  2
Default - Fraction (ANSI)$7
 70
     0
 41
0.0984251946210861
 43
0.2362204724409449
 44
0.125
 45
0.00000001
 46
0.3937007874015748
 79
     3
140
0.0799999982118607
146
1.500000119209289
147
0.031496062992126
171
     1
176
     5
177
   256
178
     5
272
     2
274
     1
276
     2
277
     5
284
    12
285
     4
286
    12
340
D6
371
    -1
372
    -1
  0
DIMSTYLE
105
DD
330
A
100
AcDbSymbolTableRecord
100
AcDbDimStyleTableRecord
  2
Default - mm (ANSI)
 70
     0
 41
0.0984251946210861
 42
0.063
 43
0.2362204724409449
 44
0.125
 45
0.00000001
 46
0.3937007874015748
 73
     0
 78
     4
 79
     1
140
0.0799999982118607
143
1.0
144
25.4
146
1.500000119209289
147
0.031496062992126
171
     1
176
   256
177
   256
178
     5
179
     1
271
     2
272
     2
274
     1
284
     4
285
     4
340
D6
371
    -1
372
    -1
  0
DIMSTYLE
105
DE
330
A
100
AcDbSymbolTableRecord
100
AcDbDimStyleTableRecord
  2
Default - mm (ANSI)$7
 70
     0
 41
0.0984251946210861
 42
0.063
 43
0.2362204724409449
 44
0.125
 45
0.00000001
 46
0.3937007874015748
 73
     0
 78
     4
 79
     1
140
0.0799999982118607
143
1.0
144
25.4
146
1.500000119209289
147
0.031496062992126
171
     1
176
     5
177
   256
178
     5
179
     1
271
     2
272
     2
274
     1
284
     4
285
     4
340
D6
371
    -1
372
    -1
  0
DIMSTYLE
105
DF
330
A
100
AcDbSymbolTableRecord
100
AcDbDimStyleTableRecord
  2
Default - mm [in] (ANSI)
 70
     0
  4
 in
 41
0.0984251946210861
 42
0.063
 43
0.25
 44
0.125
 45
0.00000001
 46
0.3937007874015748
 73
     0
 78
     4
 79
     1
140
0.0799999982118607
143
0.03937
144
25.4
146
1.500000119209289
147
0.031496062992126
170
     1
171
     3
176
   256
177
   256
178
     5
179
     1
271
     2
272
     2
274
     3
284
     4
285
     4
286
     4
340
D6
371
    -1
372
    -1
  0
DIMSTYLE
105
E0
330
A
100
AcDbSymbolTableRecord
100
AcDbDimStyleTableRecord
  2
Default - mm [in] (ANSI)$7
 70
     0
  4
 in
 41
0.0984251946210861
 42
0.063
 43
0.25
 44
0.125
 45
0.00000001
 46
0.3937007874015748
 73
     0
 78
     4
 79
     1
140
0.0799999982118607
143
0.03937
144
25.4
146
1.500000119209289
147
0.031496062992126
170
     1
171
     3
176
     5
177
   256
178
     5
179
     1
271
     2
272
     2
274
     3
284
     4
285
     4
286
     4
340
D6
371
    -1
372
    -1
  0
DIMSTYLE
105
E1
330
A
100
AcDbSymbolTableRecord
100
AcDbDimStyleTableRecord
  2
Default (ANSI)
 70
     0
 41
0.0984251946210861
 43
0.2362204724409449
 44
0.125
 45
0.00000001
 46
0.3937007874015748
 78
     4
 79
     1
140
0.0799999982118607
146
1.500000119209289
147
0.031496062992126
171
     1
176
   256
177
   256
178
     5
271
     2
272
     2
274
     1
284
     4
285
     4
340
D6
371
    -1
372
    -1
  0
DIMSTYLE
105
E2
330
A
100
AcDbSymbolTableRecord
100
AcDbDimStyleTableRecord
  2
Default (ANSI)$7
 70
     0
 41
0.0984251946210861
 43
0.2362204724409449
 44
0.125
 45
0.00000001
 46
0.3937007874015748
 78
     4
 79
     1
140
0.0799999982118607
146
1.500000119209289
147
0.031496062992126
171
     1
176
     5
177
   256
178
     5
271
     2
272
     2
274
     1
284
     4
285
     4
340
D6
371
    -1
372
    -1
  0
DIMSTYLE
105
E3
330
A
100
AcDbSymbolTableRecord
100
AcDbDimStyleTableRecord
  2
SST-STANDARD DIMENSIONS-FRACTION-AUTO
 70
     0
 41
0.0984251946210861
 43
0.2362204724409449
 44
0.062
 45
0.00000001
 46
0.3937007874015748
 78
     1
140
0.0799999982118607
147
0.031496062992126
171
     1
176
     5
177
     5
178
     5
271
     5
274
     1
276
     2
277
     5
286
    12
340
D6
371
     9
372
     9
  0
DIMSTYLE
105
E4
330
A
100
AcDbSymbolTableRecord
100
AcDbDimStyleTableRecord
  2
SST-STANDARD DIMENSIONS-FRACTION-AUTO$7
 70
     0
 41
0.0984251946210861
 43
0.2362204724409449
 44
0.062
 45
0.00000001
 46
0.3937007874015748
 78
     1
140
0.0799999982118607
147
0.031496062992126
171
     1
176
     5
177
     5
178
     5
271
     5
274
     1
276
     2
277
     5
286
    12
340
D6
371
    -1
372
     9
  0
DIMSTYLE
105
E5
330
A
100
AcDbSymbolTableRecord
100
AcDbDimStyleTableRecord
  2
SST-STANDARD DIMENSIONS-FRACTION-MANUAL
 70
     0
 41
0.0984251946210861
 43
0.2362204724409449
 44
0.062
 45
0.00000001
 46
0.3937007874015748
 78
     1
140
0.0799999982118607
147
0.031496062992126
171
     1
176
     5
177
     5
178
     5
271
     5
274
     1
276
     2
277
     5
286
    12
340
D6
371
     9
372
     9
  0
DIMSTYLE
105
E6
330
A
100
AcDbSymbolTableRecord
100
AcDbDimStyleTableRecord
  2
SST-STANDARD DIMENSIONS-FRACTION-MANUAL$7
 70
     0
 41
0.0984251946210861
 43
0.2362204724409449
 44
0.062
 45
0.00000001
 46
0.3937007874015748
 78
     1
140
0.0799999982118607
147
0.031496062992126
171
     1
176
     5
177
     5
178
     5
271
     5
274
     1
276
     2
277
     5
286
    12
340
D6
371
    -1
372
     9
  0
DIMSTYLE
105
E7
330
A
100
AcDbSymbolTableRecord
100
AcDbDimStyleTableRecord
  2
Alternate (ANSI)
 70
     0
 41
0.0979999974370003
340
55
342
E8
  0
DIMSTYLE
105
FA
330
A
100
AcDbSymbolTableRecord
100
AcDbDimStyleTableRecord
  2
Datum (ANSI)
 70
     0
 41
0.0979999974370003
340
55
342
E8
  0
DIMSTYLE
105
109
330
A
100
AcDbSymbolTableRecord
100
AcDbDimStyleTableRecord
  2
Large (ANSI)
 70
     0
 41
0.1959999948740005
340
55
342
E8
  0
ENDTAB
  0
TABLE
  2
BLOCK_RECORD
  5
1
330
0
100
AcDbSymbolTable
 70
     5
  0
BLOCK_RECORD
  5
6C
330
1
100
AcDbSymbolTableRecord
100
AcDbBlockTableRecord
  2
*Model_Space
340
6F
  0
BLOCK_RECORD
  5
68
330
1
100
AcDbSymbolTableRecord
100
AcDbBlockTableRecord
  2
*Paper_Space
340
6B
  0
BLOCK_RECORD
  5
70
330
1
100
AcDbSymbolTableRecord
100
AcDbBlockTableRecord
  2
*Paper_Space0
340
73
  0
BLOCK_RECORD
  5
E8
330
1
100
AcDbSymbolTableRecord
100
AcDbBlockTableRecord
  2
_Closed
340
0
  0
BLOCK_RECORD
  5
EF
330
1
100
AcDbSymbolTableRecord
100
AcDbBlockTableRecord
  2
DatumFilled45
340
0
  0
BLOCK_RECORD
  5
FB
330
1
100
AcDbSymbolTableRecord
100
AcDbBlockTableRecord
  2
Filled-1
340
0
  0
BLOCK_RECORD
  5
10A
330
1
100
AcDbSymbolTableRecord
100
AcDbBlockTableRecord
  2
Borders SST-LAND
340
0
102
{BLKREFS
331
111
102
}
  0
ENDTAB
  0
ENDSEC
  0
SECTION
  2
BLOCKS
  0
BLOCK
  5
6D
330
6C
100
AcDbEntity
  8
0
100
AcDbBlockBegin
  2
*Model_Space
 70
     0
 10
0.0
 20
0.0
 30
0.0
  3
*Model_Space
  1

  0
ENDBLK
  5
6E
330
6C
100
AcDbEntity
  8
0
100
AcDbBlockEnd
  0
BLOCK
  5
69
330
68
100
AcDbEntity
 67
     1
  8
0
100
AcDbBlockBegin
  2
*Paper_Space
 70
     0
 10
0.0
 20
0.0
 30
0.0
  3
*Paper_Space
  1

  0
ENDBLK
  5
6A
330
68
100
AcDbEntity
 67
     1
  8
0
100
AcDbBlockEnd
  0
BLOCK
  5
71
330
70
100
AcDbEntity
 67
     1
  8
0
100
AcDbBlockBegin
  2
*Paper_Space0
 70
     0
 10
0.0
 20
0.0
 30
0.0
  3
*Paper_Space0
  1

  0
ENDBLK
  5
72
330
70
100
AcDbEntity
 67
     1
  8
0
100
AcDbBlockEnd
  0
BLOCK
  5
ED
330
E8
100
AcDbEntity
  8
0
100
AcDbBlockBegin
  2
_Closed
 70
     0
 10
0.0
 20
0.0
 30
0.0
  3
_Closed
  1

  0
LINE
  5
E9
330
E8
100
AcDbEntity
  8
0
  6
ByBlock
 62
     0
370
    -2
100
AcDbLine
 10
-1.0
 20
0.1666666666666666
 30
0.0
 11
0.0
 21
0.0
 31
0.0
  0
LINE
  5
EA
330
E8
100
AcDbEntity
  8
0
  6
ByBlock
 62
     0
370
    -2
100
AcDbLine
 10
0.0
 20
0.0
 30
0.0
 11
-1.0
 21
-0.1666666666666666
 31
0.0
  0
LINE
  5
EB
330
E8
100
AcDbEntity
  8
0
  6
ByBlock
 62
     0
370
    -2
100
AcDbLine
 10
-1.0
 20
0.1666666666666666
 30
0.0
 11
-1.0
 21
-0.1666666666666666
 31
0.0
  0
LINE
  5
EC
330
E8
100
AcDbEntity
  8
0
  6
ByBlock
 62
     0
370
    -2
100
AcDbLine
 10
0.0
 20
0.0
 30
0.0
 11
-1.0
 21
0.0
 31
0.0
  0
ENDBLK
  5
EE
330
E8
100
AcDbEntity
  8
0
100
AcDbBlockEnd
  0
BLOCK
  5
F0
330
EF
100
AcDbEntity
  8
0
100
AcDbBlockBegin
  2
DatumFilled45
 70
     0
 10
0.0
 20
0.0
 30
0.0
  3
DatumFilled45
  1

  0
POLYLINE
  5
F2
330
EF
100
AcDbEntity
  8
0
 62
     0
100
AcDb2dPolyline
 66
     1
 10
0.0
 20
0.0
 30
0.0
 70
   128
  0
VERTEX
  5
F3
330
F2
100
AcDbEntity
  8
0
 62
     0
100
AcDbVertex
100
AcDb2dVertex
 10
0.0
 20
0.9999999999999998
 30
0.0
  0
VERTEX
  5
F4
330
F2
100
AcDbEntity
  8
0
 62
     0
100
AcDbVertex
100
AcDb2dVertex
 10
0.0
 20
-0.9999999999999998
 30
0.0
  0
VERTEX
  5
F6
330
F2
100
AcDbEntity
  8
0
 62
     0
100
AcDbVertex
100
AcDb2dVertex
 10
-0.9999999999999998
 20
0.0
 30
0.0
  0
VERTEX
  5
F7
330
F2
100
AcDbEntity
  8
0
 62
     0
100
AcDbVertex
100
AcDb2dVertex
 10
0.0
 20
0.9999999999999998
 30
0.0
  0
SEQEND
  5
F5
330
F2
100
AcDbEntity
  8
0
 62
     0
  0
SOLID
  5
F9
330
EF
100
AcDbEntity
  8
0
 62
     0
100
AcDbTrace
 10
0.0
 20
0.9999999999999998
 30
0.0
 11
0.0
 21
-0.9999999999999998
 31
0.0
 12
-0.9999999999999998
 22
0.0
 32
0.0
 13
0.0
 23
0.9999999999999998
 33
0.0
  0
ENDBLK
  5
F1
330
EF
100
AcDbEntity
  8
0
100
AcDbBlockEnd
  0
BLOCK
  5
FC
330
FB
100
AcDbEntity
  8
0
100
AcDbBlockBegin
  2
Filled-1
 70
     0
 10
0.0
 20
0.0
 30
0.0
  3
Filled-1
  1

  0
LINE
  5
FE
330
FB
100
AcDbEntity
  8
0
 62
     0
100
AcDbLine
 10
-0.9999999999999998
 20
0.0
 30
0.0
 11
0.0
 21
0.0
 31
0.0
  0
POLYLINE
  5
FF
330
FB
100
AcDbEntity
  8
0
 62
     0
100
AcDb2dPolyline
 66
     1
 10
0.0
 20
0.0
 30
0.0
 70
   128
  0
VERTEX
  5
100
330
FF
100
AcDbEntity
  8
0
 62
     0
100
AcDbVertex
100
AcDb2dVertex
 10
-0.9999999999999998
 20
-0.0994897959183674
 30
0.0
  0
VERTEX
  5
101
330
FF
100
AcDbEntity
  8
0
 62
     0
100
AcDbVertex
100
AcDb2dVertex
 10
0.0
 20
0.0
 30
0.0
  0
VERTEX
  5
103
330
FF
100
AcDbEntity
  8
0
 62
     0
100
AcDbVertex
100
AcDb2dVertex
 10
-0.9999999999999998
 20
0.0994897959183674
 30
0.0
  0
VERTEX
  5
104
330
FF
100
AcDbEntity
  8
0
 62
     0
100
AcDbVertex
100
AcDb2dVertex
 10
-0.9999999999999998
 20
-0.0994897959183674
 30
0.0
  0
SEQEND
  5
102
330
FF
100
AcDbEntity
  8
0
 62
     0
  0
SOLID
  5
105
330
FB
100
AcDbEntity
  8
0
 62
     0
100
AcDbTrace
 10
-0.9999999999999998
 20
-0.0994897959183674
 30
0.0
 11
0.0
 21
0.0
 31
0.0
 12
-0.9999999999999998
 22
0.0994897959183674
 32
0.0
 13
-0.9999999999999998
 23
-0.0994897959183674
 33
0.0
  0
LINE
  5
106
330
FB
100
AcDbEntity
  8
0
 62
     0
100
AcDbLine
 10
-0.9999999999999998
 20
-0.0994897959183674
 30
0.0
 11
0.0
 21
0.0
 31
0.0
  0
LINE
  5
107
330
FB
100
AcDbEntity
  8
0
 62
     0
100
AcDbLine
 10
0.0
 20
0.0
 30
0.0
 11
-0.9999999999999998
 21
0.0994897959183674
 31
0.0
  0
LINE
  5
108
330
FB
100
AcDbEntity
  8
0
 62
     0
100
AcDbLine
 10
-0.9999999999999998
 20
0.0994897959183674
 30
0.0
 11
-0.9999999999999998
 21
-0.0994897959183674
 31
0.0
  0
ENDBLK
  5
FD
330
FB
100
AcDbEntity
  8
0
100
AcDbBlockEnd
  0
BLOCK
  5
10B
330
10A
100
AcDbEntity
  8
0
100
AcDbBlockBegin
  2
Borders SST-LAND
 70
     0
 10
0.0
 20
0.0
 30
0.0
  3
Borders SST-LAND
  1

  0
LINE
  5
10D
330
10A
100
AcDbEntity
  8
Border (ANSI)
 62
     7
370
    50
100
AcDbLine
 10
0.4999999999999999
 20
4.499999999999999
 30
0.0
 11
0.500000000000005
 21
0.4999999999999999
 31
0.0
  0
LINE
  5
10E
330
10A
100
AcDbEntity
  8
Border (ANSI)
 62
     7
370
    50
100
AcDbLine
 10
6.500000000000001
 20
4.5
 30
0.0
 11
0.4999999999999999
 21
4.499999999999999
 31
0.0
  0
LINE
  5
10F
330
10A
100
AcDbEntity
  8
Border (ANSI)
 62
     7
370
    50
100
AcDbLine
 10
6.500000000000001
 20
0.4999999999999999
 30
0.0
 11
6.500000000000001
 21
4.5
 31
0.0
  0
LINE
  5
110
330
10A
100
AcDbEntity
  8
Border (ANSI)
 62
     7
370
    50
100
AcDbLine
 10
0.500000000000005
 20
0.4999999999999999
 30
0.0
 11
6.500000000000001
 21
0.4999999999999999
 31
0.0
  0
ENDBLK
  5
10C
330
10A
100
AcDbEntity
  8
0
100
AcDbBlockEnd
  0
ENDSEC
  0
SECTION
  2
ENTITIES
  0
INSERT
  5
111
330
6C
100
AcDbEntity
  8
0
100
AcDbBlockReference
  2
Borders SST-LAND
 10
0.0
 20
0.0
 30
0.0
  0
LINE
  5
112
330
6C
100
AcDbEntity
  8
Visible (ANSI)
100
AcDbLine
 10
3.975992712018319
 20
2.497352866945126
 30
0.0
 11
3.975992712018319
 21
3.017352866945126
 31
0.0
  0
LINE
  5
113
330
6C
100
AcDbEntity
  8
Visible (ANSI)
100
AcDbLine
 10
4.225992712018319
 20
2.781997579005361
 30
0.0
 11
4.225992712018319
 21
2.732708154884892
 31
0.0
  0
LINE
  5
114
330
6C
100
AcDbEntity
  8
Visible (ANSI)
100
AcDbLine
 10
4.225992712018319
 20
2.781997579005361
 30
0.0
 11
4.225992712018319
 21
2.794730951744282
 31
0.0
  0
LINE
  5
115
330
6C
100
AcDbEntity
  8
Visible (ANSI)
100
AcDbLine
 10
4.225992712018319
 20
2.837416845170537
 30
0.0
 11
4.225992712018319
 21
2.794730951744282
 31
0.0
  0
LINE
  5
116
330
6C
100
AcDbEntity
  8
Visible (ANSI)
100
AcDbLine
 10
4.225992712018319
 20
2.837416845170537
 30
0.0
 11
4.225992712018319
 21
2.846738320967137
 31
0.0
  0
LINE
  5
117
330
6C
100
AcDbEntity
  8
Visible (ANSI)
100
AcDbLine
 10
4.225992712018319
 20
2.871383033027383
 30
0.0
 11
4.225992712018319
 21
2.846738320967137
 31
0.0
  0
LINE
  5
118
330
6C
100
AcDbEntity
  8
Visible (ANSI)
100
AcDbLine
 10
4.225992712018319
 20
2.871383033027383
 30
0.0
 11
4.225992712018319
 21
2.8747949299697
 31
0.0
  0
LINE
  5
119
330
6C
100
AcDbEntity
  8
Visible (ANSI)
100
AcDbLine
 10
4.225992712018319
 20
2.877352866945126
 30
0.0
 11
4.225992712018319
 21
2.8747949299697
 31
0.0
  0
LINE
  5
11A
330
6C
100
AcDbEntity
  8
Visible (ANSI)
100
AcDbLine
 10
4.225992712018319
 20
2.639910803920552
 30
0.0
 11
4.225992712018319
 21
2.637352866945126
 31
0.0
  0
LINE
  5
11B
330
6C
100
AcDbEntity
  8
Visible (ANSI)
100
AcDbLine
 10
4.225992712018319
 20
2.643322700862869
 30
0.0
 11
4.225992712018319
 21
2.639910803920552
 31
0.0
  0
LINE
  5
11C
330
6C
100
AcDbEntity
  8
Visible (ANSI)
100
AcDbLine
 10
4.225992712018319
 20
2.667967412923115
 30
0.0
 11
4.225992712018319
 21
2.643322700862869
 31
0.0
  0
LINE
  5
11D
330
6C
100
AcDbEntity
  8
Visible (ANSI)
100
AcDbLine
 10
4.225992712018319
 20
2.677288888719715
 30
0.0
 11
4.225992712018319
 21
2.667967412923116
 31
0.0
  0
LINE
  5
11E
330
6C
100
AcDbEntity
  8
Visible (ANSI)
100
AcDbLine
 10
4.225992712018319
 20
2.71997478214597
 30
0.0
 11
4.225992712018319
 21
2.677288888719715
 31
0.0
  0
LINE
  5
11F
330
6C
100
AcDbEntity
  8
Visible (ANSI)
100
AcDbLine
 10
4.225992712018319
 20
2.732708154884892
 30
0.0
 11
4.225992712018319
 21
2.71997478214597
 31
0.0
  0
SPLINE
  5
120
330
6C
100
AcDbEntity
  8
Visible (ANSI)
100
AcDbSpline
210
0.0
220
0.0
230
1.0
 70
     8
 71
     3
 72
    14
 73
    10
 74
     0
 42
0.0000000001
 43
0.0000000001
 40
-0.3483846433123341
 40
-0.3483846433123341
 40
-0.3483846433123341
 40
-0.3483846433123341
 40
-0.258462163034293
 40
-0.258462163034293
 40
-0.1739233425018982
 40
-0.1739233425018982
 40
-0.0894714297057415
 40
-0.0894714297057415
 40
-0.0833064133503193
 40
-0.0833064133503193
 40
-0.0833064133503193
 40
-0.0833064133503193
 10
4.482220283647708
 20
2.751557518308474
 30
0.0
 10
4.483384146375782
 20
2.739855458524896
 30
0.0
 10
4.484567388742641
 20
2.728518666985081
 30
0.0
 10
4.486930755977716
 20
2.708467764278851
 30
0.0
 10
4.488066667780336
 20
2.699824773959927
 30
0.0
 10
4.49041374197225
 20
2.685633049508348
 30
0.0
 10
4.491614379822658
 20
2.68021358703047
 30
0.0
 10
4.492910563931663
 20
2.676497483114216
 30
0.0
 10
4.492998730063883
 20
2.676255449099932
 30
0.0
 10
4.493086897309471
 20
2.676024227536375
 30
0.0
  0
SPLINE
  5
121
330
6C
100
AcDbEntity
  8
Visible (ANSI)
100
AcDbSpline
210
0.0
220
0.0
230
1.0
 70
     8
 71
     3
 72
     8
 73
     4
 74
     0
 42
0.0000000001
 43
0.0000000001
 40
-0.5130257928812179
 40
-0.5130257928812179
 40
-0.5130257928812179
 40
-0.5130257928812179
 40
-0.5087422776479826
 40
-0.5087422776479826
 40
-0.5087422776479826
 40
-0.5087422776479826
 10
4.461348052024559
 20
2.713379737532332
 30
0.0
 10
4.461698982970354
 20
2.713259047048098
 30
0.0
 10
4.462052312323901
 20
2.713140641225476
 30
0.0
 10
4.462406932629618
 20
2.713024743823842
 30
0.0
  0
SPLINE
  5
122
330
6C
100
AcDbEntity
  8
Visible (ANSI)
100
AcDbSpline
210
0.0
220
0.0
230
1.0
 70
     8
 71
     3
 72
    22
 73
    18
 74
     0
 42
0.0000000001
 43
0.0000000001
 40
-0.0926955967895822
 40
-0.0926955967895822
 40
-0.0926955967895822
 40
-0.0926955967895822
 40
-0.0870842061928807
 40
-0.0870842061928807
 40
-0.0792831767119631
 40
-0.0792831767119631
 40
-0.0755224742912432
 40
-0.0755224742912432
 40
-0.0726835956500095
 40
-0.0726835956500095
 40
-0.0696325782968277
 40
-0.0696325782968277
 40
-0.0648656491472902
 40
-0.0648656491472902
 40
-0.0554194952200863
 40
-0.0554194952200863
 40
-0.0534572646120004
 40
-0.0534572646120004
 40
-0.0534572646120004
 40
-0.0534572646120004
 10
4.462406932629618
 20
2.703226784852415
 30
0.0
 10
4.46283690248097
 20
2.70375122466293
 30
0.0
 10
4.463249595172139
 20
2.704299965291572
 30
0.0
 10
4.464144461653411
 20
2.705652280783464
 30
0.0
 10
4.464604789108338
 20
2.706493109782886
 30
0.0
 10
4.465052570603545
 20
2.707755218152906
 30
0.0
 10
4.465159639069343
 20
2.708163635730863
 30
0.0
 10
4.465265459457351
 20
2.708868061479113
 30
0.0
 10
4.465283534173178
 20
2.709161649552579
 30
0.0
 10
4.46526380516506
 20
2.709749207627881
 30
0.0
 10
4.465221937690138
 20
2.710035877500713
 30
0.0
 10
4.465042941246641
 20
2.710725469147919
 30
0.0
 10
4.464867843019634
 20
2.711094441391937
 30
0.0
 10
4.464216105219941
 20
2.712051529179715
 30
0.0
 10
4.463590837503999
 20
2.7125317898044
 30
0.0
 10
4.462719853383458
 20
2.712914078804345
 30
0.0
 10
4.462565369240374
 20
2.712972963394997
 30
0.0
 10
4.462406932629619
 20
2.713024743823844
 30
0.0
  0
SPLINE
  5
123
330
6C
100
AcDbEntity
  8
Visible (ANSI)
100
AcDbSpline
210
0.0
220
0.0
230
1.0
 70
     8
 71
     3
 72
     8
 73
     4
 74
     0
 42
0.0000000001
 43
0.0000000001
 40
-0.3125316785027805
 40
-0.3125316785027805
 40
-0.3125316785027805
 40
-0.3125316785027805
 40
-0.3082481594170533
 40
-0.3082481594170533
 40
-0.3082481594170533
 40
-0.3082481594170533
 10
4.462406932629616
 20
2.703226784852418
 30
0.0
 10
4.462052345043954
 20
2.70279428977013
 30
0.0
 10
4.461698961888123
 20
2.702352326276739
 30
0.0
 10
4.461348051077544
 20
2.701901929080463
 30
0.0
  0
SPLINE
  5
124
330
6C
100
AcDbEntity
  8
Visible (ANSI)
100
AcDbSpline
210
0.0
220
0.0
230
1.0
 70
     8
 71
     3
 72
     8
 73
     4
 74
     0
 42
0.0000000001
 43
0.0000000001
 40
-0.5130257967337127
 40
-0.5130257967337127
 40
-0.5130257967337127
 40
-0.5130257967337127
 40
-0.5087422776479854
 40
-0.5087422776479854
 40
-0.5087422776479854
 40
-0.5087422776479854
 10
4.461348051077544
 20
2.674562457211054
 30
0.0
 10
4.46169898233477
 20
2.674683147807983
 30
0.0
 10
4.462052312004935
 20
2.674801553739359
 30
0.0
 10
4.462406932629616
 20
2.674917451245237
 30
0.0
  0
SPLINE
  5
125
330
6C
100
AcDbEntity
  8
Visible (ANSI)
100
AcDbSpline
210
0.0
220
0.0
230
1.0
 70
     8
 71
     3
 72
    22
 73
    18
 74
     0
 42
0.0000000001
 43
0.0000000001
 40
-0.0926955967887156
 40
-0.0926955967887156
 40
-0.0926955967887156
 40
-0.0926955967887156
 40
-0.0870842061921259
 40
-0.0870842061921259
 40
-0.0792831767113256
 40
-0.0792831767113256
 40
-0.0755224742906762
 40
-0.0755224742906762
 40
-0.0726835956494894
 40
-0.0726835956494894
 40
-0.0696325782963537
 40
-0.0696325782963537
 40
-0.0648656491468948
 40
-0.0648656491468948
 40
-0.0554194952198066
 40
-0.0554194952198066
 40
-0.0534572646117415
 40
-0.0534572646117415
 40
-0.0534572646117415
 40
-0.0534572646117415
 10
4.462406932629615
 20
2.669260596995578
 30
0.0
 10
4.462836902480965
 20
2.669785036806099
 30
0.0
 10
4.463249595172132
 20
2.6703051858094
 30
0.0
 10
4.464144461653402
 20
2.671512857294963
 30
0.0
 10
4.464604789108328
 20
2.672205128534861
 30
0.0
 10
4.465052570603534
 20
2.673131084134581
 30
0.0
 10
4.465159639069333
 20
2.673413245265662
 30
0.0
 10
4.465265459457341
 20
2.673865681805522
 30
0.0
 10
4.465283534173169
 20
2.674042944858634
 30
0.0
 10
4.465263805165049
 20
2.67437367278918
 30
0.0
 10
4.465221937690127
 20
2.674521174909316
 30
0.0
 10
4.465042941246631
 20
2.674841626239591
 30
0.0
 10
4.464867843019624
 20
2.674978235418358
 30
0.0
 10
4.46421610521993
 20
2.67523909256361
 30
0.0
 10
4.463590837503987
 20
2.675228753060764
 30
0.0
 10
4.462719853383452
 20
2.67501361741811
 30
0.0
 10
4.462565369240369
 20
2.674969231674091
 30
0.0
 10
4.462406932629614
 20
2.674917451245233
 30
0.0
  0
SPLINE
  5
126
330
6C
100
AcDbEntity
  8
Visible (ANSI)
100
AcDbSpline
210
0.0
220
0.0
230
1.0
 70
     8
 71
     3
 72
     8
 73
     4
 74
     0
 42
0.0000000001
 43
0.0000000001
 40
-0.3125316785027904
 40
-0.3125316785027904
 40
-0.3125316785027904
 40
-0.3125316785027904
 40
-0.3082481594170441
 40
-0.3082481594170441
 40
-0.3082481594170441
 40
-0.3082481594170441
 10
4.462406932629618
 20
2.669260596995578
 30
0.0
 10
4.462052345043954
 20
2.668828101913288
 30
0.0
 10
4.461698961888122
 20
2.668386138419896
 30
0.0
 10
4.461348051077541
 20
2.667935741223617
 30
0.0
  0
SPLINE
  5
127
330
6C
100
AcDbEntity
  8
Visible (ANSI)
100
AcDbSpline
210
0.0
220
0.0
230
1.0
 70
     8
 71
     3
 72
     8
 73
     4
 74
     0
 42
0.0000000001
 43
0.0000000001
 40
-0.5130257967336655
 40
-0.5130257967336655
 40
-0.5130257967336655
 40
-0.5130257967336655
 40
-0.5087422776479347
 40
-0.5087422776479347
 40
-0.5087422776479347
 40
-0.5087422776479347
 10
4.461348051077543
 20
2.657928799993364
 30
0.0
 10
4.46169898233477
 20
2.658258532836169
 30
0.0
 10
4.462052312004935
 20
2.658582023856607
 30
0.0
 10
4.462406932629618
 20
2.658898661731138
 30
0.0
  0
SPLINE
  5
128
330
6C
100
AcDbEntity
  8
Visible (ANSI)
100
AcDbSpline
210
0.0
220
0.0
230
1.0
 70
     8
 71
     3
 72
    16
 73
    12
 74
     0
 42
0.0000000001
 43
0.0000000001
 40
-0.0731734070956628
 40
-0.0731734070956628
 40
-0.0731734070956628
 40
-0.0731734070956628
 40
-0.0726835956495069
 40
-0.0726835956495069
 40
-0.0696325782963638
 40
-0.0696325782963638
 40
-0.0648656491468815
 40
-0.0648656491468815
 40
-0.0554194952197664
 40
-0.0554194952197664
 40
-0.0534572646116568
 40
-0.0534572646116568
 40
-0.0534572646116568
 40
-0.0534572646116568
 10
4.465276484309105
 20
2.661241809391144
 30
0.0
 10
4.465276485197237
 20
2.661241808382611
 30
0.0
 10
4.465275665652965
 20
2.661241195533877
 30
0.0
 10
4.465263805165072
 20
2.661232346013168
 30
0.0
 10
4.46522193769015
 20
2.661201157306636
 30
0.0
 10
4.465042941246653
 20
2.661066603644819
 30
0.0
 10
4.464867843019646
 20
2.660934245439206
 30
0.0
 10
4.464216105219954
 20
2.660428975480522
 30
0.0
 10
4.463590837504011
 20
2.659930806311584
 30
0.0
 10
4.462719853383467
 20
2.659175891448041
 30
0.0
 10
4.462565369240381
 20
2.659040128493612
 30
0.0
 10
4.462406932629622
 20
2.658898661731143
 30
0.0
  0
SPLINE
  5
129
330
6C
100
AcDbEntity
  8
Visible (ANSI)
100
AcDbSpline
210
0.0
220
0.0
230
1.0
 70
     8
 71
     3
 72
    10
 73
     6
 74
     0
 42
0.0000000001
 43
0.0000000001
 40
-0.0980361813162919
 40
-0.0980361813162919
 40
-0.0980361813162919
 40
-0.0980361813162919
 40
-0.0494320651530753
 40
-0.0494320651530753
 40
-0.0000317527728444
 40
-0.0000317527728444
 40
-0.0000317527728444
 40
-0.0000317527728444
 10
4.496691139404416
 20
2.716259033558964
 30
0.0
 10
4.495191636921036
 20
2.721682571016008
 30
0.0
 10
4.493680794279617
 20
2.727375561262562
 30
0.0
 10
4.490555341410049
 20
2.739253862943562
 30
0.0
 10
4.488950582901864
 20
2.745407131978709
 30
0.0
 10
4.487326009940479
 20
2.751641064483553
 30
0.0
  0
SPLINE
  5
12A
330
6C
100
AcDbEntity
  8
Visible (ANSI)
100
AcDbSpline
210
0.0
220
0.0
230
1.0
 70
     8
 71
     3
 72
    22
 73
    18
 74
     0
 42
0.0000000001
 43
0.0000000001
 40
0.0000448512327273
 40
0.0000448512327273
 40
0.0000448512327273
 40
0.0000448512327273
 40
0.0530452700124937
 40
0.0530452700124937
 40
0.107918964660767
 40
0.107918964660767
 40
0.2110340891264075
 40
0.2110340891264075
 40
0.3152427920005484
 40
0.3152427920005484
 40
0.4245758300110455
 40
0.4245758300110455
 40
0.5082493205618189
 40
0.5082493205618189
 40
0.5469914333950429
 40
0.5469914333950429
 40
0.5621945273509589
 40
0.5621945273509589
 40
0.5621945273509589
 40
0.5621945273509589
 10
4.479170762585577
 20
2.782467835882064
 30
0.0
 10
4.480330388846612
 20
2.776314528716737
 30
0.0
 10
4.481469207099423
 20
2.769785170550176
 30
0.0
 10
4.483747468644699
 20
2.756157903589493
 30
0.0
 10
4.484886839413987
 20
2.749039673710266
 30
0.0
 10
4.48811853942055
 20
2.72853034912563
 30
0.0
 10
4.490050200359189
 20
2.715893844229305
 30
0.0
 10
4.493873760191509
 20
2.692199806527499
 30
0.0
 10
4.495748530532395
 20
2.681262514866927
 30
0.0
 10
4.499502606010111
 20
2.662428701740333
 30
0.0
 10
4.501376540979742
 20
2.654702711976239
 30
0.0
 10
4.504611668653544
 20
2.645130204422807
 30
0.0
 10
4.506642309811093
 20
2.640176442190927
 30
0.0
 10
4.51030107031104
 20
2.640050343241407
 30
0.0
 10
4.511442906847557
 20
2.641069994120743
 30
0.0
 10
4.513012163622994
 20
2.643869760602066
 30
0.0
 10
4.513452169304936
 20
2.644811496239817
 30
0.0
 10
4.513889989993763
 20
2.645902345503812
 30
0.0
  0
SPLINE
  5
12B
330
6C
100
AcDbEntity
  8
Visible (ANSI)
100
AcDbSpline
210
0.0
220
0.0
230
1.0
 70
     8
 71
     3
 72
    10
 73
     6
 74
     0
 42
0.0000000001
 43
0.0000000001
 40
-0.0499100789321856
 40
-0.0499100789321856
 40
-0.0499100789321856
 40
-0.0499100789321856
 40
-0.0249451734753686
 40
-0.0249451734753686
 40
-0.0000190493679242
 40
-0.0000190493679242
 40
-0.0000190493679242
 40
-0.0000190493679242
 10
4.479169743132706
 20
2.782478076206577
 30
0.0
 10
4.479484066070769
 20
2.779320739285764
 30
0.0
 10
4.479800769537932
 20
2.776120705163124
 30
0.0
 10
4.480436340329814
 20
2.769671360464015
 30
0.0
 10
4.480754851546773
 20
2.766425869172443
 30
0.0
 10
4.481074401827872
 20
2.763172281819405
 30
0.0
  0
SPLINE
  5
12C
330
6C
100
AcDbEntity
  8
Visible (ANSI)
100
AcDbSpline
210
0.0
220
0.0
230
1.0
 70
     8
 71
     3
 72
    10
 73
     6
 74
     0
 42
0.0000000001
 43
0.0000000001
 40
-0.0040095518387284
 40
-0.0040095518387284
 40
-0.0040095518387284
 40
-0.0040095518387284
 40
-0.002015651985768
 40
-0.002015651985768
 40
-0.000017626977391
 40
-0.000017626977391
 40
-0.000017626977391
 40
-0.000017626977391
 10
4.481074401906352
 20
2.763172281834485
 30
0.0
 10
4.481099966411649
 20
2.762911996305503
 30
0.0
 10
4.481124993135511
 20
2.762651697881772
 30
0.0
 10
4.481174061168157
 20
2.762130126976815
 30
0.0
 10
4.481198076988412
 20
2.761869101031984
 30
0.0
 10
4.481221570276613
 20
2.7616079536938
 30
0.0
  0
SPLINE
  5
12D
330
6C
100
AcDbEntity
  8
Visible (ANSI)
100
AcDbSpline
210
0.0
220
0.0
230
1.0
 70
     8
 71
     3
 72
    10
 73
     6
 74
     0
 42
0.0000000001
 43
0.0000000001
 40
-0.0127030868235878
 40
-0.0127030868235878
 40
-0.0127030868235878
 40
-0.0127030868235878
 40
-0.0058601854314565
 40
-0.0058601854314565
 40
-0.0000160940740761
 40
-0.0000160940740761
 40
-0.0000160940740761
 40
-0.0000160940740761
 10
4.481221570267823
 20
2.761607953693149
 30
0.0
 10
4.481286649349713
 20
2.760884813517519
 30
0.0
 10
4.481348231424248
 20
2.76016316875092
 30
0.0
 10
4.481466902226486
 20
2.758820822187258
 30
0.0
 10
4.481531041781888
 20
2.758115544264913
 30
0.0
 10
4.481606491393291
 20
2.757352998135921
 30
0.0
  0
SPLINE
  5
12E
330
6C
100
AcDbEntity
  8
Visible (ANSI)
100
AcDbSpline
210
0.0
220
0.0
230
1.0
 70
     8
 71
     3
 72
    10
 73
     6
 74
     0
 42
0.0000000001
 43
0.0000000001
 40
-0.0099672288205303
 40
-0.0099672288205303
 40
-0.0099672288205303
 40
-0.0099672288205303
 40
-0.0050141851145001
 40
-0.0050141851145001
 40
-0.0000132969017334
 40
-0.0000132969017334
 40
-0.0000132969017334
 40
-0.0000132969017334
 10
4.481606491396131
 20
2.75735299813608
 30
0.0
 10
4.481690272487032
 20
2.756506877535233
 30
0.0
 10
4.48177337291391
 20
2.755736881175347
 30
0.0
 10
4.481914058715255
 20
2.754451483467567
 30
0.0
 10
4.481986221405819
 20
2.753802260584987
 30
0.0
 10
4.482055916804372
 20
2.753150756184379
 30
0.0
  0
SPLINE
  5
12F
330
6C
100
AcDbEntity
  8
Visible (ANSI)
100
AcDbSpline
210
0.0
220
0.0
230
1.0
 70
     8
 71
     3
 72
    10
 73
     6
 74
     0
 42
0.0000000001
 43
0.0000000001
 40
-0.0040912481657941
 40
-0.0040912481657941
 40
-0.0040912481657941
 40
-0.0040912481657941
 40
-0.0020602537784768
 40
-0.0020602537784768
 40
-0.0000109324775778
 40
-0.0000109324775778
 40
-0.0000109324775778
 40
-0.0000109324775778
 10
4.482055916811264
 20
2.75315075618405
 30
0.0
 10
4.482084234803293
 20
2.752886122298045
 30
0.0
 10
4.482112009192107
 20
2.752621681736709
 30
0.0
 10
4.482166801686449
 20
2.752090472408298
 30
0.0
 10
4.482193789958087
 20
2.751823904057986
 30
0.0
 10
4.48222028353414
 20
2.751557518327147
 30
0.0
  0
SPLINE
  5
130
330
6C
100
AcDbEntity
  8
Visible (ANSI)
100
AcDbSpline
210
0.0
220
0.0
230
1.0
 70
     8
 71
     3
 72
     9
 73
     5
 74
     0
 42
0.0000000001
 43
0.0000000001
 40
0.0
 40
0.0
 40
0.0
 40
0.0
 40
0.5
 40
1.0
 40
1.0
 40
1.0
 40
1.0
 10
5.189037521098018
 20
2.680395757893316
 30
0.0
 10
5.187592042175719
 20
2.680569025042066
 30
0.0
 10
5.184723683543419
 20
2.680922131736816
 30
0.0
 10
5.181900450437919
 20
2.681288420848726
 30
0.0
 10
5.180500095972019
 20
2.681474867023096
 30
0.0
  0
SPLINE
  5
131
330
6C
100
AcDbEntity
  8
Visible (ANSI)
100
AcDbSpline
210
0.0
220
0.0
230
1.0
 70
     8
 71
     3
 72
    10
 73
     6
 74
     0
 42
0.0000000001
 43
0.0000000001
 40
0.0000224362805726
 40
0.0000224362805726
 40
0.0000224362805726
 40
0.0000224362805726
 40
0.0003958320704164
 40
0.0003958320704164
 40
0.0007775381429016
 40
0.0007775381429016
 40
0.0007775381429016
 40
0.0007775381429016
 10
5.18053750524912
 20
2.681343881721124
 30
0.0
 10
5.180528948193447
 20
2.68136547905226
 30
0.0
 10
5.180520391344675
 20
2.681387113132402
 30
0.0
 10
5.180503087611986
 20
2.681430937048605
 30
0.0
 10
5.180494340740731
 20
2.681453128528394
 30
0.0
 10
5.18048559407604
 20
2.681475358352529
 30
0.0
  0
SPLINE
  5
132
330
6C
100
AcDbEntity
  8
Visible (ANSI)
100
AcDbSpline
210
0.0
220
0.0
230
1.0
 70
     8
 71
     3
 72
    12
 73
     8
 74
     0
 42
0.0000000001
 43
0.0000000001
 40
0.03706346260808
 40
0.03706346260808
 40
0.03706346260808
 40
0.03706346260808
 40
0.0691879141666409
 40
0.0691879141666409
 40
0.1036868840458883
 40
0.1036868840458883
 40
0.1386034865913637
 40
0.1386034865913637
 40
0.1386034865913637
 40
0.1386034865913637
 10
5.186768238763328
 20
2.67235288012421
 30
0.0
 10
5.186113093023995
 20
2.672352885252784
 30
0.0
 10
5.185458123752739
 20
2.672657051948323
 30
0.0
 10
5.184098726044492
 20
2.673919501207762
 30
0.0
 10
5.183396450963194
 20
2.674921376403697
 30
0.0
 10
5.181976815375271
 20
2.677618905329883
 30
0.0
 10
5.181262476525049
 20
2.679318546631189
 30
0.0
 10
5.180548403652849
 20
2.68134472147047
 30
0.0
  0
LINE
  5
133
330
6C
100
AcDbEntity
  8
Visible (ANSI)
100
AcDbLine
 10
5.189037521098018
 20
2.680395757893316
 30
0.0
 11
5.189037521098018
 21
2.672352866945126
 31
0.0
  0
SPLINE
  5
134
330
6C
100
AcDbEntity
  8
Visible (ANSI)
100
AcDbSpline
210
0.0
220
0.0
230
1.0
 70
     8
 71
     3
 72
    14
 73
    10
 74
     0
 42
0.0000000001
 43
0.0000000001
 40
0.0000324861406612
 40
0.0000324861406612
 40
0.0000324861406612
 40
0.0000324861406612
 40
0.0790605306557215
 40
0.0790605306557215
 40
0.1233070206898093
 40
0.1233070206898093
 40
0.2058677173416554
 40
0.2058677173416554
 40
0.2457659682003018
 40
0.2457659682003018
 40
0.2457659682003018
 40
0.2457659682003018
 10
5.163790924762547
 20
2.757352866926237
 30
0.0
 10
5.161961330079726
 20
2.767561273970907
 30
0.0
 10
5.160157362097773
 20
2.777688600546027
 30
0.0
 10
5.1573379205172
 20
2.792600786836445
 30
0.0
 10
5.156329921600347
 20
2.797735963256435
 30
0.0
 10
5.153407624186063
 20
2.811607518873747
 30
0.0
 10
5.151502348834229
 20
2.819492078427965
 30
0.0
 10
5.148691906895831
 20
2.828870927305437
 30
0.0
 10
5.147782410484039
 20
2.831542074509229
 30
0.0
 10
5.14686993234056
 20
2.833795947657933
 30
0.0
  0
SPLINE
  5
135
330
6C
100
AcDbEntity
  8
Visible (ANSI)
100
AcDbSpline
210
0.0
220
0.0
230
1.0
 70
     8
 71
     3
 72
    16
 73
    12
 74
     0
 42
0.0000000001
 43
0.0000000001
 40
1.035780134296928
 40
1.035780134296928
 40
1.035780134296928
 40
1.035780134296928
 40
1.042140914420202
 40
1.042140914420202
 40
1.086121055333677
 40
1.086121055333677
 40
1.127352338513894
 40
1.127352338513894
 40
1.188539930013934
 40
1.188539930013934
 40
1.251106933049706
 40
1.251106933049706
 40
1.251106933049706
 40
1.251106933049706
 10
5.092476622690303
 20
2.672352866837419
 30
0.0
 10
5.092330590159045
 20
2.67235286684197
 30
0.0
 10
5.092184340751869
 20
2.672364756587847
 30
0.0
 10
5.09102486127119
 20
2.672553274117306
 30
0.0
 10
5.090006041917956
 20
2.673287126551238
 30
0.0
 10
5.088035079224193
 20
2.675789992912373
 30
0.0
 10
5.087086778529163
 20
2.677486116021738
 30
0.0
 10
5.084736863336658
 20
2.682849511969954
 30
0.0
 10
5.083350222466473
 20
2.687046577018167
 30
0.0
 10
5.08050668611132
 20
2.697297361640685
 30
0.0
 10
5.079057728763855
 20
2.703338167271598
 30
0.0
 10
5.077613402863286
 20
2.71005428703304
 30
0.0
  0
LINE
  5
136
330
6C
100
AcDbEntity
  8
Visible (ANSI)
100
AcDbLine
 10
5.189037521098018
 20
2.757352866945126
 30
0.0
 11
5.163790924790224
 21
2.757352866931197
 31
0.0
  0
LINE
  5
137
330
6C
100
AcDbEntity
  8
Visible (ANSI)
100
AcDbLine
 10
5.189037521098018
 20
2.757352866945126
 30
0.0
 11
5.189037521098018
 21
2.842352866945126
 31
0.0
  0
SPLINE
  5
138
330
6C
100
AcDbEntity
  8
Visible (ANSI)
100
AcDbSpline
210
0.0
220
0.0
230
1.0
 70
     8
 71
     3
 72
     8
 73
     4
 74
     0
 42
0.0000000001
 43
0.0000000001
 40
0.0000335862759969
 40
0.0000335862759969
 40
0.0000335862759969
 40
0.0000335862759969
 40
0.0025752700618811
 40
0.0025752700618811
 40
0.0025752700618811
 40
0.0025752700618811
 10
5.151437020700943
 20
2.68134492443329
 30
0.0
 10
5.151501906464862
 20
2.681198463290567
 30
0.0
 10
5.151566776873237
 20
2.681053712354132
 30
0.0
 10
5.151631634136904
 20
2.680910677451129
 30
0.0
  0
SPLINE
  5
139
330
6C
100
AcDbEntity
  8
Visible (ANSI)
100
AcDbSpline
210
0.0
220
0.0
230
1.0
 70
     8
 71
     3
 72
    10
 73
     6
 74
     0
 42
0.0000000001
 43
0.0000000001
 40
0.0000347799340462
 40
0.0000347799340462
 40
0.0000347799340462
 40
0.0000347799340462
 40
0.0132480538480969
 40
0.0132480538480969
 40
0.0264676205008155
 40
0.0264676205008155
 40
0.0264676205008155
 40
0.0264676205008155
 10
5.149620883596511
 20
2.686472122279762
 30
0.0
 10
5.14992680565192
 20
2.68553007647992
 30
0.0
 10
5.150232579972839
 20
2.684631096133208
 30
0.0
 10
5.150843833812102
 20
2.682921315094251
 30
0.0
 10
5.151149179110962
 20
2.682110932169714
 30
0.0
 10
5.151454189710443
 20
2.681346372634048
 30
0.0
  0
SPLINE
  5
13A
330
6C
100
AcDbEntity
  8
Visible (ANSI)
100
AcDbSpline
210
0.0
220
0.0
230
1.0
 70
     8
 71
     3
 72
    23
 73
    19
 74
     0
 42
0.0000000001
 43
0.0000000001
 40
0.0
 40
0.0
 40
0.0
 40
0.0
 40
0.1666666666667
 40
0.1666666666667
 40
0.1666666666667
 40
0.3333333333333001
 40
0.3333333333333001
 40
0.3333333333333001
 40
0.5
 40
0.5
 40
0.5
 40
0.6666666666667
 40
0.6666666666667
 40
0.6666666666667
 40
0.8333333333332998
 40
0.8333333333332998
 40
0.8333333333332998
 40
1.0
 40
1.0
 40
1.0
 40
1.0
 10
5.149609552433319
 20
2.686471849498706
 30
0.0
 10
5.14428401407062
 20
2.687506513160705
 30
0.0
 10
5.139182472097868
 20
2.688599535651725
 30
0.0
 10
5.134297892494508
 20
2.68974836881622
 30
0.0
 10
5.129413312891151
 20
2.690897201980716
 30
0.0
 10
5.124745695657186
 20
2.692102014944982
 30
0.0
 10
5.120308516286504
 20
2.693352699733337
 30
0.0
 10
5.11587133691582
 20
2.694603384521693
 30
0.0
 10
5.11166459540842
 20
2.695899829878592
 30
0.0
 10
5.107681823641102
 20
2.69723432379963
 30
0.0
 10
5.103699051873785
 20
2.698568817720668
 30
0.0
 10
5.099940249846551
 20
2.699941352558945
 30
0.0
 10
5.0963977763996
 20
2.701343332239805
 30
0.0
 10
5.092855302952652
 20
2.702745311920664
 30
0.0
 10
5.089529158085986
 20
2.704176672531371
 30
0.0
 10
5.086404537328604
 20
2.705631436454021
 30
0.0
 10
5.083279916571219
 20
2.707086200376672
 30
0.0
 10
5.080356819923118
 20
2.708564470190644
 30
0.0
 10
5.077633508262719
 20
2.710053023984156
 30
0.0
  0
SPLINE
  5
13B
330
6C
100
AcDbEntity
  8
Visible (ANSI)
100
AcDbSpline
210
0.0
220
0.0
230
1.0
 70
     8
 71
     3
 72
    16
 73
    12
 74
     0
 42
0.0000000001
 43
0.0000000001
 40
0.3451499595375043
 40
0.3451499595375043
 40
0.3451499595375043
 40
0.3451499595375043
 40
0.4252688477216006
 40
0.4252688477216006
 40
0.4919129030321052
 40
0.4919129030321052
 40
0.5715600984024957
 40
0.5715600984024957
 40
0.6207232278014292
 40
0.6207232278014292
 40
0.6903503898833123
 40
0.6903503898833123
 40
0.6903503898833123
 40
0.6903503898833123
 10
5.110929419259721
 20
2.842352866963054
 30
0.0
 10
5.112767592999483
 20
2.842352868677265
 30
0.0
 10
5.1145736737376
 20
2.840461974764304
 30
0.0
 10
5.117966262907224
 20
2.833705656577559
 30
0.0
 10
5.11950474081599
 20
2.829432535258158
 30
0.0
 10
5.122866399815542
 20
2.817727514270992
 30
0.0
 10
5.124660539161458
 20
2.80994002330947
 30
0.0
 10
5.127632230762965
 20
2.795672099312376
 30
0.0
 10
5.12877091720286
 20
2.789876994893251
 30
0.0
 10
5.131514484151143
 20
2.775292395452138
 30
0.0
 10
5.133097278656481
 20
2.766351746373801
 30
0.0
 10
5.134690295792708
 20
2.757352866956619
 30
0.0
  0
SPLINE
  5
13C
330
6C
100
AcDbEntity
  8
Visible (ANSI)
100
AcDbSpline
210
0.0
220
0.0
230
1.0
 70
     8
 71
     3
 72
    14
 73
    10
 74
     0
 42
0.0000000001
 43
0.0000000001
 40
0.0001131801036879
 40
0.0001131801036879
 40
0.0001131801036879
 40
0.0001131801036879
 40
0.0635162581209311
 40
0.0635162581209311
 40
0.1259980451647649
 40
0.1259980451647649
 40
0.1690644488367289
 40
0.1690644488367289
 40
0.2292811632233565
 40
0.2292811632233565
 40
0.2292811632233565
 40
0.2292811632233565
 10
5.04067715793971
 20
2.751226613089857
 30
0.0
 10
5.042130731368279
 20
2.743055405438797
 30
0.0
 10
5.043596379082743
 20
2.735013535869064
 30
0.0
 10
5.046505824955886
 20
2.719798837097897
 30
0.0
 10
5.047931980384692
 20
2.712690177707652
 30
0.0
 10
5.050345662632058
 20
2.701792937139501
 30
0.0
 10
5.05132692314542
 20
2.697686458004544
 30
0.0
 10
5.053706302696249
 20
2.688794525146708
 30
0.0
 10
5.0550957235775
 20
2.684439109532788
 30
0.0
 10
5.056481441287522
 20
2.681026315634408
 30
0.0
  0
SPLINE
  5
13D
330
6C
100
AcDbEntity
  8
Visible (ANSI)
100
AcDbSpline
210
0.0
220
0.0
230
1.0
 70
     8
 71
     3
 72
     9
 73
     5
 74
     0
 42
0.0000000001
 43
0.0000000001
 40
0.0004373146207688
 40
0.0004373146207688
 40
0.0004373146207688
 40
0.0004373146207688
 40
0.5
 40
0.9955223899870272
 40
0.9955223899870272
 40
0.9955223899870272
 40
0.9955223899870272
 10
5.040686722972862
 20
2.751227209842235
 30
0.0
 10
5.040645321301221
 20
2.751552501177971
 30
0.0
 10
5.040531604002951
 20
2.752222512090813
 30
0.0
 10
5.040428597112589
 20
2.752798248728018
 30
0.0
 10
5.040364401064894
 20
2.753118172034363
 30
0.0
  0
SPLINE
  5
13E
330
6C
100
AcDbEntity
  8
Visible (ANSI)
100
AcDbSpline
210
0.0
220
0.0
230
1.0
 70
     8
 71
     3
 72
    10
 73
     6
 74
     0
 42
0.0000000001
 43
0.0000000001
 40
0.0000182085306635
 40
0.0000182085306635
 40
0.0000182085306635
 40
0.0000182085306635
 40
0.0054129910189337
 40
0.0054129910189337
 40
0.010932127140708
 40
0.010932127140708
 40
0.010932127140708
 40
0.010932127140708
 10
5.039590600618303
 20
2.757354056418479
 30
0.0
 10
5.0397139951475
 20
2.756656916165016
 30
0.0
 10
5.039837406653538
 20
2.755959807511596
 30
0.0
 10
5.040087164730475
 20
2.754549905501606
 30
0.0
 10
5.040213502763565
 20
2.753837181000523
 30
0.0
 10
5.040339907519172
 20
2.753124884603011
 30
0.0
  0
SPLINE
  5
13F
330
6C
100
AcDbEntity
  8
Visible (ANSI)
100
AcDbSpline
210
0.0
220
0.0
230
1.0
 70
     8
 71
     3
 72
    18
 73
    14
 74
     0
 42
0.0000000001
 43
0.0000000001
 40
0.3451356642283756
 40
0.3451356642283756
 40
0.3451356642283756
 40
0.3451356642283756
 40
0.3468356634517819
 40
0.3468356634517819
 40
0.4283383469469935
 40
0.4283383469469935
 40
0.5041378405683802
 40
0.5041378405683802
 40
0.5867267591658379
 40
0.5867267591658379
 40
0.6376423867660878
 40
0.6376423867660878
 40
0.6903385363398353
 40
0.6903385363398353
 40
0.6903385363398353
 40
0.6903385363398353
 10
5.015829519933645
 20
2.842352866738417
 30
0.0
 10
5.015868528471391
 20
2.842352866872315
 30
0.0
 10
5.015907532844412
 20
2.842352015959889
 30
0.0
 10
5.017816306480289
 20
2.842268672743849
 30
0.0
 10
5.019653988365361
 20
2.840230543015118
 30
0.0
 10
5.023292031746448
 20
2.832723388564152
 30
0.0
 10
5.025036509491696
 20
2.827559570436993
 30
0.0
 10
5.028667946850295
 20
2.814013164269984
 30
0.0
 10
5.030532876623452
 20
2.805506513744728
 30
0.0
 10
5.033623077460211
 20
2.790143576935662
 30
0.0
 10
5.034799548960492
 20
2.783956381777099
 30
0.0
 10
5.037184799887462
 20
2.7709508472812
 30
0.0
 10
5.038385035185286
 20
2.764165119741573
 30
0.0
 10
5.039590600618243
 20
2.757354056418468
 30
0.0
  0
SPLINE
  5
140
330
6C
100
AcDbEntity
  8
Visible (ANSI)
100
AcDbSpline
210
0.0
220
0.0
230
1.0
 70
     8
 71
     3
 72
    14
 73
    10
 74
     0
 42
0.0000000001
 43
0.0000000001
 40
0.0000069404510916
 40
0.0000069404510916
 40
0.0000069404510916
 40
0.0000069404510916
 40
0.0623168071390807
 40
0.0623168071390807
 40
0.1245600785207709
 40
0.1245600785207709
 40
0.1968769075723595
 40
0.1968769075723595
 40
0.24507767548256
 40
0.24507767548256
 40
0.24507767548256
 40
0.24507767548256
 10
4.94449081933411
 20
2.757354092006559
 30
0.0
 10
4.945915980626433
 20
2.749302103866464
 30
0.0
 10
4.947345030877539
 20
2.741292422168601
 30
0.0
 10
4.950228828973977
 20
2.725846308397602
 30
0.0
 10
4.951658043796071
 20
2.718484238221129
 30
0.0
 10
4.954740844844948
 20
2.703817473584238
 30
0.0
 10
4.956376473716023
 20
2.696817690468702
 30
0.0
 10
4.959162694749439
 20
2.687091056062561
 30
0.0
 10
4.960272435408421
 20
2.683756067574604
 30
0.0
 10
4.961379341227066
 20
2.681028043852304
 30
0.0
  0
SPLINE
  5
141
330
6C
100
AcDbEntity
  8
Visible (ANSI)
100
AcDbSpline
210
0.0
220
0.0
230
1.0
 70
     8
 71
     3
 72
    18
 73
    14
 74
     0
 42
0.0000000001
 43
0.0000000001
 40
0.3451376164496526
 40
0.3451376164496526
 40
0.3451376164496526
 40
0.3451376164496526
 40
0.3474800988326022
 40
0.3474800988326022
 40
0.4290395205007744
 40
0.4290395205007744
 40
0.5054644585464492
 40
0.5054644585464492
 40
0.5879781162192883
 40
0.5879781162192883
 40
0.6383075710081131
 40
0.6383075710081131
 40
0.6903408857905355
 40
0.6903408857905355
 40
0.6903408857905355
 40
0.6903408857905355
 10
4.920729604653877
 20
2.842352866546545
 30
0.0
 10
4.920783359034059
 20
2.842352866801711
 30
0.0
 10
4.920837105595456
 20
2.842351251610113
 30
0.0
 10
4.9227618847295
 20
2.842235453950257
 30
0.0
 10
4.92460089483366
 20
2.84016399746398
 30
0.0
 10
4.928254819489463
 20
2.832563908918449
 30
0.0
 10
4.930013277495388
 20
2.827317886192679
 30
0.0
 10
4.9336568450571
 20
2.813631953785429
 30
0.0
 10
4.935520703309742
 20
2.805094754966675
 30
0.0
 10
4.938595827377274
 20
2.789763920429166
 30
0.0
 10
4.939758674411578
 20
2.783638618858441
 30
0.0
 10
4.942115107222946
 20
2.770780459679227
 30
0.0
 10
4.943300460703952
 20
2.764079480774535
 30
0.0
 10
4.944490819333736
 20
2.757354092006492
 30
0.0
  0
SPLINE
  5
142
330
6C
100
AcDbEntity
  8
Visible (ANSI)
100
AcDbSpline
210
0.0
220
0.0
230
1.0
 70
     8
 71
     3
 72
    16
 73
    12
 74
     0
 42
0.0000000001
 43
0.0000000001
 40
0.000007032947331
 40
0.000007032947331
 40
0.000007032947331
 40
0.000007032947331
 40
0.0612048672672016
 40
0.0612048672672016
 40
0.1223551930861923
 40
0.1223551930861923
 40
0.1622048042695746
 40
0.1622048042695746
 40
0.2444183134224248
 40
0.2444183134224248
 40
0.2449876055457298
 40
0.2449876055457298
 40
0.2449876055457298
 40
0.2449876055457298
 10
4.849390927012573
 20
2.757354111114835
 30
0.0
 10
4.850790697887221
 20
2.749445833087917
 30
0.0
 10
4.852193627913989
 20
2.741577694140944
 30
0.0
 10
4.855026490626141
 20
2.726382844893243
 30
0.0
 10
4.856431808612452
 20
2.719126864477306
 30
0.0
 10
4.858746765779629
 20
2.708048570102114
 30
0.0
 10
4.859654710420104
 20
2.703933941390607
 30
0.0
 10
4.862448930503078
 20
2.692271107853014
 30
0.0
 10
4.864345237769011
 20
2.685827044283269
 30
0.0
 10
4.866254760246192
 20
2.68109484025719
 30
0.0
 10
4.866267890589024
 20
2.681062383788073
 30
0.0
 10
4.866281019625095
 20
2.681030013985506
 30
0.0
  0
SPLINE
  5
143
330
6C
100
AcDbEntity
  8
Visible (ANSI)
100
AcDbSpline
210
0.0
220
0.0
230
1.0
 70
     8
 71
     3
 72
    18
 73
    14
 74
     0
 42
0.0000000001
 43
0.0000000001
 40
0.0000459167249032
 40
0.0000459167249032
 40
0.0000459167249032
 40
0.0000459167249032
 40
0.0630528520819199
 40
0.0630528520819199
 40
0.1242572663261617
 40
0.1242572663261617
 40
0.1680389852367845
 40
0.1680389852367845
 40
0.208414122964905
 40
0.208414122964905
 40
0.2576856357724722
 40
0.2576856357724722
 40
0.3330548770643937
 40
0.3330548770643937
 40
0.3330548770643937
 40
0.3330548770643937
 10
4.826448033165412
 20
2.842226748426041
 30
0.0
 10
4.827891940175231
 20
2.841783406447847
 30
0.0
 10
4.82932090937968
 20
2.840174477186511
 30
0.0
 10
4.832188703741004
 20
2.834803266306596
 30
0.0
 10
4.833605342409312
 20
2.831129571304701
 30
0.0
 10
4.836023800979996
 20
2.823248453010188
 30
0.0
 10
4.837024093708351
 20
2.8195100727765
 30
0.0
 10
4.838948385007221
 20
2.811562093682204
 30
0.0
 10
4.839868355859954
 20
2.807429429746952
 30
0.0
 10
4.841930301674601
 20
2.797660690481732
 30
0.0
 10
4.843071554142952
 20
2.791924730832995
 30
0.0
 10
4.845953526686775
 20
2.776759887937285
 30
0.0
 10
4.847666974168732
 20
2.767093924205454
 30
0.0
 10
4.849390927012114
 20
2.757354111114755
 30
0.0
  0
SPLINE
  5
144
330
6C
100
AcDbEntity
  8
Visible (ANSI)
100
AcDbSpline
210
0.0
220
0.0
230
1.0
 70
     8
 71
     3
 72
     8
 73
     4
 74
     0
 42
0.0000000001
 43
0.0000000001
 40
0.3452322520940803
 40
0.3452322520940803
 40
0.3452322520940803
 40
0.3452322520940803
 40
0.35710755854576
 40
0.35710755854576
 40
0.35710755854576
 40
0.35710755854576
 10
4.825626159662275
 20
2.842352865295129
 30
0.0
 10
4.825900479580385
 20
2.842352865692849
 30
0.0
 10
4.826174668505958
 20
2.842311429210201
 30
0.0
 10
4.826448652029399
 20
2.842228461218724
 30
0.0
  0
SPLINE
  5
145
330
6C
100
AcDbEntity
  8
Visible (ANSI)
100
AcDbSpline
210
0.0
220
0.0
230
1.0
 70
     8
 71
     3
 72
    16
 73
    12
 74
     0
 42
0.0000000001
 43
0.0000000001
 40
0.0000179506927987
 40
0.0000179506927987
 40
0.0000179506927987
 40
0.0000179506927987
 40
0.0682958363231138
 40
0.0682958363231138
 40
0.1338997753706873
 40
0.1338997753706873
 40
0.1776567267018426
 40
0.1776567267018426
 40
0.2211953022592275
 40
0.2211953022592275
 40
0.2445383569589965
 40
0.2445383569589965
 40
0.2445383569589965
 40
0.2445383569589965
 10
4.754303632462813
 20
2.757356371249091
 30
0.0
 10
4.755869988880745
 20
2.748534018742649
 30
0.0
 10
4.757413553536959
 20
2.73976571040767
 30
0.0
 10
4.760497610112732
 20
2.723297268763378
 30
0.0
 10
4.762016193949154
 20
2.715659660237074
 30
0.0
 10
4.764535355108523
 20
2.704072609007739
 30
0.0
 10
4.765535260804821
 20
2.699770315476833
 30
0.0
 10
4.767531817866429
 20
2.691981183897088
 30
0.0
 10
4.768523699729633
 20
2.688510491655054
 30
0.0
 10
4.770064247125749
 20
2.683893230355227
 30
0.0
 10
4.770602348998249
 20
2.682421295529233
 30
0.0
 10
4.771140492425282
 20
2.681093699520529
 30
0.0
  0
SPLINE
  5
146
330
6C
100
AcDbEntity
  8
Visible (ANSI)
100
AcDbSpline
210
0.0
220
0.0
230
1.0
 70
     8
 71
     3
 72
    18
 73
    14
 74
     0
 42
0.0000000001
 43
0.0000000001
 40
0.3450443403439003
 40
0.3450443403439003
 40
0.3450443403439003
 40
0.3450443403439003
 40
0.3879319933395791
 40
0.3879319933395791
 40
0.470495912587113
 40
0.470495912587113
 40
0.5131854070128547
 40
0.5131854070128547
 40
0.5999892419553464
 40
0.5999892419553464
 40
0.6450489322267545
 40
0.6450489322267545
 40
0.6901753887056258
 40
0.6901753887056258
 40
0.6901753887056258
 40
0.6901753887056258
 10
4.730526205317435
 20
2.842352866951044
 30
0.0
 10
4.731517591266799
 20
2.842352867117063
 30
0.0
 10
4.732502709654793
 20
2.841811266625629
 30
0.0
 10
4.735378478502774
 20
2.838663650002409
 30
0.0
 10
4.737242903103879
 20
2.834640478497506
 30
0.0
 10
4.7401418753482
 20
2.825897547543267
 30
0.0
 10
4.741129172602859
 20
2.822472934133079
 30
0.0
 10
4.744114919352703
 20
2.810882111891205
 30
0.0
 10
4.746068462668927
 20
2.801587991516854
 30
0.0
 10
4.749100396495386
 20
2.785968387747234
 30
0.0
 10
4.750143686718875
 20
2.780406739976201
 30
0.0
 10
4.752230474998326
 20
2.769002012993065
 30
0.0
 10
4.753268375488705
 20
2.763187347191997
 30
0.0
 10
4.754303632462917
 20
2.757356371249109
 30
0.0
  0
SPLINE
  5
147
330
6C
100
AcDbEntity
  8
Visible (ANSI)
100
AcDbSpline
210
0.0
220
0.0
230
1.0
 70
     8
 71
     3
 72
    14
 73
    10
 74
     0
 42
0.0000000001
 43
0.0000000001
 40
0.0000180410445859
 40
0.0000180410445859
 40
0.0000180410445859
 40
0.0000180410445859
 40
0.0647306553883568
 40
0.0647306553883568
 40
0.1263085957686436
 40
0.1263085957686436
 40
0.2149768347053325
 40
0.2149768347053325
 40
0.2447291313559899
 40
0.2447291313559899
 40
0.2447291313559899
 40
0.2447291313559899
 10
4.659203737595988
 20
2.757356390257532
 30
0.0
 10
4.660688457023205
 20
2.748994741129677
 30
0.0
 10
4.662153192095845
 20
2.740679125464697
 30
0.0
 10
4.665057934483957
 20
2.725065107125924
 30
0.0
 10
4.666484170130864
 20
2.717814169592245
 30
0.0
 10
4.669950793169795
 20
2.701523925387748
 30
0.0
 10
4.671946254549327
 20
2.693267512806193
 30
0.0
 10
4.674666908484073
 20
2.684717296244362
 30
0.0
 10
4.675353758162282
 20
2.682789123597506
 30
0.0
 10
4.676041758727488
 20
2.681093399258398
 30
0.0
  0
SPLINE
  5
148
330
6C
100
AcDbEntity
  8
Visible (ANSI)
100
AcDbSpline
210
0.0
220
0.0
230
1.0
 70
     8
 71
     3
 72
    16
 73
    12
 74
     0
 42
0.0000000001
 43
0.0000000001
 40
0.3450446381509282
 40
0.3450446381509282
 40
0.3450446381509282
 40
0.3450446381509282
 40
0.3859616565088922
 40
0.3859616565088922
 40
0.4685713680149146
 40
0.4685713680149146
 40
0.5508940346695482
 40
0.5508940346695482
 40
0.6180786629725303
 40
0.6180786629725303
 40
0.6902890369873629
 40
0.6902890369873629
 40
0.6902890369873629
 40
0.6902890369873629
 10
4.635426007408336
 20
2.842352866987803
 30
0.0
 10
4.636371657566168
 20
2.842352867229564
 30
0.0
 10
4.637312047256863
 20
2.841860109306151
 30
0.0
 10
4.640144900605668
 20
2.838901751662982
 30
0.0
 10
4.642008419834215
 20
2.834965387861688
 30
0.0
 10
4.645824504436344
 20
2.823610883390297
 30
0.0
 10
4.647713061482057
 20
2.8163033564147
 30
0.0
 10
4.651135957853632
 20
2.800741742078687
 30
0.0
 10
4.652659109135362
 20
2.793002653564343
 30
0.0
 10
4.655882475267465
 20
2.775956449682867
 30
0.0
 10
4.657546654939411
 20
2.766688728043182
 30
0.0
 10
4.659203737595287
 20
2.757356390257407
 30
0.0
  0
SPLINE
  5
149
330
6C
100
AcDbEntity
  8
Visible (ANSI)
100
AcDbSpline
210
0.0
220
0.0
230
1.0
 70
     8
 71
     3
 72
    14
 73
    10
 74
     0
 42
0.0000000001
 43
0.0000000001
 40
0.0000181290680509
 40
0.0000181290680509
 40
0.0000181290680509
 40
0.0000181290680509
 40
0.0645207664061075
 40
0.0645207664061075
 40
0.1258093956685151
 40
0.1258093956685151
 40
0.2146348520466605
 40
0.2146348520466605
 40
0.2447321223105709
 40
0.2447321223105709
 40
0.2447321223105709
 40
0.2447321223105709
 10
4.564103840018845
 20
2.757356408790243
 30
0.0
 10
4.565583895645729
 20
2.749021918558519
 30
0.0
 10
4.56704402165987
 20
2.740732971614646
 30
0.0
 10
4.569936521605471
 20
2.725176074931417
 30
0.0
 10
4.571356051422645
 20
2.717954180863283
 30
0.0
 10
4.574820312353939
 20
2.701654646829764
 30
0.0
 10
4.576819721980822
 20
2.693367821038476
 30
0.0
 10
4.579551136540906
 20
2.684761491690719
 30
0.0
 10
4.580245797898373
 20
2.682808307490792
 30
0.0
 10
4.580941721785274
 20
2.681092960021372
 30
0.0
  0
SPLINE
  5
14A
330
6C
100
AcDbEntity
  8
Visible (ANSI)
100
AcDbSpline
210
0.0
220
0.0
230
1.0
 70
     8
 71
     3
 72
    18
 73
    14
 74
     0
 42
0.0000000001
 43
0.0000000001
 40
0.5644997853921725
 40
0.5644997853921725
 40
0.5644997853921725
 40
0.5644997853921725
 40
0.5800565910668981
 40
0.5800565910668981
 40
0.6668837828897347
 40
0.6668837828897347
 40
0.7207529010049917
 40
0.7207529010049917
 40
0.7645613213111176
 40
0.7645613213111176
 40
0.8346724158235137
 40
0.8346724158235137
 40
0.9096348055031297
 40
0.9096348055031297
 40
0.9096348055031297
 40
0.9096348055031297
 10
4.540325697818176
 20
2.842352865975885
 30
0.0
 10
4.540685140045011
 20
2.842352865763082
 30
0.0
 10
4.541044298243739
 20
2.842281714667312
 30
0.0
 10
4.54340541249839
 20
2.84134445879331
 30
0.0
 10
4.545359818023037
 20
2.838341613110993
 30
0.0
 10
4.548594868639131
 20
2.830178639990762
 30
0.0
 10
4.549842728738925
 20
2.826301282591848
 30
0.0
 10
4.55210050992108
 20
2.818065854902026
 30
0.0
 10
4.553106158737993
 20
2.81395263685569
 30
0.0
 10
4.5557166527909
 20
2.802323829322582
 30
0.0
 10
4.557302652609246
 20
2.794325468281477
 30
0.0
 10
4.560654944768839
 20
2.776660937920804
 30
0.0
 10
4.562383368671117
 20
2.767044697983408
 30
0.0
 10
4.564103840018037
 20
2.757356408790099
 30
0.0
  0
SPLINE
  5
14B
330
6C
100
AcDbEntity
  8
Visible (ANSI)
100
AcDbSpline
210
0.0
220
0.0
230
1.0
 70
     8
 71
     3
 72
    14
 73
    10
 74
     0
 42
0.0000000001
 43
0.0000000001
 40
0.1275490926762209
 40
0.1275490926762209
 40
0.1275490926762209
 40
0.1275490926762209
 40
0.1829116900370988
 40
0.1829116900370988
 40
0.2712174964747585
 40
0.2712174964747585
 40
0.3186974707880388
 40
0.3186974707880388
 40
0.3650420461036303
 40
0.3650420461036303
 40
0.3650420461036303
 40
0.3650420461036303
 10
4.518713679689168
 20
2.672352917741675
 30
0.0
 10
4.517005674763159
 20
2.672352839150497
 30
0.0
 10
4.515295532166972
 20
2.673224127484167
 30
0.0
 10
4.510833477896486
 20
2.677725172764719
 30
0.0
 10
4.508151300666709
 20
2.682632889586602
 30
0.0
 10
4.503946213375902
 20
2.693033270267566
 30
0.0
 10
4.502469388809203
 20
2.697176320378283
 30
0.0
 10
4.49955319082452
 20
2.706224153504448
 30
0.0
 10
4.49812149920347
 20
2.711084967093968
 30
0.0
 10
4.496691139912556
 20
2.716259034467394
 30
0.0
  0
SPLINE
  5
14C
330
6C
100
AcDbEntity
  8
Visible (ANSI)
100
AcDbSpline
210
0.0
220
0.0
230
1.0
 70
     8
 71
     3
 72
    14
 73
    10
 74
     0
 42
0.0000000001
 43
0.0000000001
 40
0.0000191233197489
 40
0.0000191233197489
 40
0.0000191233197489
 40
0.0000191233197489
 40
0.0888992373521776
 40
0.0888992373521776
 40
0.1756313588619809
 40
0.1756313588619809
 40
0.2183269917844252
 40
0.2183269917844252
 40
0.2450316145853672
 40
0.2450316145853672
 40
0.2450316145853672
 40
0.2450316145853672
 10
4.593180426701231
 20
2.757349109200623
 30
0.0
 10
4.591134920489519
 20
2.76883235201542
 30
0.0
 10
4.589139206085365
 20
2.780196770372477
 30
0.0
 10
4.585086494736152
 20
2.80105872751304
 30
0.0
 10
4.583090334415905
 20
2.810392616012585
 30
0.0
 10
4.580124340875589
 20
2.822068061243411
 30
0.0
 10
4.579152190437936
 20
2.825525735975425
 30
0.0
 10
4.577562190186553
 20
2.830426376682157
 30
0.0
 10
4.576948756134256
 20
2.832130601260423
 30
0.0
 10
4.576334374936947
 20
2.833646113092132
 30
0.0
  0
SPLINE
  5
14D
330
6C
100
AcDbEntity
  8
Visible (ANSI)
100
AcDbSpline
210
0.0
220
0.0
230
1.0
 70
     8
 71
     3
 72
    18
 73
    14
 74
     0
 42
0.0000000001
 43
0.0000000001
 40
0.3452593399050901
 40
0.3452593399050901
 40
0.3452593399050901
 40
0.3452593399050901
 40
0.3870508783729987
 40
0.3870508783729987
 40
0.468037690418987
 40
0.468037690418987
 40
0.511521740602618
 40
0.511521740602618
 40
0.5553051420860068
 40
0.5553051420860068
 40
0.6214538907062382
 40
0.6214538907062382
 40
0.6903860129650816
 40
0.6903860129650816
 40
0.6903860129650816
 40
0.6903860129650816
 10
4.616965543680971
 20
2.672352866944279
 30
0.0
 10
4.615998307246032
 20
2.67235286697468
 30
0.0
 10
4.615034431415168
 20
2.672866829992452
 30
0.0
 10
4.612211247160723
 20
2.675867985840659
 30
0.0
 10
4.610388021389913
 20
2.679727195370411
 30
0.0
 10
4.607520588539836
 20
2.688247935502649
 30
0.0
 10
4.606513515899013
 20
2.691689319144443
 30
0.0
 10
4.604495658509391
 20
2.699426805241209
 30
0.0
 10
4.603489674019222
 20
2.703710005966833
 30
0.0
 10
4.6009694573361
 20
2.715312568494026
 30
0.0
 10
4.599473276591469
 20
2.722997088414266
 30
0.0
 10
4.596361197019738
 20
2.739594254670042
 30
0.0
 10
4.594766683982767
 20
2.74844407220561
 30
0.0
 10
4.593180426701427
 20
2.757349109200657
 30
0.0
  0
SPLINE
  5
14E
330
6C
100
AcDbEntity
  8
Visible (ANSI)
100
AcDbSpline
210
0.0
220
0.0
230
1.0
 70
     8
 71
     3
 72
    14
 73
    10
 74
     0
 42
0.0000000001
 43
0.0000000001
 40
0.0000191088926523
 40
0.0000191088926523
 40
0.0000191088926523
 40
0.0000191088926523
 40
0.0878044410021117
 40
0.0878044410021117
 40
0.1743298381586249
 40
0.1743298381586249
 40
0.2171274221233294
 40
0.2171274221233294
 40
0.2450366874656296
 40
0.2450366874656296
 40
0.2450366874656296
 40
0.2450366874656296
 10
4.688280443453632
 20
2.757349111779319
 30
0.0
 10
4.686259895109487
 20
2.768690867932616
 30
0.0
 10
4.684287976020391
 20
2.779918157166181
 30
0.0
 10
4.680267497881333
 20
2.800669022238535
 30
0.0
 10
4.678274660340545
 20
2.810014591165145
 30
0.0
 10
4.675310192105337
 20
2.821750533764119
 30
0.0
 10
4.674335649508668
 20
2.825240864640262
 30
0.0
 10
4.672716238614104
 20
2.83027515597528
 30
0.0
 10
4.672075289635918
 20
2.832064672719589
 30
0.0
 10
4.671433295576818
 20
2.833648235546467
 30
0.0
  0
SPLINE
  5
14F
330
6C
100
AcDbEntity
  8
Visible (ANSI)
100
AcDbSpline
210
0.0
220
0.0
230
1.0
 70
     8
 71
     3
 72
    18
 73
    14
 74
     0
 42
0.0000000001
 43
0.0000000001
 40
0.3452581835203737
 40
0.3452581835203737
 40
0.3452581835203737
 40
0.3452581835203737
 40
0.3859316475640522
 40
0.3859316475640522
 40
0.467786605529755
 40
0.467786605529755
 40
0.5111734270789636
 40
0.5111734270789636
 40
0.5549321973563444
 40
0.5549321973563444
 40
0.6212901936134261
 40
0.6212901936134261
 40
0.6903046190733669
 40
0.6903046190733669
 40
0.6903046190733669
 40
0.6903046190733669
 10
4.712065795572412
 20
2.672352866950351
 30
0.0
 10
4.711124290961153
 20
2.672352867118962
 30
0.0
 10
4.710185659079622
 20
2.672839862170959
 30
0.0
 10
4.707366458660618
 20
2.675757194358013
 30
0.0
 10
4.705523513059576
 20
2.679629350959349
 30
0.0
 10
4.702638445025842
 20
2.688191122244927
 30
0.0
 10
4.701633371588546
 20
2.691620256896756
 30
0.0
 10
4.69961758562618
 20
2.699337295388605
 30
0.0
 10
4.698611668820213
 20
2.703613784387187
 30
0.0
 10
4.696086179668639
 20
2.715226618660967
 30
0.0
 10
4.694584980657201
 20
2.722934033216199
 30
0.0
 10
4.691466203081562
 20
2.739568826311118
 30
0.0
 10
4.689869174924374
 20
2.748431267573498
 30
0.0
 10
4.68828044345379
 20
2.757349111779348
 30
0.0
  0
SPLINE
  5
150
330
6C
100
AcDbEntity
  8
Visible (ANSI)
100
AcDbSpline
210
0.0
220
0.0
230
1.0
 70
     8
 71
     3
 72
    14
 73
    10
 74
     0
 42
0.0000000001
 43
0.0000000001
 40
0.0000190916662123
 40
0.0000190916662123
 40
0.0000190916662123
 40
0.0000190916662123
 40
0.0871006504569755
 40
0.0871006504569755
 40
0.1734430578019778
 40
0.1734430578019778
 40
0.2163193422829044
 40
0.2163193422829044
 40
0.2450454891371189
 40
0.2450454891371189
 40
0.2450454891371189
 40
0.2450454891371189
 10
4.783380463462768
 20
2.757349114938315
 30
0.0
 10
4.781375877641324
 20
2.768599902819487
 30
0.0
 10
4.779419158762152
 20
2.779738962685127
 30
0.0
 10
4.775420933996919
 20
2.800411810579229
 30
0.0
 10
4.773431237228031
 20
2.809759822626661
 30
0.0
 10
4.770468455907584
 20
2.821533663350099
 30
0.0
 10
4.76949204828557
 20
2.825046916298013
 30
0.0
 10
4.767852505967931
 20
2.830173127783464
 30
0.0
 10
4.767192936880395
 20
2.832020822215739
 30
0.0
 10
4.766532252522798
 20
2.833650447718169
 30
0.0
  0
SPLINE
  5
151
330
6C
100
AcDbEntity
  8
Visible (ANSI)
100
AcDbSpline
210
0.0
220
0.0
230
1.0
 70
     8
 71
     3
 72
    18
 73
    14
 74
     0
 42
0.0000000001
 43
0.0000000001
 40
0.3452578054032814
 40
0.3452578054032814
 40
0.3452578054032814
 40
0.3452578054032814
 40
0.3859190736914839
 40
0.3859190736914839
 40
0.468139597836032
 40
0.468139597836032
 40
0.5118435752882707
 40
0.5118435752882707
 40
0.555604587726509
 40
0.555604587726509
 40
0.6216499191553114
 40
0.6216499191553114
 40
0.6903049287318456
 40
0.6903049287318456
 40
0.6903049287318456
 40
0.6903049287318456
 10
4.807166047983403
 20
2.672352866952087
 30
0.0
 10
4.806224812203931
 20
2.67235286713717
 30
0.0
 10
4.805286342067399
 20
2.672839571909757
 30
0.0
 10
4.802458668937231
 20
2.675764439469598
 30
0.0
 10
4.8006076387595
 20
2.679661868785188
 30
0.0
 10
4.797707062041806
 20
2.688292363441158
 30
0.0
 10
4.796694636037599
 20
2.691757075332187
 30
0.0
 10
4.794671499855489
 20
2.699527352544789
 30
0.0
 10
4.793665569198071
 20
2.703815358269063
 30
0.0
 10
4.791147264378572
 20
2.715420384735132
 30
0.0
 10
4.789652992056407
 20
2.723100050997366
 30
0.0
 10
4.78654993499502
 20
2.739661004461994
 30
0.0
 10
4.784961098170204
 20
2.748477797646537
 30
0.0
 10
4.783380463462889
 20
2.757349114938337
 30
0.0
  0
SPLINE
  5
152
330
6C
100
AcDbEntity
  8
Visible (ANSI)
100
AcDbSpline
210
0.0
220
0.0
230
1.0
 70
     8
 71
     3
 72
    16
 73
    12
 74
     0
 42
0.0000000001
 43
0.0000000001
 40
0.000010540617733
 40
0.000010540617733
 40
0.000010540617733
 40
0.000010540617733
 40
0.0752756864000983
 40
0.0752756864000983
 40
0.124772191252262
 40
0.124772191252262
 40
0.1651952338219254
 40
0.1651952338219254
 40
0.2090006343394773
 40
0.2090006343394773
 40
0.2456077713570427
 40
0.2456077713570427
 40
0.2456077713570427
 40
0.2456077713570427
 10
4.878490412765809
 20
2.757350877463085
 30
0.0
 10
4.876748047716156
 20
2.767073280782299
 30
0.0
 10
4.87502883012645
 20
2.776725795677592
 30
0.0
 10
4.872175140511826
 20
2.791912327841509
 30
0.0
 10
4.87104863618957
 20
2.797674765272086
 30
0.0
 10
4.868973727036511
 20
2.807468659925731
 30
0.0
 10
4.868037217079866
 20
2.811603139201673
 30
0.0
 10
4.866089039579549
 20
2.819549793483122
 30
0.0
 10
4.86508239490849
 20
2.82328686933362
 30
0.0
 10
4.863238780422082
 20
2.829317615370685
 30
0.0
 10
4.862405485648172
 20
2.831733410500218
 30
0.0
 10
4.861570056456627
 20
2.833796858632398
 30
0.0
  0
SPLINE
  5
153
330
6C
100
AcDbEntity
  8
Visible (ANSI)
100
AcDbSpline
210
0.0
220
0.0
230
1.0
 70
     8
 71
     3
 72
    20
 73
    16
 74
     0
 42
0.0000000001
 43
0.0000000001
 40
0.3450479860846972
 40
0.3450479860846972
 40
0.3450479860846972
 40
0.3450479860846972
 40
0.3457526891151375
 40
0.3457526891151375
 40
0.3987212489798102
 40
0.3987212489798102
 40
0.4425262554298075
 40
0.4425262554298075
 40
0.5248859222659441
 40
0.5248859222659441
 40
0.5653386817481973
 40
0.5653386817481973
 40
0.6276517595251793
 40
0.6276517595251793
 40
0.6900334602158753
 40
0.6900334602158753
 40
0.6900334602158753
 40
0.6900334602158753
 10
4.902276619366923
 20
2.672352866950295
 30
0.0
 10
4.902260418558563
 20
2.672352866946898
 30
0.0
 10
4.902244215167984
 20
2.672353013268607
 30
0.0
 10
4.901009892925926
 20
2.672375305570029
 30
0.0
 10
4.899782820423095
 20
2.673224038235352
 30
0.0
 10
4.897545672053418
 20
2.676250624161239
 30
0.0
 10
4.896539924676079
 20
2.678165854590698
 30
0.0
 10
4.893648493425355
 20
2.685171468031068
 30
0.0
 10
4.891786585003285
 20
2.691508789634833
 30
0.0
 10
4.88894314405531
 20
2.703095665308921
 30
0.0
 10
4.888007528926496
 20
2.707233750136236
 30
0.0
 10
4.885637594728969
 20
2.718429479778733
 30
0.0
 10
4.884220270188605
 20
2.725799785158868
 30
0.0
 10
4.881367324409781
 20
2.741270749173677
 30
0.0
 10
4.879934791790457
 20
2.749291233698798
 30
0.0
 10
4.878490412764802
 20
2.757350877462905
 30
0.0
  0
SPLINE
  5
154
330
6C
100
AcDbEntity
  8
Visible (ANSI)
100
AcDbSpline
210
0.0
220
0.0
230
1.0
 70
     8
 71
     3
 72
    14
 73
    10
 74
     0
 42
0.0000000001
 43
0.0000000001
 40
0.0000104783833777
 40
0.0000104783833777
 40
0.0000104783833777
 40
0.0000104783833777
 40
0.0486419049042412
 40
0.0486419049042412
 40
0.0959829385113047
 40
0.0959829385113047
 40
0.1781598751071786
 40
0.1781598751071786
 40
0.2458247578601967
 40
0.2458247578601967
 40
0.2458247578601967
 40
0.2458247578601967
 10
4.973590485193226
 20
2.757350890246823
 30
0.0
 10
4.972464564527481
 20
2.763632856764929
 30
0.0
 10
4.971344529320675
 20
2.769896363778746
 30
0.0
 10
4.969140956951994
 20
2.781994028838359
 30
0.0
 10
4.968063311587573
 20
2.787799297134428
 30
0.0
 10
4.965099160469992
 20
2.802961673505744
 30
0.0
 10
4.96320496118633
 20
2.811653291105951
 30
0.0
 10
4.959747347896678
 20
2.8249882226895
 30
0.0
 10
4.958215269158501
 20
2.829985551393585
 30
0.0
 10
4.956671932528857
 20
2.833794372154638
 30
0.0
  0
SPLINE
  5
155
330
6C
100
AcDbEntity
  8
Visible (ANSI)
100
AcDbSpline
210
0.0
220
0.0
230
1.0
 70
     8
 71
     3
 72
    20
 73
    16
 74
     0
 42
0.0000000001
 43
0.0000000001
 40
0.3450899455855101
 40
0.3450899455855101
 40
0.3450899455855101
 40
0.3450899455855101
 40
0.3473936808324565
 40
0.3473936808324565
 40
0.3980057659085609
 40
0.3980057659085609
 40
0.4418029515913205
 40
0.4418029515913205
 40
0.5242735910030998
 40
0.5242735910030998
 40
0.5648393166954091
 40
0.5648393166954091
 40
0.6274159421795984
 40
0.6274159421795984
 40
0.6900744878829205
 40
0.6900744878829205
 40
0.6900744878829205
 40
0.6900744878829205
 10
4.997376586618706
 20
2.672352866995242
 30
0.0
 10
4.997323644445811
 20
2.672352866963026
 30
0.0
 10
4.997270675591742
 20
2.672354430038774
 30
0.0
 10
4.996053342214988
 20
2.672426265609769
 30
0.0
 10
4.994880807990983
 20
2.673249549908466
 30
0.0
 10
4.992697885645845
 20
2.676161630149013
 30
0.0
 10
4.991691957911489
 20
2.678058099792408
 30
0.0
 10
4.988797558406043
 20
2.685018309533571
 30
0.0
 10
4.986934273816324
 20
2.691336327936551
 30
0.0
 10
4.984086023369975
 20
2.702912098389866
 30
0.0
 10
4.983147642294055
 20
2.707053040798456
 30
0.0
 10
4.980768544132664
 20
2.718272079896977
 30
0.0
 10
4.979344983226092
 20
2.725667581631439
 30
0.0
 10
4.97647979965957
 20
2.741199841116379
 30
0.0
 10
4.975041421805604
 20
2.749255518894813
 30
0.0
 10
4.973590485192437
 20
2.757350890246681
 30
0.0
  0
SPLINE
  5
156
330
6C
100
AcDbEntity
  8
Visible (ANSI)
100
AcDbSpline
210
0.0
220
0.0
230
1.0
 70
     8
 71
     3
 72
    14
 73
    10
 74
     0
 42
0.0000000001
 43
0.0000000001
 40
0.0000341153214189
 40
0.0000341153214189
 40
0.0000341153214189
 40
0.0000341153214189
 40
0.0760013106607469
 40
0.0760013106607469
 40
0.1258202288088619
 40
0.1258202288088619
 40
0.2124200414785788
 40
0.2124200414785788
 40
0.2458056842999198
 40
0.2458056842999198
 40
0.2458056842999198
 40
0.2458056842999198
 10
5.068690376547181
 20
2.75735286693619
 30
0.0
 10
5.066931553313643
 20
2.767165873494448
 30
0.0
 10
5.065195896560317
 20
2.77690701154655
 30
0.0
 10
5.062318828511457
 20
2.792200740812156
 30
0.0
 10
5.061185259628645
 20
2.79798977827402
 30
0.0
 10
5.058038029199802
 20
2.812804000467801
 30
0.0
 10
5.056043915266385
 20
2.820921529755714
 30
0.0
 10
5.053293691747131
 20
2.829735948640328
 30
0.0
 10
5.052532977798455
 20
2.831912249276381
 30
0.0
 10
5.051770670863878
 20
2.83379512953825
 30
0.0
  0
LINE
  5
157
330
6C
100
AcDbEntity
  8
Visible (ANSI)
100
AcDbLine
 10
5.134690295774139
 20
2.757352866953332
 30
0.0
 11
5.068690376558519
 21
2.757352866938223
 31
0.0
  0
SPLINE
  5
158
330
6C
100
AcDbEntity
  8
Visible (ANSI)
100
AcDbSpline
210
0.0
220
0.0
230
1.0
 70
     8
 71
     3
 72
    11
 73
     7
 74
     0
 42
0.0000000001
 43
0.0000000001
 40
0.0
 40
0.0
 40
0.0
 40
0.0
 40
0.5
 40
0.5
 40
0.5
 40
1.0
 40
1.0
 40
1.0
 40
1.0
 10
5.252765185279417
 20
2.69489343517121
 30
0.0
 10
5.241865750129417
 20
2.692219035896472
 30
0.0
 10
5.231105515271163
 20
2.689666743717239
 30
0.0
 10
5.220484253470618
 20
2.687246970967203
 30
0.0
 10
5.209862991670072
 20
2.684827198217167
 30
0.0
 10
5.199380707759017
 20
2.682539929786934
 30
0.0
 10
5.189037521098019
 20
2.680395757893315
 30
0.0
  0
SPLINE
  5
159
330
6C
100
AcDbEntity
  8
Visible (ANSI)
100
AcDbSpline
210
0.0
220
0.0
230
1.0
 70
     8
 71
     3
 72
    10
 73
     6
 74
     0
 42
0.0000000001
 43
0.0000000001
 40
0.0000078945603258
 40
0.0000078945603258
 40
0.0000078945603258
 40
0.0000078945603258
 40
0.0418060730637509
 40
0.0418060730637509
 40
0.0802947332178055
 40
0.0802947332178055
 40
0.0802947332178055
 40
0.0802947332178055
 10
5.264968389985552
 20
2.665584623257329
 30
0.0
 10
5.262932283561209
 20
2.670664117323717
 30
0.0
 10
5.260835907414374
 20
2.6758210584181
 30
0.0
 10
5.256798226402951
 20
2.68553563371234
 30
0.0
 10
5.25479200354635
 20
2.690266807320536
 30
0.0
 10
5.252765862525611
 20
2.694893699186351
 30
0.0
  0
SPLINE
  5
15A
330
6C
100
AcDbEntity
  8
Visible (ANSI)
100
AcDbSpline
210
0.0
220
0.0
230
1.0
 70
     8
 71
     3
 72
    10
 73
     6
 74
     0
 42
0.0000000001
 43
0.0000000001
 40
0.0000022477894352
 40
0.0000022477894352
 40
0.0000022477894352
 40
0.0000022477894352
 40
0.0465331319295603
 40
0.0465331319295603
 40
0.0932905655530986
 40
0.0932905655530986
 40
0.0932905655530986
 40
0.0932905655530986
 10
5.276390780537993
 20
2.700821932794346
 30
0.0
 10
5.274646661114823
 20
2.694977811929334
 30
0.0
 10
5.2726936646229
 20
2.688837306146338
 30
0.0
 10
5.268923588857648
 20
2.677293415668636
 30
0.0
 10
5.266923658374621
 20
2.671332362036902
 30
0.0
 10
5.264968389960801
 20
2.665584623258558
 30
0.0
  0
SPLINE
  5
15B
330
6C
100
AcDbEntity
  8
Visible (ANSI)
100
AcDbSpline
210
0.0
220
0.0
230
1.0
 70
     8
 71
     3
 72
    11
 73
     7
 74
     0
 42
0.0000000001
 43
0.0000000001
 40
0.0
 40
0.0
 40
0.0
 40
0.0
 40
0.5
 40
0.5
 40
0.5
 40
1.0
 40
1.0
 40
1.0
 40
1.0
 10
5.35075271469442
 20
2.720881337389633
 30
0.0
 10
5.338051952115717
 20
2.717311571403385
 30
0.0
 10
5.325504298259171
 20
2.713844869138639
 30
0.0
 10
5.313110429576969
 20
2.710496622788722
 30
0.0
 10
5.300716560894768
 20
2.707148376438805
 30
0.0
 10
5.288476484344319
 20
2.703918563193384
 30
0.0
 10
5.276391137995916
 20
2.700821934742995
 30
0.0
  0
SPLINE
  5
15C
330
6C
100
AcDbEntity
  8
Visible (ANSI)
100
AcDbSpline
210
0.0
220
0.0
230
1.0
 70
     8
 71
     3
 72
    10
 73
     6
 74
     0
 42
0.0000000001
 43
0.0000000001
 40
0.0005698701596886
 40
0.0005698701596886
 40
0.0005698701596886
 40
0.0005698701596886
 40
0.0379563494244492
 40
0.0379563494244492
 40
0.0716184357300443
 40
0.0716184357300443
 40
0.0716184357300443
 40
0.0716184357300443
 10
5.361869366993661
 20
2.694494223687422
 30
0.0
 10
5.360061729767478
 20
2.699059928661899
 30
0.0
 10
5.358137984008066
 20
2.703837075686563
 30
0.0
 10
5.354532767922406
 20
2.712480713456584
 30
0.0
 10
5.352663140131868
 20
2.716830403433796
 30
0.0
 10
5.350790906835041
 20
2.720896787133334
 30
0.0
  0
SPLINE
  5
15D
330
6C
100
AcDbEntity
  8
Visible (ANSI)
100
AcDbSpline
210
0.0
220
0.0
230
1.0
 70
     8
 71
     3
 72
    10
 73
     6
 74
     0
 42
0.0000000001
 43
0.0000000001
 40
0.000062195187183
 40
0.000062195187183
 40
0.000062195187183
 40
0.000062195187183
 40
0.0401329938923093
 40
0.0401329938923093
 40
0.0863031923445541
 40
0.0863031923445541
 40
0.0863031923445541
 40
0.0863031923445541
 10
5.372930324957894
 20
2.727177003956221
 30
0.0
 10
5.371381168270637
 20
2.722150980738343
 30
0.0
 10
5.369453470833701
 20
2.716388606583145
 30
0.0
 10
5.3659079168382
 20
2.705994904302666
 30
0.0
 10
5.363814360210458
 20
2.700007306180469
 30
0.0
 10
5.361869366670688
 20
2.694494223651525
 30
0.0
  0
SPLINE
  5
15E
330
6C
100
AcDbEntity
  8
Visible (ANSI)
100
AcDbSpline
210
0.0
220
0.0
230
1.0
 70
     8
 71
     3
 72
    11
 73
     7
 74
     0
 42
0.0000000001
 43
0.0000000001
 40
0.0
 40
0.0
 40
0.0
 40
0.0
 40
0.5
 40
0.5
 40
0.5
 40
1.0
 40
1.0
 40
1.0
 40
1.0
 10
5.457038060221199
 20
2.751740384092704
 30
0.0
 10
5.442805695960138
 20
2.747529389130167
 30
0.0
 10
5.428680749185143
 20
2.743361178026322
 30
0.0
 10
5.414665120367683
 20
2.739259540281236
 30
0.0
 10
5.400649491550223
 20
2.73515790253615
 30
0.0
 10
5.386743193009919
 20
2.731122796725995
 30
0.0
 10
5.372948239047016
 20
2.727176888886927
 30
0.0
  0
SPLINE
  5
15F
330
6C
100
AcDbEntity
  8
Visible (ANSI)
100
AcDbSpline
210
0.0
220
0.0
230
1.0
 70
     8
 71
     3
 72
    10
 73
     6
 74
     0
 42
0.0000000001
 43
0.0000000001
 40
0.0000059863722642
 40
0.0000059863722642
 40
0.0000059863722642
 40
0.0000059863722642
 40
0.0031880858869041
 40
0.0031880858869041
 40
0.0062717662934476
 40
0.0062717662934476
 40
0.0062717662934476
 40
0.0062717662934476
 10
5.458054448050635
 20
2.749468701080284
 30
0.0
 10
5.457892480701606
 20
2.749853636252287
 30
0.0
 10
5.457724368633319
 20
2.750245084633388
 30
0.0
 10
5.457390413820609
 20
2.750997864135349
 30
0.0
 10
5.457217556635872
 20
2.751375790895302
 30
0.0
 10
5.457041377044087
 20
2.751741833640332
 30
0.0
  0
SPLINE
  5
160
330
6C
100
AcDbEntity
  8
Visible (ANSI)
100
AcDbSpline
210
0.0
220
0.0
230
1.0
 70
     8
 71
     3
 72
    10
 73
     6
 74
     0
 42
0.0000000001
 43
0.0000000001
 40
0.0
 40
0.0
 40
0.0
 40
0.0
 40
0.0033264807706758
 40
0.0033264807706758
 40
0.0075683161083887
 40
0.0075683161083887
 40
0.0075683161083887
 40
0.0075683161083887
 10
5.459009668841654
 20
2.75232368973416
 30
0.0
 10
5.458877765599911
 20
2.751907552454123
 30
0.0
 10
5.458735507562162
 20
2.751474863582535
 30
0.0
 10
5.458421813615833
 20
2.750537212103738
 30
0.0
 10
5.458234756179646
 20
2.749990299787807
 30
0.0
 10
5.458054446415286
 20
2.749468700466372
 30
0.0
  0
ELLIPSE
  5
161
330
6C
100
AcDbEntity
  8
Visible (ANSI)
100
AcDbEllipse
 10
5.469608519022601
 20
2.778900951745292
 30
0.0
 11
-1.208247928160924
 21
-0.3579545110549162
 31
0.0
210
0.0
220
0.0
230
1.0
 40
0.0178342429484976
 41
1.556740722402548
 42
1.570796612564931
  0
LINE
  5
162
330
6C
100
AcDbEntity
  8
Visible (ANSI)
100
AcDbLine
 10
5.040365577877219
 20
2.753184738564498
 30
0.0
 11
5.040365577877219
 21
2.753128004629154
 31
0.0
  0
SPLINE
  5
163
330
6C
100
AcDbEntity
  8
Visible (ANSI)
100
AcDbSpline
210
0.0
220
0.0
230
1.0
 70
     8
 71
     3
 72
    22
 73
    18
 74
     0
 42
0.0000000001
 43
0.0000000001
 40
0.0000936474494816
 40
0.0000936474494816
 40
0.0000936474494816
 40
0.0000936474494816
 40
0.1463207052132197
 40
0.1463207052132197
 40
0.1471256478455026
 40
0.1471256478455026
 40
0.1744406972354941
 40
0.1744406972354941
 40
0.2254817469699529
 40
0.2254817469699529
 40
0.2317451328292527
 40
0.2317451328292527
 40
0.2345376541245516
 40
0.2345376541245516
 40
0.235914135326148
 40
0.235914135326148
 40
0.2370718512446665
 40
0.2370718512446665
 40
0.2370718512446665
 40
0.2370718512446665
 10
5.068316738709521
 20
2.656693024932976
 30
0.0
 10
5.062021511817676
 20
2.674670772394516
 30
0.0
 10
5.05475464951851
 20
2.696044249463151
 30
0.0
 10
5.049275597499308
 20
2.715191821377782
 30
0.0
 10
5.049245632340537
 20
2.715296657174302
 30
0.0
 10
5.048199906339382
 20
2.718959344826432
 30
0.0
 10
5.047215513854844
 20
2.722543222138949
 30
0.0
 10
5.044534391332279
 20
2.73282697622827
 30
0.0
 10
5.042927892900239
 20
2.739658575774079
 30
0.0
 10
5.041417578718676
 20
2.747377322949467
 30
0.0
 10
5.041256361941171
 20
2.74822175174277
 30
0.0
 10
5.041028933776242
 20
2.749444045848603
 30
0.0
 10
5.040959587636567
 20
2.749821117702239
 30
0.0
 10
5.040857238163131
 20
2.750384317682886
 30
0.0
 10
5.040823637822179
 20
2.75057030903987
 30
0.0
 10
5.040762132548538
 20
2.750912808191155
 30
0.0
 10
5.040734171429061
 20
2.751069302327909
 30
0.0
 10
5.040706347414748
 20
2.751225825379914
 30
0.0
  0
SPLINE
  5
164
330
6C
100
AcDbEntity
  8
Visible (ANSI)
100
AcDbSpline
210
0.0
220
0.0
230
1.0
 70
     8
 71
     3
 72
    10
 73
     6
 74
     0
 42
0.0000000001
 43
0.0000000001
 40
0.0000556290515942
 40
0.0000556290515942
 40
0.0000556290515942
 40
0.0000556290515942
 40
0.0688697389883567
 40
0.0688697389883567
 40
0.1380231602958686
 40
0.1380231602958686
 40
0.1380231602958686
 40
0.1380231602958686
 10
5.077610356570589
 20
2.710054675086721
 30
0.0
 10
5.077037949382374
 20
2.701044411093165
 30
0.0
 10
5.075776014003509
 20
2.691999357837625
 30
0.0
 10
5.072540319466306
 20
2.674332288028635
 30
0.0
 10
5.070489220955359
 20
2.665332060455079
 30
0.0
 10
5.068316708588658
 20
2.656693028001351
 30
0.0
  0
SPLINE
  5
165
330
6C
100
AcDbEntity
  8
Visible (ANSI)
100
AcDbSpline
210
0.0
220
0.0
230
1.0
 70
     8
 71
     3
 72
    10
 73
     6
 74
     0
 42
0.0000000001
 43
0.0000000001
 40
0.0000338562034952
 40
0.0000338562034952
 40
0.0000338562034952
 40
0.0000338562034952
 40
0.0255813816479424
 40
0.0255813816479424
 40
0.0511553953888757
 40
0.0511553953888757
 40
0.0511553953888757
 40
0.0511553953888757
 10
5.156937788486379
 20
2.667881714847805
 30
0.0
 10
5.155724659910998
 20
2.67098782585899
 30
0.0
 10
5.154512318200278
 20
2.674079967173725
 30
0.0
 10
5.152066861449987
 20
2.680292729773158
 30
0.0
 10
5.150853277715885
 20
2.68336372756786
 30
0.0
 10
5.149619867793876
 20
2.686474205996062
 30
0.0
  0
SPLINE
  5
166
330
6C
100
AcDbEntity
  8
Visible (ANSI)
100
AcDbSpline
210
0.0
220
0.0
230
1.0
 70
     8
 71
     3
 72
    10
 73
     6
 74
     0
 42
0.0000000001
 43
0.0000000001
 40
0.0000120171583043
 40
0.0000120171583043
 40
0.0000120171583043
 40
0.0000120171583043
 40
0.0394932970817664
 40
0.0394932970817664
 40
0.0760546239265318
 40
0.0760546239265318
 40
0.0760546239265318
 40
0.0760546239265318
 10
5.167841383333327
 20
2.640142903638524
 30
0.0
 10
5.165972726600287
 20
2.644947905789083
 30
0.0
 10
5.164090719976154
 20
2.649760375083102
 30
0.0
 10
5.160451867037759
 20
2.659000175218454
 30
0.0
 10
5.158692416895434
 20
2.663438909244709
 30
0.0
 10
5.156920511768271
 20
2.667874330145866
 30
0.0
  0
SPLINE
  5
167
330
6C
100
AcDbEntity
  8
Visible (ANSI)
100
AcDbSpline
210
0.0
220
0.0
230
1.0
 70
     8
 71
     3
 72
    10
 73
     6
 74
     0
 42
0.0000000001
 43
0.0000000001
 40
0.0000258402673796
 40
0.0000258402673796
 40
0.0000258402673796
 40
0.0000258402673796
 40
0.0537474932822747
 40
0.0537474932822747
 40
0.1074402050771368
 40
0.1074402050771368
 40
0.1074402050771368
 40
0.1074402050771368
 10
5.180295124057401
 20
2.680724273909293
 30
0.0
 10
5.178413713502886
 20
2.673947789308697
 30
0.0
 10
5.176333932117934
 20
2.666979071315254
 30
0.0
 10
5.172196095966505
 20
2.653600452744711
 30
0.0
 10
5.170011992524389
 20
2.646783360609015
 30
0.0
 10
5.167841383272718
 20
2.640142903644555
 30
0.0
  0
SPLINE
  5
168
330
6C
100
AcDbEntity
  8
Visible (ANSI)
100
AcDbSpline
210
0.0
220
0.0
230
1.0
 70
     8
 71
     3
 72
    10
 73
     6
 74
     0
 42
0.0000000001
 43
0.0000000001
 40
0.000044368347599
 40
0.000044368347599
 40
0.000044368347599
 40
0.000044368347599
 40
0.0010304207759635
 40
0.0010304207759635
 40
0.002021068973979
 40
0.002021068973979
 40
0.002021068973979
 40
0.002021068973979
 10
5.180485141937841
 20
2.681477421061974
 30
0.0
 10
5.18045172889414
 20
2.681352716821622
 30
0.0
 10
5.180418264341873
 20
2.681228025676247
 30
0.0
 10
5.180351079247428
 20
2.680978095129044
 30
0.0
 10
5.180317357267355
 20
2.680852852265713
 30
0.0
 10
5.180283585577677
 20
2.680727625691976
 30
0.0
  0
SPLINE
  5
169
330
6C
100
AcDbEntity
  8
Visible (ANSI)
100
AcDbSpline
210
0.0
220
0.0
230
1.0
 70
    24
 71
     3
 72
    10
 73
     6
 74
     0
 42
0.0000000001
 43
0.0000000001
 40
0.0001603505059183
 40
0.0001603505059183
 40
0.0001603505059183
 40
0.0001603505059183
 40
0.0541353967428689
 40
0.0541353967428689
 40
0.1081859459861416
 40
0.1081859459861416
 40
0.1081859459861416
 40
0.1081859459861416
 10
5.054140593789837
 20
2.757352866945126
 30
0.0
 10
5.056563862687476
 20
2.757352866945126
 30
0.0
 10
5.05898713158511
 20
2.757352866945126
 30
0.0
 10
5.06383705917063
 20
2.757352866945126
 30
0.0
 10
5.066263717858517
 20
2.757352866945126
 30
0.0
 10
5.068690376546387
 20
2.757352866945126
 30
0.0
  0
SPLINE
  5
16A
330
6C
100
AcDbEntity
  8
Visible (ANSI)
100
AcDbSpline
210
0.0
220
0.0
230
1.0
 70
     8
 71
     3
 72
    24
 73
    20
 74
     0
 42
0.0000000001
 43
0.0000000001
 40
-6.135612965662724
 40
-6.135612965662724
 40
-6.135612965662724
 40
-6.135612965662724
 40
-5.953933708674044
 40
-5.953933708674044
 40
-5.79182856795772
 40
-5.79182856795772
 40
-5.62760478359682
 40
-5.62760478359682
 40
-5.468129878201658
 40
-5.468129878201658
 40
-5.278680533265279
 40
-5.278680533265279
 40
-5.061405266719215
 40
-5.061405266719215
 40
-4.806963350856489
 40
-4.806963350856489
 40
-4.582409330850613
 40
-4.582409330850613
 40
-4.440215155890581
 40
-4.440215155890581
 40
-4.440215155890581
 40
-4.440215155890581
 10
4.840989629441553
 20
2.882096050288177
 30
0.0
 10
4.842636244722891
 20
2.88137853240391
 30
0.0
 10
4.844558909080594
 20
2.878414271247544
 30
0.0
 10
4.84879048943358
 20
2.863517450924054
 30
0.0
 10
4.850785052601799
 20
2.853518313642321
 30
0.0
 10
4.85479886203762
 20
2.829053765849628
 30
0.0
 10
4.856767184559301
 20
2.8148434472421
 30
0.0
 10
4.860737115964553
 20
2.783918281183483
 30
0.0
 10
4.862693721082683
 20
2.767625976314339
 30
0.0
 10
4.86697649701912
 20
2.732322597644239
 30
0.0
 10
4.868964593410409
 20
2.716377965391167
 30
0.0
 10
4.872543289303921
 20
2.689665324811875
 30
0.0
 10
4.874456645163474
 20
2.676630347276994
 30
0.0
 10
4.878614211435936
 20
2.653243331330271
 30
0.0
 10
4.880643824034511
 20
2.645034052390159
 30
0.0
 10
4.884025266874934
 20
2.635471861319623
 30
0.0
 10
4.885968668016793
 20
2.631743191147601
 30
0.0
 10
4.889689550073933
 20
2.632877713770146
 30
0.0
 10
4.891131525456561
 20
2.635055962986956
 30
0.0
 10
4.892572861768324
 20
2.638811446002526
 30
0.0
  0
SPLINE
  5
16B
330
6C
100
AcDbEntity
  8
Visible (ANSI)
100
AcDbSpline
210
0.0
220
0.0
230
1.0
 70
     8
 71
     3
 72
    26
 73
    22
 74
     0
 42
0.0000000001
 43
0.0000000001
 40
-3.585784238779186
 40
-3.585784238779186
 40
-3.585784238779186
 40
-3.585784238779186
 40
-3.438823138364243
 40
-3.438823138364243
 40
-3.3030109446134
 40
-3.3030109446134
 40
-3.183426167114146
 40
-3.183426167114146
 40
-3.06293376376084
 40
-3.06293376376084
 40
-2.943882305254548
 40
-2.943882305254548
 40
-2.80825060834061
 40
-2.80825060834061
 40
-2.643563593374094
 40
-2.643563593374094
 40
-2.471492060705117
 40
-2.471492060705117
 40
-2.3087838157628
 40
-2.3087838157628
 40
-2.207329630663888
 40
-2.207329630663888
 40
-2.207329630663888
 40
-2.207329630663888
 10
4.930376675212082
 20
2.875873506271617
 30
0.0
 10
4.932153557299502
 20
2.880502394514725
 30
0.0
 10
4.933929098712142
 20
2.882622462854707
 30
0.0
 10
4.937342980131898
 20
2.881845387868835
 30
0.0
 10
4.939291737602213
 20
2.879301735685173
 30
0.0
 10
4.943565772141653
 20
2.864966894625927
 30
0.0
 10
4.945566131930414
 20
2.855217328801375
 30
0.0
 10
4.949580421856939
 20
2.831208922070048
 30
0.0
 10
4.951547948178223
 20
2.817200674518502
 30
0.0
 10
4.955561589932591
 20
2.786172478203727
 30
0.0
 10
4.957556921750863
 20
2.769587785704649
 30
0.0
 10
4.961826846042209
 20
2.734370369866493
 30
0.0
 10
4.963778030169877
 20
2.718635549382708
 30
0.0
 10
4.967454564387057
 20
2.690951553283378
 30
0.0
 10
4.969472280676623
 20
2.677087279912413
 30
0.0
 10
4.973601602288447
 20
2.653895560745004
 30
0.0
 10
4.975519095775966
 20
2.645963709076884
 30
0.0
 10
4.978837869793447
 20
2.636054362637784
 30
0.0
 10
4.980853543490261
 20
2.631835431418844
 30
0.0
 10
4.984712155878816
 20
2.632762822602114
 30
0.0
 10
4.986193277966581
 20
2.634956513444348
 30
0.0
 10
4.987673616093642
 20
2.638813550232059
 30
0.0
  0
SPLINE
  5
16C
330
6C
100
AcDbEntity
  8
Visible (ANSI)
100
AcDbSpline
210
0.0
220
0.0
230
1.0
 70
     8
 71
     3
 72
    16
 73
    12
 74
     0
 42
0.0000000001
 43
0.0000000001
 40
-0.9362333602721548
 40
-0.9362333602721548
 40
-0.9362333602721548
 40
-0.9362333602721548
 40
-0.7015654154600153
 40
-0.7015654154600153
 40
-0.4702931637905254
 40
-0.4702931637905254
 40
-0.277466536207288
 40
-0.277466536207288
 40
-0.1221481909469441
 40
-0.1221481909469441
 40
-0.0000758123269908
 40
-0.0000758123269908
 40
-0.0000758123269908
 40
-0.0000758123269908
 10
5.025475950131331
 20
2.875870936620828
 30
0.0
 10
5.027154707167438
 20
2.880244105797403
 30
0.0
 10
5.028832161309933
 20
2.882379318279846
 30
0.0
 10
5.032160259343767
 20
2.882147914303285
 30
0.0
 10
5.034156262789931
 20
2.8798832647087
 30
0.0
 10
5.038445446134533
 20
2.865865013835599
 30
0.0
 10
5.040394585776109
 20
2.856587210193543
 30
0.0
 10
5.043911977603349
 20
2.835975253534319
 30
0.0
 10
5.045909857599763
 20
2.822747524690907
 30
0.0
 10
5.050287205660587
 20
2.789174577630236
 30
0.0
 10
5.05221377920395
 20
2.773256522242567
 30
0.0
 10
5.054140593848827
 20
2.757352866943844
 30
0.0
  0
SPLINE
  5
16D
330
6C
100
AcDbEntity
  8
Visible (ANSI)
100
AcDbSpline
210
0.0
220
0.0
230
1.0
 70
     8
 71
     3
 72
    12
 73
     8
 74
     0
 42
0.0000000001
 43
0.0000000001
 40
-1.776090177931957
 40
-1.776090177931957
 40
-1.776090177931957
 40
-1.776090177931957
 40
-1.616181665332475
 40
-1.616181665332475
 40
-1.496784719420255
 40
-1.496784719420255
 40
-1.433934408031549
 40
-1.433934408031549
 40
-1.433934408031549
 40
-1.433934408031549
 10
5.068316726276144
 20
2.656693049248815
 30
0.0
 10
5.070133118597587
 20
2.647842885926039
 30
0.0
 10
5.071948499468506
 20
2.641190930783634
 30
0.0
 10
5.07511768191367
 20
2.634041279977791
 30
0.0
 10
5.076951273150111
 20
2.631192708159838
 30
0.0
 10
5.080397794538359
 20
2.63369649319352
 30
0.0
 10
5.081586175643392
 20
2.635719852022921
 30
0.0
 10
5.082774371629596
 20
2.638815623255949
 30
0.0
  0
SPLINE
  5
16E
330
6C
100
AcDbEntity
  8
Visible (ANSI)
100
AcDbSpline
210
0.0
220
0.0
230
1.0
 70
     8
 71
     3
 72
    16
 73
    12
 74
     0
 42
0.0000000001
 43
0.0000000001
 40
-0.6067517682922903
 40
-0.6067517682922903
 40
-0.6067517682922903
 40
-0.6067517682922903
 40
-0.4858556062160075
 40
-0.4858556062160075
 40
-0.3585943619794004
 40
-0.3585943619794004
 40
-0.2339323180387267
 40
-0.2339323180387267
 40
-0.1166083477531029
 40
-0.1166083477531029
 40
-0.000071458781862
 40
-0.000071458781862
 40
-0.000071458781862
 40
-0.000071458781862
 10
5.120575249465603
 20
2.875868415425773
 30
0.0
 10
5.122490638612455
 20
2.880857909829943
 30
0.0
 10
5.124404652934337
 20
2.882937150767721
 30
0.0
 10
5.128330771805615
 20
2.88117706550247
 30
0.0
 10
5.130269917351292
 20
2.877146603291732
 30
0.0
 10
5.134257343361101
 20
2.862735266728818
 30
0.0
 10
5.136230170100139
 20
2.85272151258328
 30
0.0
 10
5.140059143363422
 20
2.829213429870162
 30
0.0
 10
5.141872229163557
 20
2.816223590652086
 30
0.0
 10
5.145562058792579
 20
2.787729314054116
 30
0.0
 10
5.14740113335618
 20
2.77253534961033
 30
0.0
 10
5.149240610275076
 20
2.757352866943936
 30
0.0
  0
SPLINE
  5
16F
330
6C
100
AcDbEntity
  8
Visible (ANSI)
100
AcDbSpline
210
0.0
220
0.0
230
1.0
 70
    24
 71
     3
 72
    10
 73
     6
 74
     0
 42
0.0000000001
 43
0.0000000001
 40
0.0001508907519824
 40
0.0001508907519824
 40
0.0001508907519824
 40
0.0001508907519824
 40
0.0541310481731964
 40
0.0541310481731964
 40
0.1081820736816108
 40
0.1081820736816108
 40
0.1081820736816108
 40
0.1081820736816108
 10
5.149240610219567
 20
2.757352866945126
 30
0.0
 10
5.151664071817816
 20
2.757352866945126
 30
0.0
 10
5.154087533416059
 20
2.757352866945126
 30
0.0
 10
5.158937638264769
 20
2.757352866945126
 30
0.0
 10
5.161364281515236
 20
2.757352866945126
 30
0.0
 10
5.163790924765714
 20
2.757352866945126
 30
0.0
  0
LINE
  5
170
330
6C
100
AcDbEntity
  8
Visible (ANSI)
100
AcDbLine
 10
5.180550523643765
 20
2.681342696059594
 30
0.0
 11
5.180298482750319
 21
2.680723477564536
 31
0.0
  0
LINE
  5
171
330
6C
100
AcDbEntity
  8
Visible (ANSI)
100
AcDbLine
 10
5.189037521098018
 20
2.757352866945126
 30
0.0
 11
5.233935236708582
 21
2.757352866962477
 31
0.0
  0
SPLINE
  5
172
330
6C
100
AcDbEntity
  8
Visible (ANSI)
100
AcDbSpline
210
0.0
220
0.0
230
1.0
 70
    24
 71
     3
 72
    10
 73
     6
 74
     0
 42
0.0000000001
 43
0.0000000001
 40
0.0000226879758887
 40
0.0000226879758887
 40
0.0000226879758887
 40
0.0000226879758887
 40
0.0540773651508178
 40
0.0540773651508178
 40
0.1080538708721411
 40
0.1080538708721411
 40
0.1080538708721411
 40
0.1080538708721411
 10
5.134690295788666
 20
2.757352866945126
 30
0.0
 10
5.137117102982243
 20
2.757352866945126
 30
0.0
 10
5.139543910175812
 20
2.757352866945126
 30
0.0
 10
5.144394015023048
 20
2.757352866945126
 30
0.0
 10
5.146817312676715
 20
2.757352866945126
 30
0.0
 10
5.149240610330376
 20
2.757352866945126
 30
0.0
  0
SPLINE
  5
173
330
6C
100
AcDbEntity
  8
Visible (ANSI)
100
AcDbSpline
210
0.0
220
0.0
230
1.0
 70
    24
 71
     3
 72
    10
 73
     6
 74
     0
 42
0.0000000001
 43
0.0000000001
 40
0.0
 40
0.0
 40
0.0
 40
0.0
 40
0.0511768440034393
 40
0.0511768440034393
 40
0.1022456688342912
 40
0.1022456688342912
 40
0.1022456688342912
 40
0.1022456688342912
 10
5.040369299588461
 20
2.757352866945126
 30
0.0
 10
5.042666940127925
 20
2.757352866945126
 30
0.0
 10
5.044964580667386
 20
2.757352866945126
 30
0.0
 10
5.049555012107086
 20
2.757352866945126
 30
0.0
 10
5.051847803007325
 20
2.757352866945126
 30
0.0
 10
5.054140593907567
 20
2.757352866945126
 30
0.0
  0
LINE
  5
174
330
6C
100
AcDbEntity
  8
Visible (ANSI)
100
AcDbLine
 10
5.475992712018319
 20
2.757352866945126
 30
0.0
 11
5.438701462522397
 21
2.757352867132427
 31
0.0
  0
SPLINE
  5
175
330
6C
100
AcDbEntity
  8
Visible (ANSI)
100
AcDbSpline
210
0.0
220
0.0
230
1.0
 70
    24
 71
     3
 72
    10
 73
     6
 74
     0
 42
0.0000000001
 43
0.0000000001
 40
0.0000092674649912
 40
0.0000092674649912
 40
0.0000092674649912
 40
0.0000092674649912
 40
0.0154436437140825
 40
0.0154436437140825
 40
0.0308840137193951
 40
0.0308840137193951
 40
0.0308840137193951
 40
0.0308840137193951
 10
5.434543961103941
 20
2.757352866945126
 30
0.0
 10
5.435236743559157
 20
2.757352866945126
 30
0.0
 10
5.435929526014349
 20
2.757352866945126
 30
0.0
 10
5.437315359958522
 20
2.757352866945126
 30
0.0
 10
5.438008411447505
 20
2.757352866945126
 30
0.0
 10
5.438701462936489
 20
2.757352866945126
 30
0.0
  0
SPLINE
  5
176
330
6C
100
AcDbEntity
  8
Visible (ANSI)
100
AcDbSpline
210
0.0
220
0.0
230
1.0
 70
    24
 71
     3
 72
    10
 73
     6
 74
     0
 42
0.0000000001
 43
0.0000000001
 40
0.0000043654678988
 40
0.0000043654678988
 40
0.0000043654678988
 40
0.0000043654678988
 40
0.0124379564589627
 40
0.0124379564589627
 40
0.0248694658259148
 40
0.0248694658259148
 40
0.0248694658259148
 40
0.0248694658259148
 10
5.431195696802737
 20
2.757352866945126
 30
0.0
 10
5.431753787582493
 20
2.757352866945126
 30
0.0
 10
5.432311878362252
 20
2.757352866945126
 30
0.0
 10
5.433427966486576
 20
2.757352866945126
 30
0.0
 10
5.433985963831142
 20
2.757352866945126
 30
0.0
 10
5.434543961175727
 20
2.757352866945126
 30
0.0
  0
LINE
  5
177
330
6C
100
AcDbEntity
  8
Visible (ANSI)
100
AcDbLine
 10
5.431195696768617
 20
2.757352866957362
 30
0.0
 11
5.351625288244357
 21
2.757352866924288
 31
0.0
  0
SPLINE
  5
178
330
6C
100
AcDbEntity
  8
Visible (ANSI)
100
AcDbSpline
210
0.0
220
0.0
230
1.0
 70
    24
 71
     3
 72
    10
 73
     6
 74
     0
 42
0.0000000001
 43
0.0000000001
 40
0.0000202360564326
 40
0.0000202360564326
 40
0.0000202360564326
 40
0.0000202360564326
 40
0.0452474982808817
 40
0.0452474982808817
 40
0.0904848903041505
 40
0.0904848903041505
 40
0.0904848903041505
 40
0.0904848903041505
 10
5.339443274607072
 20
2.757352866945126
 30
0.0
 10
5.341473382861005
 20
2.757352866945126
 30
0.0
 10
5.343503491114933
 20
2.757352866945109
 30
0.0
 10
5.347564162317294
 20
2.757352866945109
 30
0.0
 10
5.349594725265726
 20
2.757352866945126
 30
0.0
 10
5.351625288214165
 20
2.757352866945126
 30
0.0
  0
SPLINE
  5
179
330
6C
100
AcDbEntity
  8
Visible (ANSI)
100
AcDbSpline
210
0.0
220
0.0
230
1.0
 70
    24
 71
     3
 72
    10
 73
     6
 74
     0
 42
0.0000000001
 43
0.0000000001
 40
0.0000048885763871
 40
0.0000048885763871
 40
0.0000048885763871
 40
0.0000048885763871
 40
0.0364374001873319
 40
0.0364374001873319
 40
0.0728604940631813
 40
0.0728604940631813
 40
0.0728604940631813
 40
0.0728604940631813
 10
5.329632503955387
 20
2.757352866945126
 30
0.0
 10
5.331267843768043
 20
2.757352866945126
 30
0.0
 10
5.332903183580631
 20
2.757352866945372
 30
0.0
 10
5.336173440473721
 20
2.757352866945372
 30
0.0
 10
5.337808357554203
 20
2.757352866945126
 30
0.0
 10
5.33944327463462
 20
2.757352866945126
 30
0.0
  0
LINE
  5
17A
330
6C
100
AcDbEntity
  8
Visible (ANSI)
100
AcDbLine
 10
5.32963250392896
 20
2.757352866964583
 30
0.0
 11
5.257265924532914
 21
2.757352866934535
 31
0.0
  0
SPLINE
  5
17B
330
6C
100
AcDbEntity
  8
Visible (ANSI)
100
AcDbSpline
210
0.0
220
0.0
230
1.0
 70
    24
 71
     3
 72
    10
 73
     6
 74
     0
 42
0.0000000001
 43
0.0000000001
 40
0.0000063462113413
 40
0.0000063462113413
 40
0.0000063462113413
 40
0.0000063462113413
 40
0.0479907070522357
 40
0.0479907070522357
 40
0.0959778314465206
 40
0.0959778314465206
 40
0.0959778314465206
 40
0.0959778314465206
 10
5.244342892189757
 20
2.757352866945126
 30
0.0
 10
5.246496668889695
 20
2.757352866945126
 30
0.0
 10
5.248650445589633
 20
2.757352866945125
 30
0.0
 10
5.252958123031524
 20
2.757352866945125
 30
0.0
 10
5.255112023773476
 20
2.757352866945126
 30
0.0
 10
5.25726592451543
 20
2.757352866945126
 30
0.0
  0
SPLINE
  5
17C
330
6C
100
AcDbEntity
  8
Visible (ANSI)
100
AcDbSpline
210
0.0
220
0.0
230
1.0
 70
    24
 71
     3
 72
    10
 73
     6
 74
     0
 42
0.0000000001
 43
0.0000000001
 40
0.0000022404656688
 40
0.0000022404656688
 40
0.0000022404656688
 40
0.0000022404656688
 40
0.0386491773640648
 40
0.0386491773640648
 40
0.0772935553148136
 40
0.0772935553148136
 40
0.0772935553148136
 40
0.0772935553148136
 10
5.233935236679922
 20
2.757352866945126
 30
0.0
 10
5.235669903366264
 20
2.757352866945126
 30
0.0
 10
5.237404570052603
 20
2.75735286694513
 30
0.0
 10
5.240873788566988
 20
2.75735286694513
 30
0.0
 10
5.242608340395032
 20
2.757352866945126
 30
0.0
 10
5.244342892223072
 20
2.757352866945126
 30
0.0
  0
SPLINE
  5
17D
330
6C
100
AcDbEntity
  8
Visible (ANSI)
100
AcDbSpline
210
0.0
220
0.0
230
1.0
 70
     8
 71
     3
 72
    10
 73
     6
 74
     0
 42
0.0000000001
 43
0.0000000001
 40
0.0000008949498338
 40
0.0000008949498338
 40
0.0000008949498338
 40
0.0000008949498338
 40
0.0156499401038156
 40
0.0156499401038156
 40
0.017051330983952
 40
0.017051330983952
 40
0.017051330983952
 40
0.017051330983952
 10
5.438701462640632
 20
2.757352867363528
 30
0.0
 10
5.437168270476684
 20
2.758641532747687
 30
0.0
 10
5.435692179135354
 20
2.760040864411145
 30
0.0
 10
5.434103603179991
 20
2.761608078092294
 30
0.0
 10
5.433973431375085
 20
2.761736959403159
 30
0.0
 10
5.433843631130158
 20
2.76186586513457
 30
0.0
  0
SPLINE
  5
17E
330
6C
100
AcDbEntity
  8
Visible (ANSI)
100
AcDbSpline
210
0.0
220
0.0
230
1.0
 70
     8
 71
     3
 72
     8
 73
     4
 74
     0
 42
0.0000000001
 43
0.0000000001
 40
0.01813011630765
 40
0.01813011630765
 40
0.01813011630765
 40
0.01813011630765
 40
0.0190305548378609
 40
0.0190305548378609
 40
0.0190305548378609
 40
0.0190305548378609
 10
5.45933547684361
 20
2.752418788630729
 30
0.0
 10
5.459226756405527
 20
2.752386572408461
 30
0.0
 10
5.459118145403162
 20
2.752354897580155
 30
0.0
 10
5.459009646143692
 20
2.752323793966144
 30
0.0
  0
SPLINE
  5
17F
330
6C
100
AcDbEntity
  8
Visible (ANSI)
100
AcDbSpline
210
0.0
220
0.0
230
1.0
 70
    24
 71
     3
 72
     8
 73
     4
 74
     0
 42
0.0000000001
 43
0.0000000001
 40
0.0000119532085941
 40
0.0000119532085941
 40
0.0000119532085941
 40
0.0000119532085941
 40
0.0000165747681242
 40
0.0000165747681242
 40
0.0000165747681242
 40
0.0000165747681242
 10
5.457039913010038
 20
2.75174094727809
 30
0.0
 10
5.457040466767899
 20
2.75174110611597
 30
0.0
 10
5.457041020527658
 20
2.751741264964161
 30
0.0
 10
5.457041574289311
 20
2.75174142382266
 30
0.0
  0
SPLINE
  5
180
330
6C
100
AcDbEntity
  8
Visible (ANSI)
100
AcDbSpline
210
0.0
220
0.0
230
1.0
 70
     8
 71
     3
 72
     8
 73
     4
 74
     0
 42
0.0000000001
 43
0.0000000001
 40
0.0688331400992064
 40
0.0688331400992064
 40
0.0688331400992064
 40
0.0688331400992064
 40
0.0818699340975618
 40
0.0818699340975618
 40
0.0818699340975618
 40
0.0818699340975618
 10
5.375196306428037
 20
2.727495559977222
 30
0.0
 10
5.374433201843646
 20
2.727269501630154
 30
0.0
 10
5.37367908975259
 20
2.727161113339118
 30
0.0
 10
5.372930961140997
 20
2.727171225254064
 30
0.0
  0
SPLINE
  5
181
330
6C
100
AcDbEntity
  8
Visible (ANSI)
100
AcDbSpline
210
0.0
220
0.0
230
1.0
 70
     8
 71
     3
 72
    12
 73
     8
 74
     0
 42
0.0000000001
 43
0.0000000001
 40
0.0000020905347728
 40
0.0000020905347728
 40
0.0000020905347728
 40
0.0000020905347728
 40
0.0289757021265816
 40
0.0289757021265816
 40
0.058895235215691
 40
0.058895235215691
 40
0.088596939221989
 40
0.088596939221989
 40
0.088596939221989
 40
0.088596939221989
 10
5.351625288211785
 20
2.757352866906978
 30
0.0
 10
5.350201024159719
 20
2.760853014210129
 30
0.0
 10
5.34879989477536
 20
2.76440028704309
 30
0.0
 10
5.345980148644426
 20
2.77150417772677
 30
0.0
 10
5.344575014616521
 20
2.77501731882063
 30
0.0
 10
5.341798215530905
 20
2.781607717664547
 30
0.0
 10
5.340444066932649
 20
2.784650924124767
 30
0.0
 10
5.339103740503062
 20
2.787377858656141
 30
0.0
  0
SPLINE
  5
182
330
6C
100
AcDbEntity
  8
Visible (ANSI)
100
AcDbSpline
210
0.0
220
0.0
230
1.0
 70
     8
 71
     3
 72
    10
 73
     6
 74
     0
 42
0.0000000001
 43
0.0000000001
 40
0.5973156238288234
 40
0.5973156238288234
 40
0.5973156238288234
 40
0.5973156238288234
 40
0.6077183914113461
 40
0.6077183914113461
 40
0.6428863376115809
 40
0.6428863376115809
 40
0.6428863376115809
 40
0.6428863376115809
 10
5.280853689061124
 20
2.699550018010282
 30
0.0
 10
5.280510385135817
 20
2.699448342024873
 30
0.0
 10
5.280167894002574
 20
2.699392194031935
 30
0.0
 10
5.27867036498967
 20
2.69934614338319
 30
0.0
 10
5.277528859725847
 20
2.699832865935454
 30
0.0
 10
5.276390767406013
 20
2.70082182196802
 30
0.0
  0
SPLINE
  5
183
330
6C
100
AcDbEntity
  8
Visible (ANSI)
100
AcDbSpline
210
0.0
220
0.0
230
1.0
 70
     8
 71
     3
 72
    14
 73
    10
 74
     0
 42
0.0000000001
 43
0.0000000001
 40
0.1918902844395373
 40
0.1918902844395373
 40
0.1918902844395373
 40
0.1918902844395373
 40
0.2223929511939288
 40
0.2223929511939288
 40
0.2551402355602337
 40
0.2551402355602337
 40
0.277336404453723
 40
0.277336404453723
 40
0.2981509337832077
 40
0.2981509337832077
 40
0.2981509337832077
 40
0.2981509337832077
 10
5.404888620466381
 20
2.778414744900782
 30
0.0
 10
5.40714521943723
 20
2.777745706686627
 30
0.0
 10
5.40944312312155
 20
2.776489316539059
 30
0.0
 10
5.414434819112259
 20
2.772851108733088
 30
0.0
 10
5.417050172517686
 20
2.770462909656628
 30
0.0
 10
5.421686723210957
 20
2.766015337361538
 30
0.0
 10
5.423578941368254
 20
2.764147785794317
 30
0.0
 10
5.427388109112055
 20
2.760567843369297
 30
0.0
 10
5.429254802959087
 20
2.758889448468336
 30
0.0
 10
5.431195696776568
 20
2.757352866967213
 30
0.0
  0
SPLINE
  5
184
330
6C
100
AcDbEntity
  8
Visible (ANSI)
100
AcDbSpline
210
0.0
220
0.0
230
1.0
 70
     8
 71
     3
 72
     8
 73
     4
 74
     0
 42
0.0000000001
 43
0.0000000001
 40
0.0001277655788376
 40
0.0001277655788376
 40
0.0001277655788376
 40
0.0001277655788376
 40
0.0001526681890632
 40
0.0001526681890632
 40
0.0001526681890632
 40
0.0001526681890632
 10
5.350789143701661
 20
2.720893189941952
 30
0.0
 10
5.350790372077876
 20
2.720892997052538
 30
0.0
 10
5.350791600457359
 20
2.720892804534929
 30
0.0
 10
5.350792828840131
 20
2.72089261238913
 30
0.0
  0
SPLINE
  5
185
330
6C
100
AcDbEntity
  8
Visible (ANSI)
100
AcDbSpline
210
0.0
220
0.0
230
1.0
 70
     8
 71
     3
 72
    16
 73
    12
 74
     0
 42
0.0000000001
 43
0.0000000001
 40
0.0000013571711713
 40
0.0000013571711713
 40
0.0000013571711713
 40
0.0000013571711713
 40
0.0464730458477925
 40
0.0464730458477925
 40
0.0940137661354333
 40
0.0940137661354333
 40
0.1260894503023102
 40
0.1260894503023102
 40
0.1615585291503462
 40
0.1615585291503462
 40
0.1901170070329437
 40
0.1901170070329437
 40
0.1901170070329437
 40
0.1901170070329437
 10
5.257265924508113
 20
2.757352866927147
 30
0.0
 10
5.255892675650049
 20
2.763280952176465
 30
0.0
 10
5.254533262378602
 20
2.769239523936318
 30
0.0
 10
5.251799656456752
 20
2.781033286920313
 30
0.0
 10
5.250438058572964
 20
2.786801377654392
 30
0.0
 10
5.248161088569574
 20
2.795854047906531
 30
0.0
 10
5.247250983309877
 20
2.799319544101105
 30
0.0
 10
5.245344014706328
 20
2.806151465328503
 30
0.0
 10
5.244353305162095
 20
2.809449322021479
 30
0.0
 10
5.242567234901615
 20
2.814800429664583
 30
0.0
 10
5.241774306150944
 20
2.816961249334017
 30
0.0
 10
5.240984671595797
 20
2.818878338731231
 30
0.0
  0
SPLINE
  5
186
330
6C
100
AcDbEntity
  8
Visible (ANSI)
100
AcDbSpline
210
0.0
220
0.0
230
1.0
 70
     8
 71
     3
 72
    16
 73
    12
 74
     0
 42
0.0000000001
 43
0.0000000001
 40
0.5342338804417991
 40
0.5342338804417991
 40
0.5342338804417991
 40
0.5342338804417991
 40
0.5574455786408885
 40
0.5574455786408885
 40
0.6098985784426091
 40
0.6098985784426091
 40
0.6610363851666892
 40
0.6610363851666892
 40
0.6972433732719774
 40
0.6972433732719774
 40
0.7323715716219025
 40
0.7323715716219025
 40
0.7323715716219025
 40
0.7323715716219025
 10
5.305709273958816
 20
2.807793113032004
 30
0.0
 10
5.306587909276283
 20
2.807532825955927
 30
0.0
 10
5.307470480790372
 20
2.807019306297683
 30
0.0
 10
5.310377099238075
 20
2.804527058540186
 30
0.0
 10
5.312406607468113
 20
2.801543216834969
 30
0.0
 10
5.316514370042559
 20
2.793485153491586
 30
0.0
 10
5.318558577518885
 20
2.788551265570101
 30
0.0
 10
5.322134755942412
 20
2.778971709929083
 30
0.0
 10
5.323625426944954
 20
2.774717802940076
 30
0.0
 10
5.326620196863724
 20
2.766039234073471
 30
0.0
 10
5.328104885195585
 20
2.761669692965071
 30
0.0
 10
5.32963250394825
 20
2.757352866971502
 30
0.0
  0
SPLINE
  5
187
330
6C
100
AcDbEntity
  8
Visible (ANSI)
100
AcDbSpline
210
0.0
220
0.0
230
1.0
 70
     8
 71
     3
 72
    20
 73
    16
 74
     0
 42
0.0000000001
 43
0.0000000001
 40
0.2924577217985994
 40
0.2924577217985994
 40
0.2924577217985994
 40
0.2924577217985994
 40
0.3088800116900408
 40
0.3088800116900408
 40
0.3891240222960517
 40
0.3891240222960517
 40
0.4283923653302917
 40
0.4283923653302917
 40
0.4671386488252166
 40
0.4671386488252166
 40
0.5010366153046676
 40
0.5010366153046676
 40
0.5514952115621269
 40
0.5514952115621269
 40
0.6008677732953347
 40
0.6008677732953347
 40
0.6008677732953347
 40
0.6008677732953347
 10
5.210012772736168
 20
2.836139749125708
 30
0.0
 10
5.21041917071864
 20
2.836019353725355
 30
0.0
 10
5.210826677932491
 20
2.835814486408057
 30
0.0
 10
5.213233122832183
 20
2.83410819151519
 30
0.0
 10
5.215237728751203
 20
2.830688493438137
 30
0.0
 10
5.218274492033691
 20
2.822866869175878
 30
0.0
 10
5.219274842313563
 20
2.819876057891808
 30
0.0
 10
5.22128539027805
 20
2.813172890908944
 30
0.0
 10
5.222287929052724
 20
2.80948758670629
 30
0.0
 10
5.224178312441887
 20
2.802010572007839
 30
0.0
 10
5.22506179330853
 20
2.798302558374246
 30
0.0
 10
5.227278800942806
 20
2.788633838572941
 30
0.0
 10
5.22861301071828
 20
2.782502405519292
 30
0.0
 10
5.23127608429567
 20
2.769985038648775
 30
0.0
 10
5.232594815034921
 20
2.763656335581939
 30
0.0
 10
5.233935236751123
 20
2.757352866967464
 30
0.0
  0
SPLINE
  5
188
330
6C
100
AcDbEntity
  8
Visible (ANSI)
100
AcDbSpline
210
0.0
220
0.0
230
1.0
 70
     8
 71
     3
 72
    24
 73
    20
 74
     0
 42
0.0000000001
 43
0.0000000001
 40
0.1942737450640128
 40
0.1942737450640128
 40
0.1942737450640128
 40
0.1942737450640128
 40
0.2037464789282176
 40
0.2037464789282176
 40
0.2241282200254701
 40
0.2241282200254701
 40
0.2439624429958429
 40
0.2439624429958429
 40
0.2630360426430249
 40
0.2630360426430249
 40
0.2813894075818975
 40
0.2813894075818975
 40
0.3126763549493609
 40
0.3126763549493609
 40
0.3364626140028446
 40
0.3364626140028446
 40
0.3534382432209591
 40
0.3534382432209591
 40
0.3659661645829721
 40
0.3659661645829721
 40
0.3659661645829721
 40
0.3659661645829721
 10
5.397962381208277
 20
2.787291586662997
 30
0.0
 10
5.398406422830444
 20
2.788100476778114
 30
0.0
 10
5.398853872239993
 20
2.788858150506112
 30
0.0
 10
5.400280707139213
 20
2.791083033080395
 30
0.0
 10
5.401271509778761
 20
2.792349517314779
 30
0.0
 10
5.403262607465638
 20
2.794279249856299
 30
0.0
 10
5.404251722467773
 20
2.794947274210282
 30
0.0
 10
5.406245580839352
 20
2.795690739358722
 30
0.0
 10
5.407240923783259
 20
2.795783914445389
 30
0.0
 10
5.409232888085331
 20
2.795411481145588
 30
0.0
 10
5.410217148599397
 20
2.794968771093383
 30
0.0
 10
5.412955414196835
 20
2.79306462423522
 30
0.0
 10
5.414923967348165
 20
2.790974267603495
 30
0.0
 10
5.41895329927563
 20
2.785043299458747
 30
0.0
 10
5.420924115202895
 20
2.781662822714197
 30
0.0
 10
5.424833140157852
 20
2.774431851475683
 30
0.0
 10
5.426697206615215
 20
2.770831896532505
 30
0.0
 10
5.430481793436057
 20
2.763928084505219
 30
0.0
 10
5.432348514087872
 20
2.760609622853307
 30
0.0
 10
5.434543961105455
 20
2.757352866999366
 30
0.0
  0
SPLINE
  5
189
330
6C
100
AcDbEntity
  8
Visible (ANSI)
100
AcDbSpline
210
0.0
220
0.0
230
1.0
 70
     8
 71
     3
 72
    12
 73
     8
 74
     0
 42
0.0000000001
 43
0.0000000001
 40
0.0000203616249837
 40
0.0000203616249837
 40
0.0000203616249837
 40
0.0000203616249837
 40
0.0127101483724873
 40
0.0127101483724873
 40
0.0188227076693181
 40
0.0188227076693181
 40
0.0217450876331074
 40
0.0217450876331074
 40
0.0217450876331074
 40
0.0217450876331074
 10
5.458054445763615
 20
2.749468702026176
 30
0.0
 10
5.459349030736833
 20
2.750259613597273
 30
0.0
 10
5.460673042379408
 20
2.751158125364034
 30
0.0
 10
5.462672074166467
 20
2.752537638003625
 30
0.0
 10
5.46332838756305
 20
2.752992356565538
 30
0.0
 10
5.46430767435928
 20
2.753656041868102
 30
0.0
 10
5.464625639701898
 20
2.753869392805434
 30
0.0
 10
5.464944646963769
 20
2.754080269428191
 30
0.0
  0
SPLINE
  5
18A
330
6C
100
AcDbEntity
  8
Visible (ANSI)
100
AcDbSpline
210
0.0
220
0.0
230
1.0
 70
     8
 71
     3
 72
    12
 73
     8
 74
     0
 42
0.0000000001
 43
0.0000000001
 40
-1.989850283043573
 40
-1.989850283043573
 40
-1.989850283043573
 40
-1.989850283043573
 40
-1.901805976233025
 40
-1.901805976233025
 40
-1.814674340670536
 40
-1.814674340670536
 40
-1.794069246480414
 40
-1.794069246480414
 40
-1.794069246480414
 40
-1.794069246480414
 10
5.167841383306138
 20
2.640142903709264
 30
0.0
 10
5.169274091961477
 20
2.636612512194262
 30
0.0
 10
5.170704052811566
 20
2.634738634907088
 30
0.0
 10
5.173558484872557
 20
2.634288701318927
 30
0.0
 10
5.174987216912305
 20
2.63567793644258
 30
0.0
 10
5.176778858686812
 20
2.639463137237835
 30
0.0
 10
5.177121923057266
 20
2.640277986092661
 30
0.0
 10
5.177465402874895
 20
2.641181238896649
 30
0.0
  0
SPLINE
  5
18B
330
6C
100
AcDbEntity
  8
Visible (ANSI)
100
AcDbSpline
210
0.0
220
0.0
230
1.0
 70
     8
 71
     3
 72
    18
 73
    14
 74
     0
 42
0.0000000001
 43
0.0000000001
 40
-0.5728397244851191
 40
-0.5728397244851191
 40
-0.5728397244851191
 40
-0.5728397244851191
 40
-0.479148487927179
 40
-0.479148487927179
 40
-0.3576797855048062
 40
-0.3576797855048062
 40
-0.2522974374889957
 40
-0.2522974374889957
 40
-0.1491698868189103
 40
-0.1491698868189103
 40
-0.0739576395907308
 40
-0.0739576395907308
 40
-0.0000031956803937
 40
-0.0000031956803937
 40
-0.0000031956803937
 40
-0.0000031956803937
 10
5.214518353886349
 20
2.858429178451558
 30
0.0
 10
5.215551628302727
 20
2.861046724398701
 30
0.0
 10
5.216737247779962
 20
2.863295579093603
 30
0.0
 10
5.219773640784755
 20
2.865928313358139
 30
0.0
 10
5.221758939454189
 20
2.865586069090229
 30
0.0
 10
5.225958269078583
 20
2.857610848087843
 30
0.0
 10
5.227923819275758
 20
2.851320861708837
 30
0.0
 10
5.231846623637862
 20
2.834596961300922
 30
0.0
 10
5.233793105357869
 20
2.824295708256125
 30
0.0
 10
5.237193858374862
 20
2.804208495215366
 30
0.0
 10
5.238611391557031
 20
2.795200420386427
 30
0.0
 10
5.241467246745274
 20
2.776532620412948
 30
0.0
 10
5.242895878150279
 20
2.766938605726056
 30
0.0
 10
5.244342892205633
 20
2.757352866950724
 30
0.0
  0
LINE
  5
18C
330
6C
100
AcDbEntity
  8
Visible (ANSI)
100
AcDbLine
 10
5.156916868525294
 20
2.667874500441529
 30
0.0
 11
5.151435261266527
 21
2.681341809458613
 31
0.0
  0
SPLINE
  5
18D
330
6C
100
AcDbEntity
  8
Visible (ANSI)
100
AcDbSpline
210
0.0
220
0.0
230
1.0
 70
     8
 71
     3
 72
    12
 73
     8
 74
     0
 42
0.0000000001
 43
0.0000000001
 40
-1.815730578071734
 40
-1.815730578071734
 40
-1.815730578071734
 40
-1.815730578071734
 40
-1.708501874529181
 40
-1.708501874529181
 40
-1.60255575720918
 40
-1.60255575720918
 40
-1.561356880440963
 40
-1.561356880440963
 40
-1.561356880440963
 40
-1.561356880440963
 10
5.264968389974112
 20
2.665584623289192
 30
0.0
 10
5.266204016125032
 20
2.664388870271639
 30
0.0
 10
5.267446847608832
 20
2.664129636174112
 30
0.0
 10
5.269931994413747
 20
2.665485816021048
 30
0.0
 10
5.271168683086354
 20
2.667075765925664
 30
0.0
 10
5.272914394758354
 20
2.670572162406114
 30
0.0
 10
5.273416462420234
 20
2.671712954676718
 30
0.0
 10
5.273931892069071
 20
2.673026914604494
 30
0.0
  0
SPLINE
  5
18E
330
6C
100
AcDbEntity
  8
Visible (ANSI)
100
AcDbSpline
210
0.0
220
0.0
230
1.0
 70
     8
 71
     3
 72
    20
 73
    16
 74
     0
 42
0.0000000001
 43
0.0000000001
 40
-0.5866897511513321
 40
-0.5866897511513321
 40
-0.5866897511513321
 40
-0.5866897511513321
 40
-0.5683225224822419
 40
-0.5683225224822419
 40
-0.371891405192556
 40
-0.371891405192556
 40
-0.24951951947721
 40
-0.24951951947721
 40
-0.164442498311798
 40
-0.164442498311798
 40
-0.089448681429506
 40
-0.089448681429506
 40
-0.0442997738012235
 40
-0.0442997738012235
 40
-0.0000075734836228
 40
-0.0000075734836228
 40
-0.0000075734836228
 40
-0.0000075734836228
 10
5.307739124149363
 20
2.826883474225961
 30
0.0
 10
5.307902126782273
 20
2.827271209227737
 30
0.0
 10
5.308065461472881
 20
2.827646891116071
 30
0.0
 10
5.309979911454529
 20
2.831897495448648
 30
0.0
 10
5.311976020550156
 20
2.834884193472719
 30
0.0
 10
5.315678240215768
 20
2.83549222953801
 30
0.0
 10
5.317720642678067
 20
2.834830532927776
 30
0.0
 10
5.322044284770361
 20
2.826983006947674
 30
0.0
 10
5.324036107882576
 20
2.821899324685299
 30
0.0
 10
5.328212825761365
 20
2.807660979995473
 30
0.0
 10
5.33018924437572
 20
2.799633775969062
 30
0.0
 10
5.333392846241565
 20
2.785528908828606
 30
0.0
 10
5.334598738060578
 20
2.779975896713708
 30
0.0
 10
5.337011010473241
 20
2.76872630024065
 30
0.0
 10
5.338219671724703
 20
2.763020242908195
 30
0.0
 10
5.339443274619486
 20
2.757352866951952
 30
0.0
  0
SPLINE
  5
18F
330
6C
100
AcDbEntity
  8
Visible (ANSI)
100
AcDbSpline
210
0.0
220
0.0
230
1.0
 70
     8
 71
     3
 72
    12
 73
     8
 74
     0
 42
0.0000000001
 43
0.0000000001
 40
-0.1490255068148058
 40
-0.1490255068148058
 40
-0.1490255068148058
 40
-0.1490255068148058
 40
-0.111226322835783
 40
-0.111226322835783
 40
-0.0734391306857705
 40
-0.0734391306857705
 40
-0.0467073974143672
 40
-0.0467073974143672
 40
-0.0467073974143672
 40
-0.0467073974143672
 10
5.361869366715325
 20
2.69449422420346
 30
0.0
 10
5.36303199797681
 20
2.694402010104907
 30
0.0
 10
5.364206670715804
 20
2.694855795184815
 30
0.0
 10
5.366579474266419
 20
2.696924148324197
 30
0.0
 10
5.367744556118568
 20
2.698508972895405
 30
0.0
 10
5.369787195910655
 20
2.702163642984872
 30
0.0
 10
5.370637326136893
 20
2.70393881486608
 30
0.0
 10
5.371491456983244
 20
2.705942593404896
 30
0.0
  0
SPLINE
  5
190
330
6C
100
AcDbEntity
  8
Visible (ANSI)
100
AcDbSpline
210
0.0
220
0.0
230
1.0
 70
    24
 71
     3
 72
     8
 73
     4
 74
     0
 42
0.0000000001
 43
0.0000000001
 40
-0.0121232648044467
 40
-0.0121232648044467
 40
-0.0121232648044467
 40
-0.0121232648044467
 40
-0.0120938320107644
 40
-0.0120938320107644
 40
-0.0120938320107644
 40
-0.0120938320107644
 10
5.040365577877219
 20
2.753117849523535
 30
0.0
 10
5.040365577877219
 20
2.75312123442131
 30
0.0
 10
5.040365577877219
 20
2.753124619456531
 30
0.0
 10
5.040365577877219
 20
2.753128004629154
 30
0.0
  0
SPLINE
  5
191
330
6C
100
AcDbEntity
  8
Visible (ANSI)
100
AcDbSpline
210
0.0
220
0.0
230
1.0
 70
    24
 71
     3
 72
    10
 73
     6
 74
     0
 42
0.0000000001
 43
0.0000000001
 40
-0.011929442562991
 40
-0.011929442562991
 40
-0.011929442562991
 40
-0.011929442562991
 40
-0.0060172715926136
 40
-0.0060172715926136
 40
-0.0000315072590548
 40
-0.0000315072590548
 40
-0.0000315072590548
 40
-0.0000315072590548
 10
5.040365577877219
 20
2.753184738564498
 30
0.0
 10
5.040365577877219
 20
2.753865026870303
 30
0.0
 10
5.040365577877219
 20
2.754550849129165
 30
0.0
 10
5.040365577877219
 20
2.755941440853584
 30
0.0
 10
5.040365577877219
 20
2.756646315074195
 30
0.0
 10
5.040365577877219
 20
2.757356100155063
 30
0.0
  0
SPLINE
  5
192
330
6C
100
AcDbEntity
  8
Visible (ANSI)
100
AcDbSpline
210
0.0
220
0.0
230
1.0
 70
     8
 71
     3
 72
    10
 73
     6
 74
     0
 42
0.0000000001
 43
0.0000000001
 40
-0.0047859001863201
 40
-0.0047859001863201
 40
-0.0047859001863201
 40
-0.0047859001863201
 40
-0.002408409146633
 40
-0.002408409146633
 40
-0.0000370727497388
 40
-0.0000370727497388
 40
-0.0000370727497388
 40
-0.0000370727497388
 10
4.487326010077206
 20
2.751641064567044
 30
0.0
 10
4.487247829552598
 20
2.75194106132929
 30
0.0
 10
4.487170002648467
 20
2.752241446222995
 30
0.0
 10
4.487015312370457
 20
2.752842355894845
 30
0.0
 10
4.486938517437618
 20
2.753142604192711
 30
0.0
 10
4.486862136773616
 20
2.753443316321029
 30
0.0
  0
SPLINE
  5
193
330
6C
100
AcDbEntity
  8
Visible (ANSI)
100
AcDbSpline
210
0.0
220
0.0
230
1.0
 70
     8
 71
     3
 72
    10
 73
     6
 74
     0
 42
0.0000000001
 43
0.0000000001
 40
0.0000561709773543
 40
0.0000561709773543
 40
0.0000561709773543
 40
0.0000561709773543
 40
0.0052099038169858
 40
0.0052099038169858
 40
0.0097192360974471
 40
0.0097192360974471
 40
0.0097192360974471
 40
0.0097192360974471
 10
4.486862136796455
 20
2.753443316313358
 30
0.0
 10
4.48669632822419
 20
2.754096027591085
 30
0.0
 10
4.486542044905067
 20
2.754712244503213
 30
0.0
 10
4.486223449368371
 20
2.755979026719804
 30
0.0
 10
4.486058059418971
 20
2.756633836709281
 30
0.0
 10
4.485870916519997
 20
2.757353089871028
 30
0.0
  0
SPLINE
  5
194
330
6C
100
AcDbEntity
  8
Visible (ANSI)
100
AcDbSpline
210
0.0
220
0.0
230
1.0
 70
     8
 71
     3
 72
    10
 73
     6
 74
     0
 42
0.0000000001
 43
0.0000000001
 40
0.0000651980370388
 40
0.0000651980370388
 40
0.0000651980370388
 40
0.0000651980370388
 40
0.0059278684223236
 40
0.0059278684223236
 40
0.0128367536832777
 40
0.0128367536832777
 40
0.0128367536832777
 40
0.0128367536832777
 10
4.485870916510444
 20
2.757353089866188
 30
0.0
 10
4.485677797329862
 20
2.758095079701363
 30
0.0
 10
4.485497385427427
 20
2.75876752479609
 30
0.0
 10
4.485155558183275
 20
2.760033827928324
 30
0.0
 10
4.484972782493219
 20
2.760705369624592
 30
0.0
 10
4.484789749900735
 20
2.761386178556855
 30
0.0
  0
SPLINE
  5
195
330
6C
100
AcDbEntity
  8
Visible (ANSI)
100
AcDbSpline
210
0.0
220
0.0
230
1.0
 70
     8
 71
     3
 72
    10
 73
     6
 74
     0
 42
0.0000000001
 43
0.0000000001
 40
-0.004568093945859
 40
-0.004568093945859
 40
-0.004568093945859
 40
-0.004568093945859
 40
-0.0023328006998965
 40
-0.0023328006998965
 40
-0.0000380681064065
 40
-0.0000380681064065
 40
-0.0000380681064065
 40
-0.0000380681064065
 10
4.484789749890593
 20
2.761386178553836
 30
0.0
 10
4.484713664543582
 20
2.761669152814274
 30
0.0
 10
4.484637983796423
 20
2.761952315078877
 30
0.0
 10
4.484485427838484
 20
2.762526784328166
 30
0.0
 10
4.484408672792088
 20
2.762817736174196
 30
0.0
 10
4.484332353747143
 20
2.763109042887655
 30
0.0
  0
SPLINE
  5
196
330
6C
100
AcDbEntity
  8
Visible (ANSI)
100
AcDbSpline
210
0.0
220
0.0
230
1.0
 70
     8
 71
     3
 72
    10
 73
     6
 74
     0
 42
0.0000000001
 43
0.0000000001
 40
-0.0512535720313583
 40
-0.0512535720313583
 40
-0.0512535720313583
 40
-0.0512535720313583
 40
-0.026024828054471
 40
-0.026024828054471
 40
-0.0000216912070027
 40
-0.0000216912070027
 40
-0.0000216912070027
 40
-0.0000216912070027
 10
4.484332353842091
 20
2.763109042912637
 30
0.0
 10
4.483493446010073
 20
2.766311083397295
 30
0.0
 10
4.482651835984101
 20
2.769508430531215
 30
0.0
 10
4.480931113763854
 20
2.775978265639163
 30
0.0
 10
4.480054167058812
 20
2.779240561389289
 30
0.0
 10
4.479168018177701
 20
2.782477862005849
 30
0.0
  0
SPLINE
  5
197
330
6C
100
AcDbEntity
  8
Visible (ANSI)
100
AcDbSpline
210
0.0
220
0.0
230
1.0
 70
     8
 71
     3
 72
    26
 73
    22
 74
     0
 42
0.0000000001
 43
0.0000000001
 40
0.6783956137947805
 40
0.6783956137947805
 40
0.6783956137947805
 40
0.6783956137947805
 40
0.7311130002937969
 40
0.7311130002937969
 40
0.7961517149246941
 40
0.7961517149246941
 40
0.8791427954817274
 40
0.8791427954817274
 40
0.9915371853873351
 40
0.9915371853873351
 40
1.129407903958925
 40
1.129407903958925
 40
1.276269841210318
 40
1.276269841210318
 40
1.418233175393652
 40
1.418233175393652
 40
1.534895015941406
 40
1.534895015941406
 40
1.63735804915774
 40
1.63735804915774
 40
1.734270924827838
 40
1.734270924827838
 40
1.734270924827838
 40
1.734270924827838
 10
4.550037206050254
 20
2.87604108848095
 30
0.0
 10
4.551268720178918
 20
2.87926448162397
 30
0.0
 10
4.552681493799229
 20
2.88173957091665
 30
0.0
 10
4.556256204401605
 20
2.882796300977916
 30
0.0
 10
4.558230788247183
 20
2.880206118016182
 30
0.0
 10
4.562725524555811
 20
2.867494054774464
 30
0.0
 10
4.564744411725497
 20
2.857062200501449
 30
0.0
 10
4.568103930097867
 20
2.838170723385379
 30
0.0
 10
4.570037770870324
 20
2.825082872507135
 30
0.0
 10
4.574346842296839
 20
2.792963834917393
 30
0.0
 10
4.5763609477007
 20
2.776187614755408
 30
0.0
 10
4.579698124021425
 20
2.74863881855871
 30
0.0
 10
4.581615881870241
 20
2.73259416279594
 30
0.0
 10
4.585725175681425
 20
2.70058987620599
 30
0.0
 10
4.587743289973144
 20
2.686003248854719
 30
0.0
 10
4.591416893986584
 20
2.663448143325173
 30
0.0
 10
4.593367677885295
 20
2.652776154654952
 30
0.0
 10
4.597638191728373
 20
2.637608612212466
 30
0.0
 10
4.599634406771912
 20
2.633478687248607
 30
0.0
 10
4.603517499357386
 20
2.631723210162486
 30
0.0
 10
4.605360077985835
 20
2.633782858918537
 30
0.0
 10
4.607239571913561
 20
2.63868413655753
 30
0.0
  0
SPLINE
  5
198
330
6C
100
AcDbEntity
  8
Visible (ANSI)
100
AcDbSpline
210
0.0
220
0.0
230
1.0
 70
     8
 71
     3
 72
    28
 73
    24
 74
     0
 42
0.0000000001
 43
0.0000000001
 40
2.586308767127544
 40
2.586308767127544
 40
2.586308767127544
 40
2.586308767127544
 40
2.673701567546323
 40
2.673701567546323
 40
2.804430488423454
 40
2.804430488423454
 40
2.969126862393232
 40
2.969126862393232
 40
3.188658603112703
 40
3.188658603112703
 40
3.454565636383016
 40
3.454565636383016
 40
3.762756979306408
 40
3.762756979306408
 40
4.070948322229853
 40
4.070948322229853
 40
4.336855355500519
 40
4.336855355500519
 40
4.556387096220287
 40
4.556387096220287
 40
4.721083470188887
 40
4.721083470188887
 40
4.729211136845742
 40
4.729211136845742
 40
4.729211136845742
 40
4.729211136845742
 10
4.645141311554231
 20
2.876040677028086
 30
0.0
 10
4.646450019617527
 20
2.879456153209964
 30
0.0
 10
4.647745103233569
 20
2.881476816843264
 30
0.0
 10
4.651051829798546
 20
2.883014925651933
 30
0.0
 10
4.65303363304315
 20
2.880730853710949
 30
0.0
 10
4.657512077398219
 20
2.868731537613228
 30
0.0
 10
4.659520741309315
 20
2.858693165561495
 30
0.0
 10
4.662918370028664
 20
2.839986834132765
 30
0.0
 10
4.66486075549623
 20
2.82701461141754
 30
0.0
 10
4.669158498830616
 20
2.795256602299173
 30
0.0
 10
4.671162151911355
 20
2.778639641202936
 30
0.0
 10
4.674694802669342
 20
2.749505535428277
 30
0.0
 10
4.676592904743678
 20
2.733667720144865
 30
0.0
 10
4.68039251929294
 20
2.703862313848912
 30
0.0
 10
4.682290621367278
 20
2.689923275454691
 30
0.0
 10
4.685823272125266
 20
2.667400545296585
 30
0.0
 10
4.687826925206008
 20
2.655779292768622
 30
0.0
 10
4.692124668540398
 20
2.639329925439815
 30
0.0
 10
4.694067054007966
 20
2.634673561686166
 30
0.0
 10
4.697464682727307
 20
2.631818452655282
 30
0.0
 10
4.699473346638404
 20
2.631723264174007
 30
0.0
 10
4.70209324027198
 20
2.638054177359855
 30
0.0
 10
4.702216450275447
 20
2.638363800957602
 30
0.0
 10
4.702339660445171
 20
2.638685169425109
 30
0.0
  0
SPLINE
  5
199
330
6C
100
AcDbEntity
  8
Visible (ANSI)
100
AcDbSpline
210
0.0
220
0.0
230
1.0
 70
     8
 71
     3
 72
    28
 73
    24
 74
     0
 42
0.0000000001
 43
0.0000000001
 40
5.624049780137712
 40
5.624049780137712
 40
5.624049780137712
 40
5.624049780137712
 40
5.683870944280365
 40
5.683870944280365
 40
5.784567288077354
 40
5.784567288077354
 40
5.888155909429547
 40
5.888155909429547
 40
5.990618942643586
 40
5.990618942643586
 40
6.10728078318826
 40
6.10728078318826
 40
6.249244117367889
 40
6.249244117367889
 40
6.39610605461692
 40
6.39610605461692
 40
6.533976773188063
 40
6.533976773188063
 40
6.646371163093019
 40
6.646371163093019
 40
6.7293622436461
 40
6.7293622436461
 40
6.736606910656839
 40
6.736606910656839
 40
6.736606910656839
 40
6.736606910656839
 10
4.740236274146352
 20
2.876043072455875
 30
0.0
 10
4.741234699111781
 20
2.878645760436599
 30
0.0
 10
4.742314681376358
 20
2.880660085919099
 30
0.0
 10
4.74543908844641
 20
2.883291239098636
 30
0.0
 10
4.74739834182922
 20
2.881787201211031
 30
0.0
 10
4.751371710853947
 20
2.872696004734947
 30
0.0
 10
4.753337906269752
 20
2.865047626864191
 30
0.0
 10
4.757351017264755
 20
2.844148229936044
 30
0.0
 10
4.759347232308299
 20
2.831228573900327
 30
0.0
 10
4.763617746151382
 20
2.800273180435235
 30
0.0
 10
4.76556853005009
 20
2.784298579748218
 30
0.0
 10
4.769242134063528
 20
2.754116232878415
 30
0.0
 10
4.771260248355249
 20
2.737176946068655
 30
0.0
 10
4.775369542166454
 20
2.704725417509026
 30
0.0
 10
4.777287300015272
 20
2.690756491570421
 30
0.0
 10
4.78062447633597
 20
2.669166478717004
 30
0.0
 10
4.782638581739835
 20
2.657212397912888
 30
0.0
 10
4.786947653166356
 20
2.640154936142045
 30
0.0
 10
4.788881493938808
 20
2.635240250207515
 30
0.0
 10
4.792241012311126
 20
2.631888257531153
 30
0.0
 10
4.794259899480811
 20
2.631372179897164
 30
0.0
 10
4.79699979309764
 20
2.637576205792918
 30
0.0
 10
4.797219765287286
 20
2.638112534901933
 30
0.0
 10
4.79743973460756
 20
2.638686272849478
 30
0.0
  0
SPLINE
  5
19A
330
6C
100
AcDbEntity
  8
Visible (ANSI)
100
AcDbSpline
210
0.0
220
0.0
230
1.0
 70
     8
 71
     3
 72
    10
 73
     6
 74
     0
 42
0.0000000001
 43
0.0000000001
 40
7.406600878216417
 40
7.406600878216417
 40
7.406600878216417
 40
7.406600878216417
 40
7.433977346368132
 40
7.433977346368132
 40
7.525303939364561
 40
7.525303939364561
 40
7.525303939364561
 40
7.525303939364561
 10
4.835341602887606
 20
2.876034000421205
 30
0.0
 10
4.835777176469801
 20
2.877170222078852
 30
0.0
 10
4.83621288243534
 20
2.878157767057817
 30
0.0
 10
4.83810265346005
 20
2.881762393199632
 30
0.0
 10
4.83954935001442
 20
2.882762875254712
 30
0.0
 10
4.840990198544355
 20
2.882098679844234
 30
0.0
  0
SPLINE
  5
19B
330
6C
100
AcDbEntity
  8
Visible (ANSI)
100
AcDbSpline
210
0.0
220
0.0
230
1.0
 70
     8
 71
     3
 72
     8
 73
     4
 74
     0
 42
0.0000000001
 43
0.0000000001
 40
7.525308719413167
 40
7.525308719413167
 40
7.525308719413167
 40
7.525308719413167
 40
7.525422169945691
 40
7.525422169945691
 40
7.525422169945691
 40
7.525422169945691
 10
4.840990424787041
 20
2.882098575538269
 30
0.0
 10
4.840992214681508
 20
2.88209775022452
 30
0.0
 10
4.840994004566952
 20
2.882096922341873
 30
0.0
 10
4.840995794443373
 20
2.882096091890532
 30
0.0
  0
SPLINE
  5
19C
330
6C
100
AcDbEntity
  8
Visible (ANSI)
100
AcDbSpline
210
0.0
220
0.0
230
1.0
 70
     8
 71
     3
 72
    14
 73
    10
 74
     0
 42
0.0000000001
 43
0.0000000001
 40
-0.0926955967891245
 40
-0.0926955967891245
 40
-0.0926955967891245
 40
-0.0926955967891245
 40
-0.0870842061924135
 40
-0.0870842061924135
 40
-0.079283176711534
 40
-0.079283176711534
 40
-0.0755224742908383
 40
-0.0755224742908383
 40
-0.0731734070957761
 40
-0.0731734070957761
 40
-0.0731734070957761
 40
-0.0731734070957761
 10
4.462406932629622
 20
2.855807072159109
 30
0.0
 10
4.462836902480977
 20
2.855423155572284
 30
0.0
 10
4.463249595172149
 20
2.855070971699695
 30
0.0
 10
4.464144461653424
 20
2.854331538819735
 30
0.0
 10
4.46460478910835
 20
2.853973318859033
 30
0.0
 10
4.465052570603557
 20
2.853631625084783
 30
0.0
 10
4.465159639069356
 20
2.853551325247786
 30
0.0
 10
4.465257605619856
 20
2.85347798731818
 30
0.0
 10
4.465276480049753
 20
2.853463919662326
 30
0.0
 10
4.465276484309105
 20
2.853463924499108
 30
0.0
  0
SPLINE
  5
19D
330
6C
100
AcDbEntity
  8
Visible (ANSI)
100
AcDbSpline
210
0.0
220
0.0
230
1.0
 70
     8
 71
     3
 72
     8
 73
     4
 74
     0
 42
0.0000000001
 43
0.0000000001
 40
-0.3125316785027568
 40
-0.3125316785027568
 40
-0.3125316785027568
 40
-0.3125316785027568
 40
-0.3082481594170262
 40
-0.3082481594170262
 40
-0.3082481594170262
 40
-0.3082481594170262
 10
4.462406932629617
 20
2.855807072159114
 30
0.0
 10
4.462052345043954
 20
2.856123680533374
 30
0.0
 10
4.461698961888123
 20
2.856447220265626
 30
0.0
 10
4.461348051077543
 20
2.856776933896887
 30
0.0
  0
SPLINE
  5
19E
330
6C
100
AcDbEntity
  8
Visible (ANSI)
100
AcDbSpline
210
0.0
220
0.0
230
1.0
 70
     8
 71
     3
 72
     8
 73
     4
 74
     0
 42
0.0000000001
 43
0.0000000001
 40
-0.5130257967337287
 40
-0.5130257967337287
 40
-0.5130257967337287
 40
-0.5130257967337287
 40
-0.5087422776479827
 40
-0.5087422776479827
 40
-0.5087422776479827
 40
-0.5087422776479827
 10
4.461348051077541
 20
2.846769992666635
 30
0.0
 10
4.461698982334769
 20
2.8463195692269
 30
0.0
 10
4.462052312004935
 20
2.845877672275085
 30
0.0
 10
4.462406932629618
 20
2.845445136894674
 30
0.0
  0
SPLINE
  5
19F
330
6C
100
AcDbEntity
  8
Visible (ANSI)
100
AcDbSpline
210
0.0
220
0.0
230
1.0
 70
     8
 71
     3
 72
    22
 73
    18
 74
     0
 42
0.0000000001
 43
0.0000000001
 40
-0.0926955967855908
 40
-0.0926955967855908
 40
-0.0926955967855908
 40
-0.0926955967855908
 40
-0.08708420618933
 40
-0.08708420618933
 40
-0.0792831767089942
 40
-0.0792831767089942
 40
-0.0755224742885482
 40
-0.0755224742885482
 40
-0.0726835956475125
 40
-0.0726835956475125
 40
-0.0696325782945309
 40
-0.0696325782945309
 40
-0.0648656491452871
 40
-0.0648656491452871
 40
-0.0554194952185615
 40
-0.0554194952185615
 40
-0.053457264610554
 40
-0.053457264610554
 40
-0.053457264610554
 40
-0.053457264610554
 10
4.462406932629618
 20
2.839788282645011
 30
0.0
 10
4.462836902480971
 20
2.839647759421288
 30
0.0
 10
4.46324959517214
 20
2.839557908063667
 30
0.0
 10
4.464144461653413
 20
2.839484844232357
 30
0.0
 10
4.464604789108339
 20
2.839556660300035
 30
0.0
 10
4.465052570603545
 20
2.839890784922125
 30
0.0
 10
4.465159639069344
 20
2.840033862655688
 30
0.0
 10
4.465265459457352
 20
2.840349090762099
 30
0.0
 10
4.465283534173179
 20
2.840503074115616
 30
0.0
 10
4.465263805165061
 20
2.840859298693341
 30
0.0
 10
4.465221937690138
 20
2.841060821237814
 30
0.0
 10
4.465042941246641
 20
2.8416143263467
 30
0.0
 10
4.464867843019634
 20
2.841980186662387
 30
0.0
 10
4.464216105219938
 20
2.843116197047626
 30
0.0
 10
4.463590837503992
 20
2.843968711856147
 30
0.0
 10
4.462719853383458
 20
2.845061127112527
 30
0.0
 10
4.462565369240374
 20
2.845251889703359
 30
0.0
 10
4.462406932629619
 20
2.845445136894674
 30
0.0
  0
SPLINE
  5
1A0
330
6C
100
AcDbEntity
  8
Visible (ANSI)
100
AcDbSpline
210
0.0
220
0.0
230
1.0
 70
     8
 71
     3
 72
     8
 73
     4
 74
     0
 42
0.0000000001
 43
0.0000000001
 40
-0.3125316785027803
 40
-0.3125316785027803
 40
-0.3125316785027803
 40
-0.3125316785027803
 40
-0.3082481594170532
 40
-0.3082481594170532
 40
-0.3082481594170532
 40
-0.3082481594170532
 10
4.462406932629616
 20
2.839788282645015
 30
0.0
 10
4.462052345043954
 20
2.839904169353045
 30
0.0
 10
4.461698961888123
 20
2.840022593114182
 30
0.0
 10
4.461348051077544
 20
2.840143276679198
 30
0.0
  0
SPLINE
  5
1A1
330
6C
100
AcDbEntity
  8
Visible (ANSI)
100
AcDbSpline
210
0.0
220
0.0
230
1.0
 70
     8
 71
     3
 72
     8
 73
     4
 74
     0
 42
0.0000000001
 43
0.0000000001
 40
-0.5130257967337136
 40
-0.5130257967337136
 40
-0.5130257967337136
 40
-0.5130257967337136
 40
-0.5087422776479864
 40
-0.5087422776479864
 40
-0.5087422776479864
 40
-0.5087422776479864
 10
4.461348051077544
 20
2.81280380480979
 30
0.0
 10
4.46169898233477
 20
2.812353381370057
 30
0.0
 10
4.462052312004935
 20
2.811911484418243
 30
0.0
 10
4.462406932629616
 20
2.811478949037835
 30
0.0
  0
SPLINE
  5
1A2
330
6C
100
AcDbEntity
  8
Visible (ANSI)
100
AcDbSpline
210
0.0
220
0.0
230
1.0
 70
     8
 71
     3
 72
    22
 73
    18
 74
     0
 42
0.0000000001
 43
0.0000000001
 40
-0.0926955967877387
 40
-0.0926955967877387
 40
-0.0926955967877387
 40
-0.0926955967877387
 40
-0.0870842061912406
 40
-0.0870842061912406
 40
-0.0792831767105638
 40
-0.0792831767105638
 40
-0.0755224742899588
 40
-0.0755224742899588
 40
-0.0726835956488112
 40
-0.0726835956488112
 40
-0.0696325782957133
 40
-0.0696325782957133
 40
-0.0648656491462837
 40
-0.0648656491462837
 40
-0.0554194952192839
 40
-0.0554194952192839
 40
-0.0534572646112466
 40
-0.0534572646112466
 40
-0.0534572646112466
 40
-0.0534572646112466
 10
4.462406932629615
 20
2.801680990066417
 30
0.0
 10
4.462836902480965
 20
2.801821513290109
 30
0.0
 10
4.463249595172132
 20
2.802018070046165
 30
0.0
 10
4.464144461653402
 20
2.802630952658096
 30
0.0
 10
4.464604789108328
 20
2.803113561696817
 30
0.0
 10
4.465052570603535
 20
2.804033976292584
 30
0.0
 10
4.465159639069333
 20
2.804362094033544
 30
0.0
 10
4.465265459457341
 20
2.804987302455807
 30
0.0
 10
4.465283534173169
 20
2.805267449988446
 30
0.0
 10
4.465263805165049
 20
2.805869728559859
 30
0.0
 10
4.465221937690126
 20
2.806187587139224
 30
0.0
 10
4.465042941246631
 20
2.807011732448246
 30
0.0
 10
4.464867843019624
 20
2.807513062897875
 30
0.0
 10
4.464216105219931
 20
2.808975420644337
 30
0.0
 10
4.463590837503991
 20
2.809953850437958
 30
0.0
 10
4.462719853383451
 20
2.811091054301444
 30
0.0
 10
4.462565369240369
 20
2.81128570184652
 30
0.0
 10
4.462406932629614
 20
2.811478949037832
 30
0.0
  0
SPLINE
  5
1A3
330
6C
100
AcDbEntity
  8
Visible (ANSI)
100
AcDbSpline
210
0.0
220
0.0
230
1.0
 70
     8
 71
     3
 72
     8
 73
     4
 74
     0
 42
0.0000000001
 43
0.0000000001
 40
-0.3125316785027895
 40
-0.3125316785027895
 40
-0.3125316785027895
 40
-0.3125316785027895
 40
-0.308248159417043
 40
-0.308248159417043
 40
-0.308248159417043
 40
-0.308248159417043
 10
4.462406932629618
 20
2.80168099006641
 30
0.0
 10
4.462052345043954
 20
2.80156510335838
 30
0.0
 10
4.461698961888122
 20
2.801446679597241
 30
0.0
 10
4.461348051077541
 20
2.801325996032225
 30
0.0
  0
SPLINE
  5
1A4
330
6C
100
AcDbEntity
  8
Visible (ANSI)
100
AcDbSpline
210
0.0
220
0.0
230
1.0
 70
     8
 71
     3
 72
    14
 73
    10
 74
     0
 42
0.0000000001
 43
0.0000000001
 40
0.0
 40
0.0
 40
0.0
 40
0.0
 40
0.3333333333333001
 40
0.3333333333333001
 40
0.3333333333333001
 40
0.6666666666667
 40
0.6666666666667
 40
0.6666666666667
 40
0.9999496373831535
 40
0.9999496373831535
 40
0.9999496373831535
 40
0.9999496373831535
 10
4.461348140931319
 20
2.763979535003918
 30
0.0
 10
4.461463275005319
 20
2.76387135572933
 30
0.0
 10
4.461578040147318
 20
2.763763348439051
 30
0.0
 10
4.461692544528652
 20
2.763655460944705
 30
0.0
 10
4.461807048909985
 20
2.763547573450357
 30
0.0
 10
4.461921292530652
 20
2.763439805751941
 30
0.0
 10
4.462035228262986
 20
2.763332179912153
 30
0.0
 10
4.462149146781014
 20
2.763224570333322
 30
0.0
 10
4.462262757503738
 20
2.763117102570256
 30
0.0
 10
4.462376077232875
 20
2.763009769852007
 30
0.0
  0
SPLINE
  5
1A5
330
6C
100
AcDbEntity
  8
Visible (ANSI)
100
AcDbSpline
210
0.0
220
0.0
230
1.0
 70
     8
 71
     3
 72
    14
 73
    10
 74
     0
 42
0.0000000001
 43
0.0000000001
 40
-0.0175167200169789
 40
-0.0175167200169789
 40
-0.0175167200169789
 40
-0.0175167200169789
 40
-0.0134292587466473
 40
-0.0134292587466473
 40
-0.0079509004616978
 40
-0.0079509004616978
 40
-0.0041208876256253
 40
-0.0041208876256253
 40
-0.0000026568442892
 40
-0.0000026568442892
 40
-0.0000026568442892
 40
-0.0000026568442892
 10
4.462376077226542
 20
2.763009769847571
 30
0.0
 10
4.4626972365931
 20
2.762705646406824
 30
0.0
 10
4.463003389856683
 20
2.76236796678753
 30
0.0
 10
4.463663517414314
 20
2.761498977583646
 30
0.0
 10
4.463999879132707
 20
2.76093844191676
 30
0.0
 10
4.464452460128396
 20
2.759883980123646
 30
0.0
 10
4.464603449799184
 20
2.759423747365334
 30
0.0
 10
4.464822989383533
 20
2.758424540112054
 30
0.0
 10
4.464881584636746
 20
2.75789363148737
 30
0.0
 10
4.464881652484558
 20
2.757353193549838
 30
0.0
  0
SPLINE
  5
1A6
330
6C
100
AcDbEntity
  8
Visible (ANSI)
100
AcDbSpline
210
0.0
220
0.0
230
1.0
 70
     8
 71
     3
 72
    14
 73
    10
 74
     0
 42
0.0000000001
 43
0.0000000001
 40
-0.0175263835594427
 40
-0.0175263835594427
 40
-0.0175263835594427
 40
-0.0175263835594427
 40
-0.0134460949462539
 40
-0.0134460949462539
 40
-0.0096452949308864
 40
-0.0096452949308864
 40
-0.0041214236372696
 40
-0.0041214236372696
 40
-0.0000008924021921
 40
-0.0000008924021921
 40
-0.0000008924021921
 40
-0.0000008924021921
 10
4.464881652591409
 20
2.757353193549858
 30
0.0
 10
4.464881793524773
 20
2.756817794395348
 30
0.0
 10
4.464824434981997
 20
2.756291758516983
 30
0.0
 10
4.464608639625223
 20
2.755300399352127
 30
0.0
 10
4.464459775718351
 20
2.754842869465729
 30
0.0
 10
4.464009808931752
 20
2.753784830438518
 30
0.0
 10
4.463671935328292
 20
2.75321912383493
 30
0.0
 10
4.463007791709079
 20
2.75234263169768
 30
0.0
 10
4.462699638435932
 20
2.752002368137517
 30
0.0
 10
4.462376103259381
 20
2.751695988694596
 30
0.0
  0
SPLINE
  5
1A7
330
6C
100
AcDbEntity
  8
Visible (ANSI)
100
AcDbSpline
210
0.0
220
0.0
230
1.0
 70
     8
 71
     3
 72
    14
 73
    10
 74
     0
 42
0.0000000001
 43
0.0000000001
 40
0.0000248440300644
 40
0.0000248440300644
 40
0.0000248440300644
 40
0.0000248440300644
 40
0.3333333333333001
 40
0.3333333333333001
 40
0.3333333333333001
 40
0.6666666666667
 40
0.6666666666667
 40
0.6666666666667
 40
1.0
 40
1.0
 40
1.0
 40
1.0
 10
4.46237610326237
 20
2.751695988692609
 30
0.0
 10
4.462262773712373
 20
2.751588646735978
 30
0.0
 10
4.462149153626419
 20
2.751481170100142
 30
0.0
 10
4.462035225955652
 20
2.751373551919686
 30
0.0
 10
4.461921289792986
 20
2.751265925717624
 30
0.0
 10
4.461807045999653
 20
2.751158157949843
 30
0.0
 10
4.461692542375735
 20
2.751050270990968
 30
0.0
 10
4.461578038751818
 20
2.750942384032095
 30
0.0
 10
4.461463275297319
 20
2.750834377882129
 30
0.0
 10
4.461348142252319
 20
2.750726199590597
 30
0.0
  0
SPLINE
  5
1A8
330
6C
100
AcDbEntity
  8
Visible (ANSI)
100
AcDbSpline
210
0.0
220
0.0
230
1.0
 70
     8
 71
     3
 72
    10
 73
     6
 74
     0
 42
0.0000000001
 43
0.0000000001
 40
0.0
 40
0.0
 40
0.0
 40
0.0
 40
0.3333333333333001
 40
0.6666666666667
 40
1.0
 40
1.0
 40
1.0
 40
1.0
 10
4.229992712018319
 20
2.729352866945126
 30
0.0
 10
4.229541187032319
 20
2.729729144465676
 30
0.0
 10
4.228642841212319
 20
2.730479377981756
 30
0.0
 10
4.227309481668319
 20
2.731597793874086
 30
0.0
 10
4.226430050570319
 20
2.732338798720286
 30
0.0
 10
4.225992712018319
 20
2.732708154884886
 30
0.0
  0
LINE
  5
1A9
330
6C
100
AcDbEntity
  8
Visible (ANSI)
100
AcDbLine
 10
4.436992712018319
 20
2.729352866945126
 30
0.0
 11
4.229992712018319
 21
2.729352866945126
 31
0.0
  0
SPLINE
  5
1AA
330
6C
100
AcDbEntity
  8
Visible (ANSI)
100
AcDbSpline
210
0.0
220
0.0
230
1.0
 70
     8
 71
     3
 72
    14
 73
    10
 74
     0
 42
0.0000000001
 43
0.0000000001
 40
0.0
 40
0.0
 40
0.0
 40
0.0
 40
0.3333333333333001
 40
0.3333333333333001
 40
0.3333333333333001
 40
0.6666666666667
 40
0.6666666666667
 40
0.6666666666667
 40
0.9999968982518433
 40
0.9999968982518433
 40
0.9999968982518433
 40
0.9999968982518433
 10
4.436992712018319
 20
2.72935286694515
 30
0.0
 10
4.440033663563318
 20
2.731887038347674
 30
0.0
 10
4.442965545220818
 20
2.734366552804368
 30
0.0
 10
4.445785281873401
 20
2.736792309353612
 30
0.0
 10
4.448605018525985
 20
2.739218065902858
 30
0.0
 10
4.451312610173652
 20
2.741590064544654
 30
0.0
 10
4.453907227126236
 20
2.743911643941488
 30
0.0
 10
4.456501819935274
 20
2.746233201735458
 30
0.0
 10
4.458983440151734
 20
2.748504341222787
 30
0.0
 10
4.461348076241185
 20
2.750726137566958
 30
0.0
  0
SPLINE
  5
1AB
330
6C
100
AcDbEntity
  8
Visible (ANSI)
100
AcDbSpline
210
0.0
220
0.0
230
1.0
 70
     8
 71
     3
 72
    14
 73
    10
 74
     0
 42
0.0000000001
 43
0.0000000001
 40
0.0000030658771377
 40
0.0000030658771377
 40
0.0000030658771377
 40
0.0000030658771377
 40
0.3333333333333001
 40
0.3333333333333001
 40
0.3333333333333001
 40
0.6666666666667
 40
0.6666666666667
 40
0.6666666666667
 40
1.0
 40
1.0
 40
1.0
 40
1.0
 10
4.461348075876351
 20
2.76397959612915
 30
0.0
 10
4.458990425412888
 20
2.766194828841058
 30
0.0
 10
4.456513699660513
 20
2.768461706964603
 30
0.0
 10
4.45392188168182
 20
2.770780977002128
 30
0.0
 10
4.451330039864319
 20
2.77310026837164
 30
0.0
 10
4.448623103703318
 20
2.775471952618908
 30
0.0
 10
4.445801050343818
 20
2.777899858784968
 30
0.0
 10
4.442978996984319
 20
2.780327764951027
 30
0.0
 10
4.44004182642632
 20
2.782811893035878
 30
0.0
 10
4.436992712018319
 20
2.785352866945102
 30
0.0
  0
LINE
  5
1AC
330
6C
100
AcDbEntity
  8
Visible (ANSI)
100
AcDbLine
 10
4.436992712018319
 20
2.785352866945126
 30
0.0
 11
4.229992712018319
 21
2.785352866945126
 31
0.0
  0
SPLINE
  5
1AD
330
6C
100
AcDbEntity
  8
Visible (ANSI)
100
AcDbSpline
210
0.0
220
0.0
230
1.0
 70
     8
 71
     3
 72
    10
 73
     6
 74
     0
 42
0.0000000001
 43
0.0000000001
 40
0.0
 40
0.0
 40
0.0
 40
0.0
 40
0.3333333333333001
 40
0.6666666666667
 40
1.0
 40
1.0
 40
1.0
 40
1.0
 10
4.225992712018319
 20
2.781997579005366
 30
0.0
 10
4.226430019790319
 20
2.782366909174156
 30
0.0
 10
4.227309409671319
 20
2.783107879450706
 30
0.0
 10
4.228642768189319
 20
2.784226294830826
 30
0.0
 10
4.229541155665319
 20
2.784976563285306
 30
0.0
 10
4.229992712018319
 20
2.785352866945126
 30
0.0
  0
SPLINE
  5
1AE
330
6C
100
AcDbEntity
  8
Visible (ANSI)
100
AcDbSpline
210
0.0
220
0.0
230
1.0
 70
    12
 71
     2
 72
     6
 73
     3
 74
     0
 42
0.0000000001
 43
0.0000000001
 40
-2.030198518406544
 40
-2.030198518406544
 40
-2.030198518406544
 40
-1.882772277980781
 40
-1.882772277980781
 40
-1.882772277980781
 10
4.436992712018549
 20
2.793502831121277
 30
0.0
 41
2.320394472970049
 10
4.451212984611232
 20
2.797840392522798
 30
0.0
 41
2.508519546576373
 10
4.461348051077735
 20
2.801325996032188
 30
0.0
 41
2.66235991298635
  0
LINE
  5
1AF
330
6C
100
AcDbEntity
  8
Visible (ANSI)
100
AcDbLine
 10
4.436992712018319
 20
2.785352866945133
 30
0.0
 11
4.436992712018319
 21
2.793502831121319
 31
0.0
  0
SPLINE
  5
1B0
330
6C
100
AcDbEntity
  8
Visible (ANSI)
100
AcDbSpline
210
0.0
220
0.0
230
1.0
 70
    12
 71
     2
 72
     6
 73
     3
 74
     0
 42
0.0000000001
 43
0.0000000001
 40
-2.030198518406483
 40
-2.030198518406483
 40
-2.030198518406483
 40
-1.882772277980795
 40
-1.882772277980795
 40
-1.882772277980795
 10
4.436992712018565
 20
2.847966441590144
 30
0.0
 41
2.320394472970271
 10
4.451212984611239
 20
2.843628880188626
 30
0.0
 41
2.50851954657649
 10
4.461348051077736
 20
2.840143276679236
 30
0.0
 41
2.662359912986396
  0
LINE
  5
1B1
330
6C
100
AcDbEntity
  8
Visible (ANSI)
100
AcDbLine
 10
4.436992712018319
 20
2.842000253733255
 30
0.0
 11
4.436992712018319
 21
2.847966441590104
 31
0.0
  0
SPLINE
  5
1B2
330
6C
100
AcDbEntity
  8
Visible (ANSI)
100
AcDbSpline
210
0.0
220
0.0
230
1.0
 70
    12
 71
     2
 72
     6
 73
     3
 74
     0
 42
0.0000000001
 43
0.0000000001
 40
-0.5597271829384148
 40
-0.5597271829384148
 40
-0.5597271829384148
 40
-0.4123009425126957
 40
-0.4123009425126957
 40
-0.4123009425126957
 10
4.461348051077737
 20
2.81280380480993
 30
0.0
 41
2.662359912986419
 10
4.451212984611237
 20
2.825812254202012
 30
0.0
 41
2.50851954657648
 10
4.43699271201856
 20
2.842000253733434
 30
0.0
 41
2.320394472970214
  0
SPLINE
  5
1B3
330
6C
100
AcDbEntity
  8
Visible (ANSI)
100
AcDbSpline
210
0.0
220
0.0
230
1.0
 70
    12
 71
     2
 72
     6
 73
     3
 74
     0
 42
0.0000000001
 43
0.0000000001
 40
-2.030198518406726
 40
-2.030198518406726
 40
-2.030198518406726
 40
-1.882772277981091
 40
-1.882772277981091
 40
-1.882772277981091
 10
4.436992712018567
 20
2.878150217909584
 30
0.0
 41
2.320394472970455
 10
4.45121298461124
 20
2.866299779779681
 30
0.0
 41
2.508519546576723
 10
4.461348051077739
 20
2.856776933896989
 30
0.0
 41
2.66235991298669
  0
LINE
  5
1B4
330
6C
100
AcDbEntity
  8
Visible (ANSI)
100
AcDbLine
 10
4.436992712018319
 20
2.875966441590105
 30
0.0
 11
4.436992712018319
 21
2.878150217909456
 31
0.0
  0
SPLINE
  5
1B5
330
6C
100
AcDbEntity
  8
Visible (ANSI)
100
AcDbSpline
210
0.0
220
0.0
230
1.0
 70
    12
 71
     2
 72
     6
 73
     3
 74
     0
 42
0.0000000001
 43
0.0000000001
 40
-0.5597271829384113
 40
-0.5597271829384113
 40
-0.5597271829384113
 40
-0.4123009425126508
 40
-0.4123009425126508
 40
-0.4123009425126508
 10
4.461348051077736
 20
2.846769992666778
 30
0.0
 41
2.662359912986404
 10
4.451212984611234
 20
2.859778442058864
 30
0.0
 41
2.508519546576422
 10
4.43699271201855
 20
2.875966441590292
 30
0.0
 41
2.320394472970094
  0
LINE
  5
1B6
330
6C
100
AcDbEntity
  8
Visible (ANSI)
100
AcDbLine
 10
4.436992712018319
 20
2.638739292300126
 30
0.0
 11
4.229992712018319
 21
2.638739292300126
 31
0.0
  0
LINE
  5
1B7
330
6C
100
AcDbEntity
  8
Visible (ANSI)
100
AcDbLine
 10
4.229992712018319
 20
2.636555515980796
 30
0.0
 11
4.229992712018319
 21
2.638739292300147
 31
0.0
  0
LINE
  5
1B8
330
6C
100
AcDbEntity
  8
Visible (ANSI)
100
AcDbLine
 10
4.436992712018319
 20
2.636555515980826
 30
0.0
 11
4.229992712018319
 21
2.636555515980826
 31
0.0
  0
LINE
  5
1B9
330
6C
100
AcDbEntity
  8
Visible (ANSI)
100
AcDbLine
 10
4.436992712018319
 20
2.638739292300147
 30
0.0
 11
4.436992712018319
 21
2.636555515980796
 31
0.0
  0
LINE
  5
1BA
330
6C
100
AcDbEntity
  8
Visible (ANSI)
100
AcDbLine
 10
4.436992712018319
 20
2.672705480156996
 30
0.0
 11
4.229992712018319
 21
2.672705480156996
 31
0.0
  0
LINE
  5
1BB
330
6C
100
AcDbEntity
  8
Visible (ANSI)
100
AcDbLine
 10
4.229992712018319
 20
2.666739292300148
 30
0.0
 11
4.229992712018319
 21
2.672705480156998
 31
0.0
  0
LINE
  5
1BC
330
6C
100
AcDbEntity
  8
Visible (ANSI)
100
AcDbLine
 10
4.436992712018319
 20
2.666739292300146
 30
0.0
 11
4.229992712018319
 21
2.666739292300146
 31
0.0
  0
LINE
  5
1BD
330
6C
100
AcDbEntity
  8
Visible (ANSI)
100
AcDbLine
 10
4.436992712018319
 20
2.672705480156998
 30
0.0
 11
4.436992712018319
 21
2.666739292300148
 31
0.0
  0
LINE
  5
1BE
330
6C
100
AcDbEntity
  8
Visible (ANSI)
100
AcDbLine
 10
4.229992712018319
 20
2.721202902768933
 30
0.0
 11
4.229992712018319
 21
2.729352866945119
 31
0.0
  0
LINE
  5
1BF
330
6C
100
AcDbEntity
  8
Visible (ANSI)
100
AcDbLine
 10
4.436992712018319
 20
2.721202902768926
 30
0.0
 11
4.229992712018319
 21
2.721202902768926
 31
0.0
  0
LINE
  5
1C0
330
6C
100
AcDbEntity
  8
Visible (ANSI)
100
AcDbLine
 10
4.436992712018319
 20
2.729352866945119
 30
0.0
 11
4.436992712018319
 21
2.721202902768933
 31
0.0
  0
LINE
  5
1C1
330
6C
100
AcDbEntity
  8
Visible (ANSI)
100
AcDbLine
 10
4.436992712018319
 20
2.793502831121326
 30
0.0
 11
4.229992712018319
 21
2.793502831121326
 31
0.0
  0
LINE
  5
1C2
330
6C
100
AcDbEntity
  8
Visible (ANSI)
100
AcDbLine
 10
4.229992712018319
 20
2.785352866945133
 30
0.0
 11
4.229992712018319
 21
2.793502831121319
 31
0.0
  0
LINE
  5
1C3
330
6C
100
AcDbEntity
  8
Visible (ANSI)
100
AcDbLine
 10
4.436992712018319
 20
2.847966441590106
 30
0.0
 11
4.229992712018319
 21
2.847966441590106
 31
0.0
  0
LINE
  5
1C4
330
6C
100
AcDbEntity
  8
Visible (ANSI)
100
AcDbLine
 10
4.229992712018319
 20
2.842000253733255
 30
0.0
 11
4.229992712018319
 21
2.847966441590104
 31
0.0
  0
LINE
  5
1C5
330
6C
100
AcDbEntity
  8
Visible (ANSI)
100
AcDbLine
 10
4.436992712018319
 20
2.842000253733256
 30
0.0
 11
4.229992712018319
 21
2.842000253733256
 31
0.0
  0
LINE
  5
1C6
330
6C
100
AcDbEntity
  8
Visible (ANSI)
100
AcDbLine
 10
4.436992712018319
 20
2.878150217909426
 30
0.0
 11
4.229992712018319
 21
2.878150217909426
 31
0.0
  0
LINE
  5
1C7
330
6C
100
AcDbEntity
  8
Visible (ANSI)
100
AcDbLine
 10
4.229992712018319
 20
2.875966441590105
 30
0.0
 11
4.229992712018319
 21
2.878150217909457
 31
0.0
  0
LINE
  5
1C8
330
6C
100
AcDbEntity
  8
Visible (ANSI)
100
AcDbLine
 10
4.436992712018319
 20
2.875966441590126
 30
0.0
 11
4.229992712018319
 21
2.875966441590126
 31
0.0
  0
SPLINE
  5
1C9
330
6C
100
AcDbEntity
  8
Visible (ANSI)
100
AcDbSpline
210
0.0
220
0.0
230
1.0
 70
     8
 71
     3
 72
    10
 73
     6
 74
     0
 42
0.0000000001
 43
0.0000000001
 40
0.0
 40
0.0
 40
0.0
 40
0.0
 40
0.3333333333333001
 40
0.6666666666667
 40
1.0
 40
1.0
 40
1.0
 40
1.0
 10
4.229992712018319
 20
2.638739292300126
 30
0.0
 10
4.229541187032319
 20
2.639253296952126
 30
0.0
 10
4.228642841212319
 20
2.640278134993826
 30
0.0
 10
4.227309481668319
 20
2.641805919514726
 30
0.0
 10
4.226430050570319
 20
2.642818150959026
 30
0.0
 10
4.225992712018319
 20
2.643322700862826
 30
0.0
  0
SPLINE
  5
1CA
330
6C
100
AcDbEntity
  8
Visible (ANSI)
100
AcDbSpline
210
0.0
220
0.0
230
1.0
 70
    12
 71
     2
 72
     6
 73
     3
 74
     0
 42
0.0000000001
 43
0.0000000001
 40
0.4123009425126529
 40
0.4123009425126529
 40
0.4123009425126529
 40
0.5597271829384126
 40
0.5597271829384126
 40
0.5597271829384126
 10
4.436992712018549
 20
2.638739292299961
 30
0.0
 41
2.320394472970046
 10
4.451212984611231
 20
2.65492729183139
 30
0.0
 41
2.508519546576365
 10
4.461348051077735
 20
2.667935741223475
 30
0.0
 41
2.662359912986339
  0
SPLINE
  5
1CB
330
6C
100
AcDbEntity
  8
Visible (ANSI)
100
AcDbSpline
210
0.0
220
0.0
230
1.0
 70
    12
 71
     2
 72
     6
 73
     3
 74
     0
 42
0.0000000001
 43
0.0000000001
 40
-0.5597271829381926
 40
-0.5597271829381926
 40
-0.5597271829381926
 40
-0.4123009425125787
 40
-0.4123009425125787
 40
-0.4123009425125787
 10
4.461348051077737
 20
2.657928799993261
 30
0.0
 41
2.662359912986653
 10
4.451212984611239
 20
2.64840595411057
 30
0.0
 41
2.508519546576705
 10
4.436992712018567
 20
2.636555515980668
 30
0.0
 41
2.320394472970465
  0
SPLINE
  5
1CC
330
6C
100
AcDbEntity
  8
Visible (ANSI)
100
AcDbSpline
210
0.0
220
0.0
230
1.0
 70
    12
 71
     2
 72
     6
 73
     3
 74
     0
 42
0.0000000001
 43
0.0000000001
 40
-2.030198518406505
 40
-2.030198518406505
 40
-2.030198518406505
 40
-1.882772277980783
 40
-1.882772277980783
 40
-1.882772277980783
 10
4.436992712018561
 20
2.672705480156818
 30
0.0
 41
2.320394472970223
 10
4.451212984611238
 20
2.688893479688241
 30
0.0
 41
2.50851954657649
 10
4.461348051077738
 20
2.701901929080322
 30
0.0
 41
2.662359912986429
  0
SPLINE
  5
1CD
330
6C
100
AcDbEntity
  8
Visible (ANSI)
100
AcDbSpline
210
0.0
220
0.0
230
1.0
 70
    12
 71
     2
 72
     6
 73
     3
 74
     0
 42
0.0000000001
 43
0.0000000001
 40
-0.5597271829384163
 40
-0.5597271829384163
 40
-0.5597271829384163
 40
-0.4123009425126975
 40
-0.4123009425126975
 40
-0.4123009425126975
 10
4.461348051077735
 20
2.674562457211018
 30
0.0
 41
2.662359912986361
 10
4.451212984611236
 20
2.671076853701629
 30
0.0
 41
2.508519546576429
 10
4.436992712018557
 20
2.66673929230011
 30
0.0
 41
2.320394472970171
  0
SPLINE
  5
1CE
330
6C
100
AcDbEntity
  8
Visible (ANSI)
100
AcDbSpline
210
0.0
220
0.0
230
1.0
 70
    12
 71
     2
 72
     6
 73
     3
 74
     0
 42
0.0000000001
 43
0.0000000001
 40
-0.5597271902479753
 40
-0.5597271902479753
 40
-0.5597271902479753
 40
-0.4123009425126504
 40
-0.4123009425126504
 40
-0.4123009425126504
 10
4.46134805202468
 20
2.713379737532404
 30
0.0
 41
2.662359928241566
 10
4.451212985263416
 20
2.716865341168531
 30
0.0
 41
2.508519555903876
 10
4.43699271201855
 20
2.721202902768986
 30
0.0
 41
2.320394472970089
  0
SPLINE
  5
1CF
330
6C
100
AcDbEntity
  8
Visible (ANSI)
100
AcDbSpline
210
0.0
220
0.0
230
1.0
 70
     8
 71
     3
 72
    10
 73
     6
 74
     0
 42
0.0000000001
 43
0.0000000001
 40
0.0
 40
0.0
 40
0.0
 40
0.0
 40
0.3333333333333001
 40
0.6666666666667
 40
1.0
 40
1.0
 40
1.0
 40
1.0
 10
4.225992712018319
 20
2.639910803920526
 30
0.0
 10
4.226430019775319
 20
2.639541473764426
 30
0.0
 10
4.227309409636319
 20
2.638800503504726
 30
0.0
 10
4.228642768149319
 20
2.637682088127926
 30
0.0
 10
4.229541155648319
 20
2.636931819654726
 30
0.0
 10
4.229992712018319
 20
2.636555515980826
 30
0.0
  0
SPLINE
  5
1D0
330
6C
100
AcDbEntity
  8
Visible (ANSI)
100
AcDbSpline
210
0.0
220
0.0
230
1.0
 70
     8
 71
     3
 72
    10
 73
     6
 74
     0
 42
0.0000000001
 43
0.0000000001
 40
0.0
 40
0.0
 40
0.0
 40
0.0
 40
0.3333333333333001
 40
0.6666666666667
 40
1.0
 40
1.0
 40
1.0
 40
1.0
 10
4.229992712018319
 20
2.672705480156996
 30
0.0
 10
4.229541187032319
 20
2.673219484808946
 30
0.0
 10
4.228642841212319
 20
2.674244322850676
 30
0.0
 10
4.227309481668319
 20
2.675772107371596
 30
0.0
 10
4.226430050570319
 20
2.676784338815826
 30
0.0
 10
4.225992712018319
 20
2.677288888719716
 30
0.0
  0
SPLINE
  5
1D1
330
6C
100
AcDbEntity
  8
Visible (ANSI)
100
AcDbSpline
210
0.0
220
0.0
230
1.0
 70
     8
 71
     3
 72
    10
 73
     6
 74
     0
 42
0.0000000001
 43
0.0000000001
 40
0.0
 40
0.0
 40
0.0
 40
0.0
 40
0.3333333333333001
 40
0.6666666666667
 40
1.0
 40
1.0
 40
1.0
 40
1.0
 10
4.225992712018319
 20
2.667967412923116
 30
0.0
 10
4.226430019790319
 20
2.667832228698956
 30
0.0
 10
4.227309409671319
 20
2.667561014754286
 30
0.0
 10
4.228642768189319
 20
2.667151646313176
 30
0.0
 10
4.229541155665319
 20
2.666877028999186
 30
0.0
 10
4.229992712018319
 20
2.666739292300146
 30
0.0
  0
SPLINE
  5
1D2
330
6C
100
AcDbEntity
  8
Visible (ANSI)
100
AcDbSpline
210
0.0
220
0.0
230
1.0
 70
     8
 71
     3
 72
    10
 73
     6
 74
     0
 42
0.0000000001
 43
0.0000000001
 40
0.0
 40
0.0
 40
0.0
 40
0.0
 40
0.3333333333333001
 40
0.6666666666667
 40
1.0
 40
1.0
 40
1.0
 40
1.0
 10
4.225992712018319
 20
2.719974782145956
 30
0.0
 10
4.226430019790319
 20
2.720109966370126
 30
0.0
 10
4.227309409671319
 20
2.720381180314786
 30
0.0
 10
4.228642768189319
 20
2.720790548755896
 30
0.0
 10
4.229541155665319
 20
2.721065166069896
 30
0.0
 10
4.229992712018319
 20
2.721202902768926
 30
0.0
  0
SPLINE
  5
1D3
330
6C
100
AcDbEntity
  8
Visible (ANSI)
100
AcDbSpline
210
0.0
220
0.0
230
1.0
 70
     8
 71
     3
 72
    10
 73
     6
 74
     0
 42
0.0000000001
 43
0.0000000001
 40
0.0
 40
0.0
 40
0.0
 40
0.0
 40
0.3333333333333001
 40
0.6666666666667
 40
1.0
 40
1.0
 40
1.0
 40
1.0
 10
4.229992712018319
 20
2.793502831121326
 30
0.0
 10
4.229541187032319
 20
2.793640558252726
 30
0.0
 10
4.228642841212319
 20
2.793915162778376
 30
0.0
 10
4.227309481668319
 20
2.794324531406966
 30
0.0
 10
4.226430050570319
 20
2.794595758005006
 30
0.0
 10
4.225992712018319
 20
2.794730951744296
 30
0.0
  0
SPLINE
  5
1D4
330
6C
100
AcDbEntity
  8
Visible (ANSI)
100
AcDbSpline
210
0.0
220
0.0
230
1.0
 70
     8
 71
     3
 72
    10
 73
     6
 74
     0
 42
0.0000000001
 43
0.0000000001
 40
0.0
 40
0.0
 40
0.0
 40
0.0
 40
0.3333333333333001
 40
0.6666666666667
 40
1.0
 40
1.0
 40
1.0
 40
1.0
 10
4.229992712018319
 20
2.847966441590106
 30
0.0
 10
4.229541187032319
 20
2.847828714458706
 30
0.0
 10
4.228642841212319
 20
2.847554109933046
 30
0.0
 10
4.227309481668319
 20
2.847144741304466
 30
0.0
 10
4.226430050570319
 20
2.846873514706426
 30
0.0
 10
4.225992712018319
 20
2.846738320967136
 30
0.0
  0
SPLINE
  5
1D5
330
6C
100
AcDbEntity
  8
Visible (ANSI)
100
AcDbSpline
210
0.0
220
0.0
230
1.0
 70
     8
 71
     3
 72
    10
 73
     6
 74
     0
 42
0.0000000001
 43
0.0000000001
 40
0.0
 40
0.0
 40
0.0
 40
0.0
 40
0.3333333333333001
 40
0.6666666666667
 40
1.0
 40
1.0
 40
1.0
 40
1.0
 10
4.225992712018319
 20
2.837416845170536
 30
0.0
 10
4.226430019790319
 20
2.837921359563486
 30
0.0
 10
4.227309409671319
 20
2.838933543784696
 30
0.0
 10
4.228642768189319
 20
2.840461327605926
 30
0.0
 10
4.229541155665319
 20
2.841486213374396
 30
0.0
 10
4.229992712018319
 20
2.842000253733256
 30
0.0
  0
SPLINE
  5
1D6
330
6C
100
AcDbEntity
  8
Visible (ANSI)
100
AcDbSpline
210
0.0
220
0.0
230
1.0
 70
     8
 71
     3
 72
    10
 73
     6
 74
     0
 42
0.0000000001
 43
0.0000000001
 40
0.0
 40
0.0
 40
0.0
 40
0.0
 40
0.3333333333333001
 40
0.6666666666667
 40
1.0
 40
1.0
 40
1.0
 40
1.0
 10
4.229992712018319
 20
2.878150217909426
 30
0.0
 10
4.229541187032319
 20
2.877773940388926
 30
0.0
 10
4.228642841212319
 20
2.877023706872826
 30
0.0
 10
4.227309481668319
 20
2.875905290980526
 30
0.0
 10
4.226430050570319
 20
2.875164286134326
 30
0.0
 10
4.225992712018319
 20
2.874794929969726
 30
0.0
  0
SPLINE
  5
1D7
330
6C
100
AcDbEntity
  8
Visible (ANSI)
100
AcDbSpline
210
0.0
220
0.0
230
1.0
 70
     8
 71
     3
 72
    10
 73
     6
 74
     0
 42
0.0000000001
 43
0.0000000001
 40
0.0
 40
0.0
 40
0.0
 40
0.0
 40
0.3333333333333001
 40
0.6666666666667
 40
1.0
 40
1.0
 40
1.0
 40
1.0
 10
4.225992712018319
 20
2.871383033027426
 30
0.0
 10
4.226430019790319
 20
2.871887547420326
 30
0.0
 10
4.227309409671319
 20
2.872899731641526
 30
0.0
 10
4.228642768189319
 20
2.874427515462726
 30
0.0
 10
4.229541155665319
 20
2.875452401231226
 30
0.0
 10
4.229992712018319
 20
2.875966441590126
 30
0.0
  0
LINE
  5
1D8
330
6C
100
AcDbEntity
  8
Visible (ANSI)
100
AcDbLine
 10
3.925992712018319
 20
2.497352866945126
 30
0.0
 11
3.925992712018319
 21
3.017352866945126
 31
0.0
  0
LINE
  5
1D9
330
6C
100
AcDbEntity
  8
Visible (ANSI)
100
AcDbLine
 10
3.765992712018319
 20
2.943548328758826
 30
0.0
 11
3.925992712018319
 21
2.943548328758826
 31
0.0
  0
SPLINE
  5
1DA
330
6C
100
AcDbEntity
  8
Visible (ANSI)
100
AcDbSpline
210
0.0
220
0.0
230
1.0
 70
    28
 71
     2
 72
     6
 73
     3
 74
     0
 42
0.0000000001
 43
0.0000000001
 40
-1.584676090358953
 40
-1.584676090358953
 40
-1.584676090358953
 40
-1.104527602347385
 40
-1.104527602347385
 40
-1.104527602347385
 10
3.765992712018051
 20
2.943548328758826
 30
0.0
 41
1.49694001483434
 10
3.737188173832351
 20
2.943548328758826
 30
0.0
 41
1.612728727942658
 10
3.737188173832351
 20
2.943548328758826
 30
0.0
 41
1.612728727942658
  0
SPLINE
  5
1DB
330
6C
100
AcDbEntity
  8
Visible (ANSI)
100
AcDbSpline
210
0.0
220
0.0
230
1.0
 70
    12
 71
     2
 72
     6
 73
     3
 74
     0
 42
0.0000000001
 43
0.0000000001
 40
-1.58467609035928
 40
-1.58467609035928
 40
-1.58467609035928
 40
-0.6243791143356931
 40
-0.6243791143356931
 40
-0.6243791143356931
 10
3.76599271201802
 20
2.757352866945021
 30
0.0
 41
1.496940014834525
 10
3.71224271201919
 20
2.850450597851964
 30
0.0
 41
1.72851744105143
 10
3.765992712018025
 20
2.94354832875891
 30
0.0
 41
1.4969400148345
  0
LINE
  5
1DC
330
6C
100
AcDbEntity
  8
Visible (ANSI)
100
AcDbLine
 10
3.765992712018319
 20
2.757352866945126
 30
0.0
 11
3.925992712018319
 21
2.757352866945126
 31
0.0
  0
SPLINE
  5
1DD
330
6C
100
AcDbEntity
  8
Visible (ANSI)
100
AcDbSpline
210
0.0
220
0.0
230
1.0
 70
    12
 71
     2
 72
     6
 73
     3
 74
     0
 42
0.0000000001
 43
0.0000000001
 40
-1.584676090359332
 40
-1.584676090359332
 40
-1.584676090359332
 40
-0.6243791143357419
 40
-0.6243791143357419
 40
-0.6243791143357419
 10
3.765992712018025
 20
2.571157405131342
 30
0.0
 41
1.496940014834505
 10
3.71224271201919
 20
2.664255136038288
 30
0.0
 41
1.728517441051437
 10
3.765992712018019
 20
2.757352866945232
 30
0.0
 41
1.496940014834528
  0
LINE
  5
1DE
330
6C
100
AcDbEntity
  8
Visible (ANSI)
100
AcDbLine
 10
3.765992712018319
 20
2.571157405131426
 30
0.0
 11
3.925992712018319
 21
2.571157405131426
 31
0.0
  0
SPLINE
  5
1DF
330
6C
100
AcDbEntity
  8
Visible (ANSI)
100
AcDbSpline
210
0.0
220
0.0
230
1.0
 70
    28
 71
     2
 72
     6
 73
     3
 74
     0
 42
0.0000000001
 43
0.0000000001
 40
-1.104527602347384
 40
-1.104527602347384
 40
-1.104527602347384
 40
-0.6243791143358176
 40
-0.6243791143358176
 40
-0.6243791143358176
 10
3.73718817383235
 20
2.571157405131426
 30
0.0
 41
1.612728727942659
 10
3.73718817383235
 20
2.571157405131426
 30
0.0
 41
1.612728727942659
 10
3.76599271201805
 20
2.571157405131426
 30
0.0
 41
1.496940014834342
  0
LINE
  5
1E0
330
6C
100
AcDbEntity
  8
Visible (ANSI)
100
AcDbLine
 10
3.735992712018318
 20
2.572352866945126
 30
0.0
 11
3.735992712018318
 21
2.942352866945126
 31
0.0
  0
ARC
  5
1E1
330
6C
100
AcDbEntity
  8
Visible (ANSI)
100
AcDbCircle
 10
4.00599271201832
 20
2.907352866945127
 30
0.0
 40
0.0299999999999999
100
AcDbArc
 50
180.0
 51
269.9999999999987
  0
ARC
  5
1E2
330
6C
100
AcDbEntity
  8
Visible (ANSI)
100
AcDbCircle
 10
4.005992712018318
 20
2.607352866945126
 30
0.0
 40
0.0299999999999999
100
AcDbArc
 50
89.99999999999866
 51
180.0
  0
LINE
  5
1E3
330
6C
100
AcDbEntity
  8
Visible (ANSI)
100
AcDbLine
 10
4.225992712018319
 20
2.637352866945126
 30
0.0
 11
4.005992712018318
 21
2.637352866945126
 31
0.0
  0
LINE
  5
1E4
330
6C
100
AcDbEntity
  8
Visible (ANSI)
100
AcDbLine
 10
4.225992712018319
 20
2.877352866945127
 30
0.0
 11
4.005992712018318
 21
2.877352866945127
 31
0.0
  0
ARC
  5
1E5
330
6C
100
AcDbEntity
  8
Visible (ANSI)
100
AcDbCircle
 10
4.496703390137018
 20
2.62235286694515
 30
0.0
 40
0.0500000000000004
100
AcDbArc
 50
92.52314644501412
 51
128.9423471077111
  0
SPLINE
  5
1E6
330
6C
100
AcDbEntity
  8
Visible (ANSI)
100
AcDbSpline
210
0.0
220
0.0
230
1.0
 70
     8
 71
     3
 72
     8
 73
     4
 74
     0
 42
0.0000000001
 43
0.0000000001
 40
0.0
 40
0.0
 40
0.0
 40
0.0
 40
0.077551858659288
 40
0.077551858659288
 40
0.077551858659288
 40
0.077551858659288
 10
4.503856159366594
 20
2.647456951833272
 30
0.0
 10
4.500292788239904
 20
2.656989816482929
 30
0.0
 10
4.496710965345032
 20
2.666516014143724
 30
0.0
 10
4.493086845773181
 20
2.676024224793045
 30
0.0
  0
LINE
  5
1E7
330
6C
100
AcDbEntity
  8
Visible (ANSI)
100
AcDbLine
 10
5.189037521098018
 20
2.672352866945126
 30
0.0
 11
5.186767353117632
 21
2.672352866945126
 31
0.0
  0
LINE
  5
1E8
330
6C
100
AcDbEntity
  8
Visible (ANSI)
100
AcDbLine
 10
5.155116970505018
 20
2.672352866945126
 30
0.0
 11
5.155097431606117
 21
2.672352866945126
 31
0.0
  0
LINE
  5
1E9
330
6C
100
AcDbEntity
  8
Visible (ANSI)
100
AcDbLine
 10
5.155095362422623
 20
2.672352866945126
 30
0.0
 11
5.092476541113756
 21
2.672352866945126
 31
0.0
  0
LINE
  5
1EA
330
6C
100
AcDbEntity
  8
Visible (ANSI)
100
AcDbLine
 10
5.189037521098018
 20
2.842352866945126
 30
0.0
 11
5.143433090643158
 21
2.842352866945126
 31
0.0
  0
LINE
  5
1EB
330
6C
100
AcDbEntity
  8
Visible (ANSI)
100
AcDbLine
 10
5.059971918269636
 20
2.672352866945126
 30
0.0
 11
4.997376583559621
 21
2.672352866945126
 31
0.0
  0
LINE
  5
1EC
330
6C
100
AcDbEntity
  8
Visible (ANSI)
100
AcDbLine
 10
4.96487188383153
 20
2.672352866945126
 30
0.0
 11
4.902276619010653
 21
2.672352866945126
 31
0.0
  0
LINE
  5
1ED
330
6C
100
AcDbEntity
  8
Visible (ANSI)
100
AcDbLine
 10
4.869771855797305
 20
2.672352866945126
 30
0.0
 11
4.80716604009189
 21
2.672352866945126
 31
0.0
  0
LINE
  5
1EE
330
6C
100
AcDbEntity
  8
Visible (ANSI)
100
AcDbLine
 10
4.774659892167676
 20
2.672352866945126
 30
0.0
 11
4.712065787592107
 21
2.672352866945126
 31
0.0
  0
LINE
  5
1EF
330
6C
100
AcDbEntity
  8
Visible (ANSI)
100
AcDbLine
 10
4.679559622483353
 20
2.672352866945126
 30
0.0
 11
4.616965540700264
 21
2.672352866945126
 31
0.0
  0
LINE
  5
1F0
330
6C
100
AcDbEntity
  8
Visible (ANSI)
100
AcDbLine
 10
4.584459350816414
 20
2.672352866945126
 30
0.0
 11
4.518719071094484
 21
2.672352866945126
 31
0.0
  0
LINE
  5
1F1
330
6C
100
AcDbEntity
  8
Visible (ANSI)
100
AcDbLine
 10
5.110929419542842
 20
2.842352866945126
 30
0.0
 11
5.048333297491518
 21
2.842352866945126
 31
0.0
  0
LINE
  5
1F2
330
6C
100
AcDbEntity
  8
Visible (ANSI)
100
AcDbLine
 10
5.015829534335401
 20
2.842352866945126
 30
0.0
 11
4.953233499703347
 21
2.842352866945126
 31
0.0
  0
LINE
  5
1F3
330
6C
100
AcDbEntity
  8
Visible (ANSI)
100
AcDbLine
 10
4.92072963163295
 20
2.842352866945126
 30
0.0
 11
4.85813332200503
 21
2.842352866945126
 31
0.0
  0
LINE
  5
1F4
330
6C
100
AcDbEntity
  8
Visible (ANSI)
100
AcDbLine
 10
4.825626296989534
 20
2.842352866945126
 30
0.0
 11
4.763033378150387
 21
2.842352866945126
 31
0.0
  0
LINE
  5
1F5
330
6C
100
AcDbEntity
  8
Visible (ANSI)
100
AcDbLine
 10
4.730526206359531
 20
2.842352866945126
 30
0.0
 11
4.667933152620987
 21
2.842352866945126
 31
0.0
  0
LINE
  5
1F6
330
6C
100
AcDbEntity
  8
Visible (ANSI)
100
AcDbLine
 10
4.635426016858798
 20
2.842352866945126
 30
0.0
 11
4.57283292413328
 21
2.842352866945126
 31
0.0
  0
LINE
  5
1F7
330
6C
100
AcDbEntity
  8
Visible (ANSI)
100
AcDbLine
 10
4.54032583292177
 20
2.842352866945126
 30
0.0
 11
4.496703390137018
 21
2.842352866945126
 31
0.0
  0
SPLINE
  5
1F8
330
6C
100
AcDbEntity
  8
Visible (ANSI)
100
AcDbSpline
210
0.0
220
0.0
230
1.0
 70
     8
 71
     3
 72
     8
 73
     4
 74
     0
 42
0.0000000001
 43
0.0000000001
 40
0.02390783070388
 40
0.02390783070388
 40
0.02390783070388
 40
0.02390783070388
 40
0.1154100789608406
 40
0.1154100789608406
 40
0.1154100789608406
 40
0.1154100789608406
 10
5.000765843783571
 20
2.672352866945126
 30
0.0
 10
4.996319667488684
 20
2.661218086933881
 30
0.0
 10
4.991975299055822
 20
2.650021499626807
 30
0.0
 10
4.987673606439179
 20
2.638813557329391
 30
0.0
  0
SPLINE
  5
1F9
330
6C
100
AcDbEntity
  8
Visible (ANSI)
100
AcDbSpline
210
0.0
220
0.0
230
1.0
 70
     8
 71
     3
 72
     8
 73
     4
 74
     0
 42
0.0000000001
 43
0.0000000001
 40
0.0239037828324864
 40
0.0239037828324864
 40
0.0239037828324864
 40
0.0239037828324864
 40
0.1154113711087121
 40
0.1154113711087121
 40
0.1154113711087121
 40
0.1154113711087121
 10
4.905665695894451
 20
2.672352866945126
 30
0.0
 10
4.901219281751778
 20
2.66121735942675
 30
0.0
 10
4.896874730100357
 20
2.650020088460403
 30
0.0
 10
4.892572849329853
 20
2.638811457372737
 30
0.0
  0
SPLINE
  5
1FA
330
6C
100
AcDbEntity
  8
Visible (ANSI)
100
AcDbSpline
210
0.0
220
0.0
230
1.0
 70
     8
 71
     3
 72
     8
 73
     4
 74
     0
 42
0.0000000001
 43
0.0000000001
 40
0.0
 40
0.0
 40
0.0
 40
0.0
 40
0.1151604468690034
 40
0.1151604468690034
 40
0.1151604468690034
 40
0.1151604468690034
 10
4.845033855743225
 20
2.875948024102322
 30
0.0
 10
4.850443050337539
 20
2.861847875845989
 30
0.0
 10
4.855913987656922
 20
2.847768002823036
 30
0.0
 10
4.86156978739889
 20
2.833796844543938
 30
0.0
  0
SPLINE
  5
1FB
330
6C
100
AcDbEntity
  8
Visible (ANSI)
100
AcDbSpline
210
0.0
220
0.0
230
1.0
 70
     8
 71
     3
 72
     8
 73
     4
 74
     0
 42
0.0000000001
 43
0.0000000001
 40
0.0
 40
0.0
 40
0.0
 40
0.0
 40
0.1151638660955918
 40
0.1151638660955918
 40
0.1151638660955918
 40
0.1151638660955918
 10
4.94013439125848
 20
2.875946742863254
 30
0.0
 10
4.94554376886943
 20
2.861846269873117
 30
0.0
 10
4.951014988279772
 20
2.847765840806092
 30
0.0
 10
4.95667102781314
 20
2.833794309135498
 30
0.0
  0
SPLINE
  5
1FC
330
6C
100
AcDbEntity
  8
Visible (ANSI)
100
AcDbSpline
210
0.0
220
0.0
230
1.0
 70
     8
 71
     3
 72
     8
 73
     4
 74
     0
 42
0.0000000001
 43
0.0000000001
 40
0.0
 40
0.0
 40
0.0
 40
0.0
 40
0.1151701133190488
 40
0.1151701133190488
 40
0.1151701133190488
 40
0.1151701133190488
 10
5.035233030288259
 20
2.875950397717846
 30
0.0
 10
5.040642606199003
 20
2.861848973257461
 30
0.0
 10
5.046114083524603
 20
2.847767580283231
 30
0.0
 10
5.051770481685371
 20
2.833795119060597
 30
0.0
  0
SPLINE
  5
1FD
330
6C
100
AcDbEntity
  8
Visible (ANSI)
100
AcDbSpline
210
0.0
220
0.0
230
1.0
 70
     8
 71
     3
 72
     8
 73
     4
 74
     0
 42
0.0000000001
 43
0.0000000001
 40
0.0
 40
0.0
 40
0.0
 40
0.0
 40
0.1151761340231887
 40
0.1151761340231887
 40
0.1151761340231887
 40
0.1151761340231887
 10
5.13033168755076
 20
2.875953974764419
 30
0.0
 10
5.135741453178965
 20
2.86185163042643
 30
0.0
 10
5.141213179379868
 20
2.847769305386619
 30
0.0
 10
5.146869925063149
 20
2.833795947042416
 30
0.0
  0
SPLINE
  5
1FE
330
6C
100
AcDbEntity
  8
Visible (ANSI)
100
AcDbSpline
210
0.0
220
0.0
230
1.0
 70
     8
 71
     3
 72
     8
 73
     4
 74
     0
 42
0.0000000001
 43
0.0000000001
 40
0.0239118024276258
 40
0.0239118024276258
 40
0.0239118024276258
 40
0.0239118024276258
 40
0.1154087825477028
 40
0.1154087825477028
 40
0.1154087825477028
 40
0.1154087825477028
 10
5.095865998280497
 20
2.672352866945126
 30
0.0
 10
5.091420058437308
 20
2.661218806376816
 30
0.0
 10
5.087075871248875
 20
2.650022894474083
 30
0.0
 10
5.082774364432323
 20
2.638815632470688
 30
0.0
  0
LINE
  5
1FF
330
6C
100
AcDbEntity
  8
Visible (ANSI)
100
AcDbLine
 10
5.475992712018319
 20
2.757352866945126
 30
0.0
 11
5.459335486044206
 21
2.752418771822961
 31
0.0
  0
LINE
  5
200
330
6C
100
AcDbEntity
  8
Visible (ANSI)
100
AcDbLine
 10
5.45704247550679
 20
2.751739551157689
 30
0.0
 11
5.375196192756896
 21
2.727495577694691
 31
0.0
  0
LINE
  5
201
330
6C
100
AcDbEntity
  8
Visible (ANSI)
100
AcDbLine
 10
5.475992712018319
 20
2.757352866945126
 30
0.0
 11
5.42624044276615
 21
2.772090160502603
 31
0.0
  0
LINE
  5
202
330
6C
100
AcDbEntity
  8
Visible (ANSI)
100
AcDbLine
 10
5.351045605730978
 20
2.720341847906359
 30
0.0
 11
5.280853581460085
 21
2.699550023078618
 31
0.0
  0
LINE
  5
203
330
6C
100
AcDbEntity
  8
Visible (ANSI)
100
AcDbLine
 10
5.404888791356327
 20
2.778414807789918
 30
0.0
 11
5.333385380371668
 21
2.799595083059391
 31
0.0
  0
LINE
  5
204
330
6C
100
AcDbEntity
  8
Visible (ANSI)
100
AcDbLine
 10
5.254176858703034
 20
2.691648017796618
 30
0.0
 11
5.189037521098019
 21
2.672352866945124
 31
0.0
  0
LINE
  5
205
330
6C
100
AcDbEntity
  8
Visible (ANSI)
100
AcDbLine
 10
5.305709292350204
 20
2.807793113819106
 30
0.0
 11
5.237240657810421
 21
2.828074447351414
 31
0.0
  0
LINE
  5
206
330
6C
100
AcDbEntity
  8
Visible (ANSI)
100
AcDbLine
 10
5.210013549381668
 20
2.836139484296805
 30
0.0
 11
5.189037521098019
 21
2.842352866945128
 31
0.0
  0
SPLINE
  5
207
330
6C
100
AcDbEntity
  8
Visible (ANSI)
100
AcDbSpline
210
0.0
220
0.0
230
1.0
 70
     8
 71
     3
 72
    10
 73
     6
 74
     0
 42
0.0000000001
 43
0.0000000001
 40
0.0
 40
0.0
 40
0.0
 40
0.0
 40
0.0264321185921292
 40
0.0264321185921292
 40
0.0540375932943295
 40
0.0540375932943295
 40
0.0540375932943295
 40
0.0540375932943295
 10
5.423336790713337
 20
2.777199582626637
 30
0.0
 10
5.424896013374548
 20
2.774309727059184
 30
0.0
 10
5.426520944343219
 20
2.771515170850709
 30
0.0
 10
5.429996553060751
 20
2.766274353905936
 30
0.0
 10
5.431881687629523
 20
2.763814247908198
 30
0.0
 10
5.433843630843253
 20
2.76186586449859
 30
0.0
  0
SPLINE
  5
208
330
6C
100
AcDbEntity
  8
Visible (ANSI)
100
AcDbSpline
210
0.0
220
0.0
230
1.0
 70
     8
 71
     3
 72
    10
 73
     6
 74
     0
 42
0.0000000001
 43
0.0000000001
 40
0.0412853406039969
 40
0.0412853406039969
 40
0.0412853406039969
 40
0.0412853406039969
 40
0.0509617432908341
 40
0.0509617432908341
 40
0.0596196900316835
 40
0.0596196900316835
 40
0.0596196900316835
 40
0.0596196900316835
 10
5.394631645666048
 20
2.781453112763171
 30
0.0
 10
5.395229797315915
 20
2.782458985746537
 30
0.0
 10
5.395821163467076
 20
2.783477566081872
 30
0.0
 10
5.396928753829342
 20
2.7854246089479
 30
0.0
 10
5.397447612234042
 20
2.78635393152443
 30
0.0
 10
5.397962383181829
 20
2.787291549943576
 30
0.0
  0
SPLINE
  5
209
330
6C
100
AcDbEntity
  8
Visible (ANSI)
100
AcDbSpline
210
0.0
220
0.0
230
1.0
 70
     8
 71
     3
 72
     8
 73
     4
 74
     0
 42
0.0000000001
 43
0.0000000001
 40
0.0
 40
0.0
 40
0.0
 40
0.0
 40
0.0646856826655221
 40
0.0646856826655221
 40
0.0646856826655221
 40
0.0646856826655221
 10
5.163589053802525
 20
2.651028249728537
 30
0.0
 10
5.160490728708941
 20
2.658921942677775
 30
0.0
 10
5.157357849985473
 20
2.6668000139852
 30
0.0
 10
5.154166297420898
 20
2.67464025410383
 30
0.0
  0
SPLINE
  5
20A
330
6C
100
AcDbEntity
  8
Visible (ANSI)
100
AcDbSpline
210
0.0
220
0.0
230
1.0
 70
     8
 71
     3
 72
     8
 73
     4
 74
     0
 42
0.0000000001
 43
0.0000000001
 40
0.0262839747663327
 40
0.0262839747663327
 40
0.0262839747663327
 40
0.0262839747663327
 40
0.084163132357585
 40
0.084163132357585
 40
0.084163132357585
 40
0.084163132357585
 10
5.206051160935408
 20
2.837313197226869
 30
0.0
 10
5.208921096776998
 20
2.8443203133146
 30
0.0
 10
5.211738863763957
 20
2.851363804180332
 30
0.0
 10
5.214526158468271
 20
2.858419297150607
 30
0.0
  0
SPLINE
  5
20B
330
6C
100
AcDbEntity
  8
Visible (ANSI)
100
AcDbSpline
210
0.0
220
0.0
230
1.0
 70
     8
 71
     3
 72
     8
 73
     4
 74
     0
 42
0.0000000001
 43
0.0000000001
 40
0.0327687165445401
 40
0.0327687165445401
 40
0.0327687165445401
 40
0.0327687165445401
 40
0.0814658335515942
 40
0.0814658335515942
 40
0.0814658335515942
 40
0.0814658335515942
 10
5.300181026468374
 20
2.809430660777042
 30
0.0
 10
5.302765339915765
 20
2.815183628297647
 30
0.0
 10
5.30527594975867
 20
2.821024080730909
 30
0.0
 10
5.307739148395853
 20
2.826883484676174
 30
0.0
  0
SPLINE
  5
20C
330
6C
100
AcDbEntity
  8
Visible (ANSI)
100
AcDbSpline
210
0.0
220
0.0
230
1.0
 70
     8
 71
     3
 72
     8
 73
     4
 74
     0
 42
0.0000000001
 43
0.0000000001
 40
0.0235829170998261
 40
0.0235829170998261
 40
0.0235829170998261
 40
0.0235829170998261
 40
0.1150716608561451
 40
0.1150716608561451
 40
0.1150716608561451
 40
0.1150716608561451
 10
5.107498456350626
 20
2.842352866945126
 30
0.0
 10
5.111936209757049
 20
2.853480597030437
 30
0.0
 10
5.116274986073611
 20
2.864666442808593
 30
0.0
 10
5.120575249441614
 20
2.875868415351877
 30
0.0
  0
SPLINE
  5
20D
330
6C
100
AcDbEntity
  8
Visible (ANSI)
100
AcDbSpline
210
0.0
220
0.0
230
1.0
 70
     8
 71
     3
 72
     8
 73
     4
 74
     0
 42
0.0000000001
 43
0.0000000001
 40
0.0
 40
0.0
 40
0.0
 40
0.0
 40
0.115431465887248
 40
0.115431465887248
 40
0.115431465887248
 40
0.115431465887248
 10
5.073079360567459
 20
2.638759930377698
 30
0.0
 10
5.067654809322614
 20
2.652899844054534
 30
0.0
 10
5.062162889226455
 20
2.667021462767558
 30
0.0
 10
5.05648266888788
 20
2.681026384824367
 30
0.0
  0
SPLINE
  5
20E
330
6C
100
AcDbEntity
  8
Visible (ANSI)
100
AcDbSpline
210
0.0
220
0.0
230
1.0
 70
     8
 71
     3
 72
     8
 73
     4
 74
     0
 42
0.0000000001
 43
0.0000000001
 40
0.0
 40
0.0
 40
0.0
 40
0.0
 40
0.1154305918618511
 40
0.1154305918618511
 40
0.1154305918618511
 40
0.1154305918618511
 10
4.882878111994487
 20
2.638764210599936
 30
0.0
 10
4.877453428512956
 20
2.652903958625557
 30
0.0
 10
4.871961321940827
 20
2.667025435388124
 30
0.0
 10
4.866281020006427
 20
2.681030014018213
 30
0.0
  0
SPLINE
  5
20F
330
6C
100
AcDbEntity
  8
Visible (ANSI)
100
AcDbSpline
210
0.0
220
0.0
230
1.0
 70
     8
 71
     3
 72
     8
 73
     4
 74
     0
 42
0.0000000001
 43
0.0000000001
 40
0.0
 40
0.0
 40
0.0
 40
0.0
 40
0.1154310141025422
 40
0.1154310141025422
 40
0.1154310141025422
 40
0.1154310141025422
 10
4.977978734464671
 20
2.638762066388265
 30
0.0
 10
4.972554117918722
 20
2.652901895601284
 30
0.0
 10
4.967062105298241
 20
2.667023441671336
 30
0.0
 10
4.961381844869899
 20
2.681028190544664
 30
0.0
  0
SPLINE
  5
210
330
6C
100
AcDbEntity
  8
Visible (ANSI)
100
AcDbSpline
210
0.0
220
0.0
230
1.0
 70
     8
 71
     3
 72
     8
 73
     4
 74
     0
 42
0.0000000001
 43
0.0000000001
 40
0.0235719335288062
 40
0.0235719335288062
 40
0.0235719335288062
 40
0.0235719335288062
 40
0.1150739367046807
 40
0.1150739367046807
 40
0.1150739367046807
 40
0.1150739367046807
 10
4.917298604902273
 20
2.842352866945126
 30
0.0
 10
4.921736899675507
 20
2.85348246187741
 30
0.0
 10
4.926075984573661
 20
2.864669939599292
 30
0.0
 10
4.930376670748774
 20
2.875873493569355
 30
0.0
  0
SPLINE
  5
211
330
6C
100
AcDbEntity
  8
Visible (ANSI)
100
AcDbSpline
210
0.0
220
0.0
230
1.0
 70
     8
 71
     3
 72
     8
 73
     4
 74
     0
 42
0.0000000001
 43
0.0000000001
 40
0.0235773614956528
 40
0.0235773614956528
 40
0.0235773614956528
 40
0.0235773614956528
 40
0.1150726811103757
 40
0.1150726811103757
 40
0.1150726811103757
 40
0.1150726811103757
 10
5.012398527434238
 20
2.842352866945126
 30
0.0
 10
5.016836547390938
 20
2.853481521172578
 30
0.0
 10
5.021175473267067
 20
2.864668170296792
 30
0.0
 10
5.025475946332129
 20
2.875870926448388
 30
0.0
  0
SPLINE
  5
212
330
6C
100
AcDbEntity
  8
Visible (ANSI)
100
AcDbSpline
210
0.0
220
0.0
230
1.0
 70
     8
 71
     3
 72
     8
 73
     4
 74
     0
 42
0.0000000001
 43
0.0000000001
 40
0.0305278532775302
 40
0.0305278532775302
 40
0.0305278532775302
 40
0.0305278532775302
 40
0.1033844750961873
 40
0.1033844750961873
 40
0.1033844750961873
 40
0.1033844750961873
 10
4.524735819267098
 20
2.672353955620105
 30
0.0
 10
4.52104946472867
 20
2.66359282299436
 30
0.0
 10
4.517444088429702
 20
2.654757773142472
 30
0.0
 10
4.51388992673026
 20
2.645902304744922
 30
0.0
  0
SPLINE
  5
213
330
6C
100
AcDbEntity
  8
Visible (ANSI)
100
AcDbSpline
210
0.0
220
0.0
230
1.0
 70
     8
 71
     3
 72
     8
 73
     4
 74
     0
 42
0.0000000001
 43
0.0000000001
 40
0.0
 40
0.0
 40
0.0
 40
0.0
 40
0.1152138989316525
 40
0.1152138989316525
 40
0.1152138989316525
 40
0.1152138989316525
 10
4.559767896271695
 20
2.875809744551181
 30
0.0
 10
4.565186685447954
 20
2.861701055745318
 30
0.0
 10
4.570672724209771
 20
2.847610727865721
 30
0.0
 10
4.576335565060151
 20
2.833646218361113
 30
0.0
  0
SPLINE
  5
214
330
6C
100
AcDbEntity
  8
Visible (ANSI)
100
AcDbSpline
210
0.0
220
0.0
230
1.0
 70
     8
 71
     3
 72
     8
 73
     4
 74
     0
 42
0.0000000001
 43
0.0000000001
 40
0.0
 40
0.0
 40
0.0
 40
0.0
 40
0.1152092833833185
 40
0.1152092833833185
 40
0.1152092833833185
 40
0.1152092833833185
 10
4.654868154054095
 20
2.87580996094422
 30
0.0
 10
4.660286696707525
 20
2.861701888228249
 30
0.0
 10
4.665772456033288
 20
2.847612190976201
 30
0.0
 10
4.671434839747357
 20
2.833648370935573
 30
0.0
  0
SPLINE
  5
215
330
6C
100
AcDbEntity
  8
Visible (ANSI)
100
AcDbSpline
210
0.0
220
0.0
230
1.0
 70
     8
 71
     3
 72
     8
 73
     4
 74
     0
 42
0.0000000001
 43
0.0000000001
 40
0.0
 40
0.0
 40
0.0
 40
0.0
 40
0.1152046131234422
 40
0.1152046131234422
 40
0.1152046131234422
 40
0.1152046131234422
 10
4.749968390141009
 20
2.875810246293693
 30
0.0
 10
4.755386680990112
 20
2.861702795208818
 30
0.0
 10
4.76087215503789
 20
2.847613734016425
 30
0.0
 10
4.766534075353123
 20
2.833650606769
 30
0.0
  0
SPLINE
  5
216
330
6C
100
AcDbEntity
  8
Visible (ANSI)
100
AcDbSpline
210
0.0
220
0.0
230
1.0
 70
     8
 71
     3
 72
     8
 73
     4
 74
     0
 42
0.0000000001
 43
0.0000000001
 40
0.0235804156322973
 40
0.0235804156322973
 40
0.0235804156322973
 40
0.0235804156322973
 40
0.1154175939552357
 40
0.1154175939552357
 40
0.1154175939552357
 40
0.1154175939552357
 10
4.810566457253664
 20
2.672352866945126
 30
0.0
 10
4.806107786444314
 20
2.661174219249412
 30
0.0
 10
4.801752921900829
 20
2.649936233698626
 30
0.0
 10
4.797439734118115
 20
2.638686274229897
 30
0.0
  0
SPLINE
  5
217
330
6C
100
AcDbEntity
  8
Visible (ANSI)
100
AcDbSpline
210
0.0
220
0.0
230
1.0
 70
     8
 71
     3
 72
     8
 73
     4
 74
     0
 42
0.0000000001
 43
0.0000000001
 40
0.0235760558120756
 40
0.0235760558120756
 40
0.0235760558120756
 40
0.0235760558120756
 40
0.1154163571152957
 40
0.1154163571152957
 40
0.1154163571152957
 40
0.1154163571152957
 10
4.715466635152072
 20
2.672352866945126
 30
0.0
 10
4.711007888744698
 20
2.661173835729008
 30
0.0
 10
4.706652948594276
 20
2.649935495329096
 30
0.0
 10
4.702339660481094
 20
2.638685169430612
 30
0.0
  0
SPLINE
  5
218
330
6C
100
AcDbEntity
  8
Visible (ANSI)
100
AcDbSpline
210
0.0
220
0.0
230
1.0
 70
     8
 71
     3
 72
     8
 73
     4
 74
     0
 42
0.0000000001
 43
0.0000000001
 40
0.0235717319466058
 40
0.0235717319466058
 40
0.0235717319466058
 40
0.0235717319466058
 40
0.1154151094792816
 40
0.1154151094792816
 40
0.1154151094792816
 40
0.1154151094792816
 10
4.620366805012717
 20
2.672352866945126
 30
0.0
 10
4.615907985165544
 20
2.661173458076109
 30
0.0
 10
4.611552971375926
 20
2.649934768974453
 30
0.0
 10
4.607239584666049
 20
2.638684082894804
 30
0.0
  0
SPLINE
  5
219
330
6C
100
AcDbEntity
  8
Visible (ANSI)
100
AcDbSpline
210
0.0
220
0.0
230
1.0
 70
     8
 71
     3
 72
     8
 73
     4
 74
     0
 42
0.0000000001
 43
0.0000000001
 40
0.0234813834036984
 40
0.0234813834036984
 40
0.0234813834036984
 40
0.0234813834036984
 40
0.1153636787187006
 40
0.1153636787187006
 40
0.1153636787187006
 40
0.1153636787187006
 10
4.536913050143664
 20
2.842352866945126
 30
0.0
 10
4.54137182176291
 20
2.853536510562214
 30
0.0
 10
4.545727134267779
 20
2.864778736751656
 30
0.0
 10
4.550041568613577
 20
2.876033255897736
 30
0.0
  0
SPLINE
  5
21A
330
6C
100
AcDbEntity
  8
Visible (ANSI)
100
AcDbSpline
210
0.0
220
0.0
230
1.0
 70
     8
 71
     3
 72
     8
 73
     4
 74
     0
 42
0.0000000001
 43
0.0000000001
 40
0.023479411928949
 40
0.023479411928949
 40
0.023479411928949
 40
0.023479411928949
 40
0.1153612451612756
 40
0.1153612451612756
 40
0.1153612451612756
 40
0.1153612451612756
 10
4.632012796407561
 20
2.842352866945126
 30
0.0
 10
4.636471478241152
 20
2.853536410598985
 30
0.0
 10
4.640826727974454
 20
2.864778513222985
 30
0.0
 10
4.645141131150288
 20
2.87603291912368
 30
0.0
  0
SPLINE
  5
21B
330
6C
100
AcDbEntity
  8
Visible (ANSI)
100
AcDbSpline
210
0.0
220
0.0
230
1.0
 70
     8
 71
     3
 72
     8
 73
     4
 74
     0
 42
0.0000000001
 43
0.0000000001
 40
0.0234771566387977
 40
0.0234771566387977
 40
0.0234771566387977
 40
0.0234771566387977
 40
0.1153584718795843
 40
0.1153584718795843
 40
0.1153584718795843
 40
0.1153584718795843
 10
4.727112551454667
 20
2.842352866945126
 30
0.0
 10
4.73157114050111
 20
2.853536302574904
 30
0.0
 10
4.735926324777272
 20
2.86477827294653
 30
0.0
 10
4.740240694487047
 20
2.876032557231076
 30
0.0
  0
SPLINE
  5
21C
330
6C
100
AcDbEntity
  8
Visible (ANSI)
100
AcDbSpline
210
0.0
220
0.0
230
1.0
 70
     8
 71
     3
 72
     8
 73
     4
 74
     0
 42
0.0000000001
 43
0.0000000001
 40
0.0234685513922594
 40
0.0234685513922594
 40
0.0234685513922594
 40
0.0234685513922594
 40
0.1153534091046356
 40
0.1153534091046356
 40
0.1153534091046356
 40
0.1153534091046356
 10
4.822213036734035
 20
2.842352866945126
 30
0.0
 10
4.826671796526913
 20
2.853536799775735
 30
0.0
 10
4.831027113625872
 20
2.864779234948027
 30
0.0
 10
4.835341610817923
 20
2.876033987403257
 30
0.0
  0
SPLINE
  5
21D
330
6C
100
AcDbEntity
  8
Visible (ANSI)
100
AcDbSpline
210
0.0
220
0.0
230
1.0
 70
     8
 71
     3
 72
     8
 73
     4
 74
     0
 42
0.0000000001
 43
0.0000000001
 40
0.0
 40
0.0
 40
0.0
 40
0.0
 40
0.1153140507522453
 40
0.1153140507522453
 40
0.1153140507522453
 40
0.1153140507522453
 10
4.597529266283252
 20
2.638885946375398
 30
0.0
 10
4.592105695756855
 20
2.653008281407543
 30
0.0
 10
4.586614248304989
 20
2.667112538785922
 30
0.0
 10
4.580941685872144
 20
2.681092956960399
 30
0.0
  0
SPLINE
  5
21E
330
6C
100
AcDbEntity
  8
Visible (ANSI)
100
AcDbSpline
210
0.0
220
0.0
230
1.0
 70
     8
 71
     3
 72
     8
 73
     4
 74
     0
 42
0.0000000001
 43
0.0000000001
 40
0.0
 40
0.0
 40
0.0
 40
0.0
 40
0.1153171248423975
 40
0.1153171248423975
 40
0.1153171248423975
 40
0.1153171248423975
 10
4.692629871847628
 20
2.638884993915765
 30
0.0
 10
4.687206179730504
 20
2.653007759100299
 30
0.0
 10
4.681714595986388
 20
2.66711245358913
 30
0.0
 10
4.676041748282733
 20
2.681093398259234
 30
0.0
  0
SPLINE
  5
21F
330
6C
100
AcDbEntity
  8
Visible (ANSI)
100
AcDbSpline
210
0.0
220
0.0
230
1.0
 70
     8
 71
     3
 72
     8
 73
     4
 74
     0
 42
0.0000000001
 43
0.0000000001
 40
0.0
 40
0.0
 40
0.0
 40
0.0
 40
0.1153201787536254
 40
0.1153201787536254
 40
0.1153201787536254
 40
0.1153201787536254
 10
4.787730490530268
 20
2.638883984498498
 30
0.0
 10
4.782306680294534
 20
2.653007177589316
 30
0.0
 10
4.776814964490093
 20
2.667112306571289
 30
0.0
 10
4.771141836680125
 20
2.681093776216885
 30
0.0
  0
ARC
  5
220
330
6C
100
AcDbEntity
  8
Visible (ANSI)
100
AcDbCircle
 10
4.496703390137018
 20
2.892352866945103
 30
0.0
 40
0.0500000000000004
100
AcDbArc
 50
231.0576528922889
 51
270.0
  0
SPLINE
  5
221
330
6C
100
AcDbEntity
  8
Visible (ANSI)
100
AcDbSpline
210
0.0
220
0.0
230
1.0
 70
     8
 71
     3
 72
     8
 73
     4
 74
     0
 42
0.0000000001
 43
0.0000000001
 40
0.0218951008109176
 40
0.0218951008109176
 40
0.0218951008109176
 40
0.0218951008109176
 40
0.1071898651250572
 40
0.1071898651250572
 40
0.1071898651250572
 40
0.1071898651250572
 10
5.189539224512483
 20
2.672501478266957
 30
0.0
 10
5.185452969968912
 20
2.662091992830144
 30
0.0
 10
5.181443467868664
 20
2.651641522391768
 30
0.0
 10
5.177465468387241
 20
2.641181269432165
 30
0.0
  0
SPLINE
  5
222
330
6C
100
AcDbEntity
  8
Visible (ANSI)
100
AcDbSpline
210
0.0
220
0.0
230
1.0
 70
     8
 71
     3
 72
     8
 73
     4
 74
     0
 42
0.0000000001
 43
0.0000000001
 40
0.0
 40
0.0
 40
0.0
 40
0.0
 40
0.1062171753596624
 40
0.1062171753596624
 40
0.1062171753596624
 40
0.1062171753596624
 10
5.225610434468985
 20
2.857707357960014
 30
0.0
 10
5.230618539849547
 20
2.844705385661761
 30
0.0
 10
5.235696115478911
 20
2.83171930414723
 30
0.0
 10
5.240984629209421
 20
2.818878332711443
 30
0.0
  0
SPLINE
  5
223
330
6C
100
AcDbEntity
  8
Visible (ANSI)
100
AcDbSpline
210
0.0
220
0.0
230
1.0
 70
     8
 71
     3
 72
     8
 73
     4
 74
     0
 42
0.0000000001
 43
0.0000000001
 40
0.0296199578010054
 40
0.0296199578010054
 40
0.0296199578010054
 40
0.0296199578010054
 40
0.1058763984910099
 40
0.1058763984910099
 40
0.1058763984910099
 40
0.1058763984910099
 10
5.285143991703887
 20
2.700820900491755
 30
0.0
 10
5.281295400420508
 20
2.691637271182612
 30
0.0
 10
5.277587306268621
 20
2.682333467982866
 30
0.0
 10
5.273933469682638
 20
2.673027526908853
 30
0.0
  0
SPLINE
  5
224
330
6C
100
AcDbEntity
  8
Visible (ANSI)
100
AcDbSpline
210
0.0
220
0.0
230
1.0
 70
     8
 71
     3
 72
     8
 73
     4
 74
     0
 42
0.0000000001
 43
0.0000000001
 40
0.0
 40
0.0
 40
0.0
 40
0.0
 40
0.1063185490902341
 40
0.1063185490902341
 40
0.1063185490902341
 40
0.1063185490902341
 10
5.322522934913573
 20
2.825364165258391
 30
0.0
 10
5.327745702713606
 20
2.812463005911221
 30
0.0
 10
5.33313929111244
 20
2.799512790048642
 30
0.0
 10
5.339104150747642
 20
2.787378057519684
 30
0.0
  0
SPLINE
  5
225
330
6C
100
AcDbEntity
  8
Visible (ANSI)
100
AcDbSpline
210
0.0
220
0.0
230
1.0
 70
     8
 71
     3
 72
    10
 73
     6
 74
     0
 42
0.0000000001
 43
0.0000000001
 40
0.0180848427173783
 40
0.0180848427173783
 40
0.0180848427173783
 40
0.0180848427173783
 40
0.0653651491311302
 40
0.0653651491311302
 40
0.0851851318732417
 40
0.0851851318732417
 40
0.0851851318732417
 40
0.0851851318732417
 10
5.382314243688249
 20
2.729604040438384
 30
0.0
 10
5.379610383004047
 20
2.72425230026841
 30
0.0
 10
5.377045485862024
 20
2.718660580977916
 30
0.0
 10
5.373529164620417
 20
2.710687967784056
 30
0.0
 10
5.372504640313958
 20
2.708319528174786
 30
0.0
 10
5.371491480327859
 20
2.705942584663499
 30
0.0
  0
LINE
  5
226
330
6C
100
AcDbEntity
  8
Visible (ANSI)
100
AcDbLine
 10
3.975992712018319
 20
2.497352866945126
 30
0.0
 11
3.925992712018319
 21
2.497352866945126
 31
0.0
  0
LINE
  5
227
330
6C
100
AcDbEntity
  8
Visible (ANSI)
100
AcDbLine
 10
3.975992712018319
 20
3.017352866945126
 30
0.0
 11
3.925992712018319
 21
3.017352866945126
 31
0.0
  0
LINE
  5
228
330
6C
100
AcDbEntity
  8
Visible (ANSI)
100
AcDbLine
 10
3.735992712018499
 20
2.942352866944946
 30
0.0
 11
3.737188173832351
 21
2.943548328758827
 31
0.0
  0
LINE
  5
229
330
6C
100
AcDbEntity
  8
Visible (ANSI)
100
AcDbLine
 10
3.735992712018499
 20
2.572352866945306
 30
0.0
 11
3.73718817383235
 21
2.571157405131426
 31
0.0
  0
CIRCLE
  5
22A
330
6C
100
AcDbEntity
  8
Visible (ANSI)
100
AcDbCircle
 10
2.096078394304551
 20
2.757352866945298
 30
0.0
 40
0.26
  0
SPLINE
  5
22B
330
6C
100
AcDbEntity
  8
Visible (ANSI)
100
AcDbSpline
210
0.0
220
0.0
230
1.0
 70
    28
 71
     2
 72
     6
 73
     3
 74
     0
 42
0.0000000001
 43
0.0000000001
 40
-1.584676090358953
 40
-1.584676090358953
 40
-1.584676090358953
 40
-0.624379114335818
 40
-0.624379114335818
 40
-0.624379114335818
 10
2.311078394304619
 20
2.757352866945284
 30
0.0
 41
1.49694001483434
 10
2.257328394304552
 20
2.850450597852213
 30
0.0
 41
1.728517441050975
 10
2.203578394304501
 20
2.943548328759115
 30
0.0
 41
1.496940014834341
  0
SPLINE
  5
22C
330
6C
100
AcDbEntity
  8
Visible (ANSI)
100
AcDbSpline
210
0.0
220
0.0
230
1.0
 70
    28
 71
     2
 72
     6
 73
     3
 74
     0
 42
0.0000000001
 43
0.0000000001
 40
-1.58467609035928
 40
-1.58467609035928
 40
-1.58467609035928
 40
-0.6243791143356931
 40
-0.6243791143356931
 40
-0.6243791143356931
 10
2.203578394304478
 20
2.571157405131587
 30
0.0
 41
1.496940014834525
 10
2.257328394304527
 20
2.664255136038554
 30
0.0
 41
1.72851744105143
 10
2.311078394304594
 20
2.757352866945497
 30
0.0
 41
1.4969400148345
  0
SPLINE
  5
22D
330
6C
100
AcDbEntity
  8
Visible (ANSI)
100
AcDbSpline
210
0.0
220
0.0
230
1.0
 70
    28
 71
     2
 72
     6
 73
     3
 74
     0
 42
0.0000000001
 43
0.0000000001
 40
-1.584676090359332
 40
-1.584676090359332
 40
-1.584676090359332
 40
-0.6243791143357419
 40
-0.6243791143357419
 40
-0.6243791143357419
 10
1.988578394304382
 20
2.571157405131691
 30
0.0
 41
1.496940014834505
 10
2.096078394304515
 20
2.571157405131706
 30
0.0
 41
1.728517441051437
 10
2.203578394304661
 20
2.571157405131692
 30
0.0
 41
1.496940014834528
  0
SPLINE
  5
22E
330
6C
100
AcDbEntity
  8
Visible (ANSI)
100
AcDbSpline
210
0.0
220
0.0
230
1.0
 70
    28
 71
     2
 72
     6
 73
     3
 74
     0
 42
0.0000000001
 43
0.0000000001
 40
-1.584676090358953
 40
-1.584676090358953
 40
-1.584676090358953
 40
-0.6243791143358176
 40
-0.6243791143358176
 40
-0.6243791143358176
 10
1.881078394304435
 20
2.757352866945394
 30
0.0
 41
1.496940014834341
 10
1.934828394304485
 20
2.664255136038492
 30
0.0
 41
1.728517441050977
 10
1.988578394304552
 20
2.571157405131563
 30
0.0
 41
1.496940014834342
  0
SPLINE
  5
22F
330
6C
100
AcDbEntity
  8
Visible (ANSI)
100
AcDbSpline
210
0.0
220
0.0
230
1.0
 70
    28
 71
     2
 72
     6
 73
     3
 74
     0
 42
0.0000000001
 43
0.0000000001
 40
-1.584676090359287
 40
-1.584676090359287
 40
-1.584676090359287
 40
-0.6243791143356924
 40
-0.6243791143356924
 40
-0.6243791143356924
 10
1.988578394304576
 20
2.943548328759093
 30
0.0
 41
1.496940014834525
 10
1.934828394304511
 20
2.850450597852152
 30
0.0
 41
1.728517441051437
 10
1.88107839430446
 20
2.757352866945182
 30
0.0
 41
1.496940014834503
  0
SPLINE
  5
230
330
6C
100
AcDbEntity
  8
Visible (ANSI)
100
AcDbSpline
210
0.0
220
0.0
230
1.0
 70
    28
 71
     2
 72
     6
 73
     3
 74
     0
 42
0.0000000001
 43
0.0000000001
 40
-1.584676090359326
 40
-1.584676090359326
 40
-1.584676090359326
 40
-0.6243791143357429
 40
-0.6243791143357429
 40
-0.6243791143357429
 10
2.20357839430467
 20
2.943548328758988
 30
0.0
 41
1.496940014834507
 10
2.096078394304523
 20
2.943548328759
 30
0.0
 41
1.728517441051436
 10
1.988578394304393
 20
2.943548328758986
 30
0.0
 41
1.496940014834529
  0
CIRCLE
  5
231
330
6C
100
AcDbEntity
  8
Visible (ANSI)
100
AcDbCircle
 10
2.096078394304523
 20
2.757352866945347
 30
0.0
 40
0.185
  0
CIRCLE
  5
232
330
6C
100
AcDbEntity
  8
Visible (ANSI)
100
AcDbCircle
 10
2.096078394304523
 20
2.757352866945347
 30
0.0
 40
0.155
  0
LINE
  5
233
330
6C
100
AcDbEntity
  8
Visible (ANSI)
100
AcDbLine
 10
2.061578394304531
 20
2.769352866945336
 30
0.0
 11
2.082655000545865
 21
2.805858619806459
 31
0.0
  0
LINE
  5
234
330
6C
100
AcDbEntity
  8
Visible (ANSI)
100
AcDbLine
 10
2.057248267285604
 20
2.771852866945342
 30
0.0
 11
2.061578394304531
 21
2.769352866945336
 31
0.0
  0
LINE
  5
235
330
6C
100
AcDbEntity
  8
Visible (ANSI)
100
AcDbLine
 10
2.07688149785397
 20
2.805858619806462
 30
0.0
 11
2.057248267285604
 21
2.771852866945342
 31
0.0
  0
LINE
  5
236
330
6C
100
AcDbEntity
  8
Visible (ANSI)
100
AcDbLine
 10
2.026684491274989
 20
2.805858619806458
 30
0.0
 11
2.07688149785397
 21
2.805858619806462
 31
0.0
  0
LINE
  5
237
330
6C
100
AcDbEntity
  8
Visible (ANSI)
100
AcDbLine
 10
2.026684491274989
 20
2.810858619806456
 30
0.0
 11
2.026684491274989
 21
2.805858619806458
 31
0.0
  0
LINE
  5
238
330
6C
100
AcDbEntity
  8
Visible (ANSI)
100
AcDbLine
 10
2.079768249199914
 20
2.810858619806462
 30
0.0
 11
2.026684491274989
 21
2.810858619806456
 31
0.0
  0
LINE
  5
239
330
6C
100
AcDbEntity
  8
Visible (ANSI)
100
AcDbLine
 10
2.100841534025334
 20
2.847358619806462
 30
0.0
 11
2.079768249199914
 21
2.810858619806462
 31
0.0
  0
LINE
  5
23A
330
6C
100
AcDbEntity
  8
Visible (ANSI)
100
AcDbLine
 10
2.026684491275008
 20
2.847358619806419
 30
0.0
 11
2.100841534025334
 21
2.847358619806462
 31
0.0
  0
LINE
  5
23B
330
6C
100
AcDbEntity
  8
Visible (ANSI)
100
AcDbLine
 10
2.026684491274969
 20
2.852358619806487
 30
0.0
 11
2.026684491275008
 21
2.847358619806419
 31
0.0
  0
LINE
  5
23C
330
6C
100
AcDbEntity
  8
Visible (ANSI)
100
AcDbLine
 10
2.103728285371281
 20
2.852358619806464
 30
0.0
 11
2.026684491274969
 21
2.852358619806487
 31
0.0
  0
LINE
  5
23D
330
6C
100
AcDbEntity
  8
Visible (ANSI)
100
AcDbLine
 10
2.126248267285614
 20
2.891364372667563
 30
0.0
 11
2.103728285371281
 21
2.852358619806464
 31
0.0
  0
LINE
  5
23E
330
6C
100
AcDbEntity
  8
Visible (ANSI)
100
AcDbLine
 10
2.13057839430452
 20
2.888864372667591
 30
0.0
 11
2.126248267285614
 21
2.891364372667563
 31
0.0
  0
LINE
  5
23F
330
6C
100
AcDbEntity
  8
Visible (ANSI)
100
AcDbLine
 10
2.109501788063178
 20
2.852358619806463
 30
0.0
 11
2.13057839430452
 21
2.888864372667591
 31
0.0
  0
LINE
  5
240
330
6C
100
AcDbEntity
  8
Visible (ANSI)
100
AcDbLine
 10
2.16757124262095
 20
2.852358619806473
 30
0.0
 11
2.109501788063178
 21
2.852358619806463
 31
0.0
  0
LINE
  5
241
330
6C
100
AcDbEntity
  8
Visible (ANSI)
100
AcDbLine
 10
2.167571242620949
 20
2.847358619806475
 30
0.0
 11
2.16757124262095
 21
2.852358619806473
 31
0.0
  0
LINE
  5
242
330
6C
100
AcDbEntity
  8
Visible (ANSI)
100
AcDbLine
 10
2.106615036717231
 20
2.847358619806461
 30
0.0
 11
2.167571242620949
 21
2.847358619806475
 31
0.0
  0
LINE
  5
243
330
6C
100
AcDbEntity
  8
Visible (ANSI)
100
AcDbLine
 10
2.085541751891812
 20
2.810858619806461
 30
0.0
 11
2.106615036717231
 21
2.847358619806461
 31
0.0
  0
LINE
  5
244
330
6C
100
AcDbEntity
  8
Visible (ANSI)
100
AcDbLine
 10
2.167571242620942
 20
2.810858619806472
 30
0.0
 11
2.085541751891812
 21
2.810858619806461
 31
0.0
  0
LINE
  5
245
330
6C
100
AcDbEntity
  8
Visible (ANSI)
100
AcDbLine
 10
2.167571242620943
 20
2.805858619806471
 30
0.0
 11
2.167571242620942
 21
2.810858619806472
 31
0.0
  0
LINE
  5
246
330
6C
100
AcDbEntity
  8
Visible (ANSI)
100
AcDbLine
 10
2.082655000545865
 20
2.805858619806459
 30
0.0
 11
2.167571242620943
 21
2.805858619806471
 31
0.0
  0
ELLIPSE
  5
247
330
6C
100
AcDbEntity
  8
Visible (ANSI)
100
AcDbEllipse
 10
2.646547623457851
 20
2.977297981331081
 30
0.0
 11
0.6370059820011181
 21
0.3076479165615833
 31
0.0
210
0.0
220
0.0
230
1.0
 40
0.2027378704992237
 41
3.048066516122982
 42
3.149417825427063
  0
LINE
  5
248
330
6C
100
AcDbEntity
  8
Visible (ANSI)
100
AcDbLine
 10
2.014617915988031
 20
2.683928582487175
 30
0.0
 11
2.00650070019765
 21
2.683055457887716
 31
0.0
  0
SPLINE
  5
249
330
6C
100
AcDbEntity
  8
Visible (ANSI)
100
AcDbSpline
210
0.0
220
0.0
230
1.0
 70
     8
 71
     3
 72
     8
 73
     4
 74
     0
 42
0.0000000001
 43
0.0000000001
 40
0.0
 40
0.0
 40
0.0
 40
0.0
 40
1.0
 40
1.0
 40
1.0
 40
1.0
 10
2.017279298455686
 20
2.674051365860027
 30
0.0
 10
2.015859894561556
 20
2.676616169033119
 30
0.0
 10
2.01497276714745
 20
2.679890384492938
 30
0.0
 10
2.014617915988031
 20
2.683928582487175
 30
0.0
  0
SPLINE
  5
24A
330
6C
100
AcDbEntity
  8
Visible (ANSI)
100
AcDbSpline
210
0.0
220
0.0
230
1.0
 70
     8
 71
     3
 72
     8
 73
     4
 74
     0
 42
0.0000000001
 43
0.0000000001
 40
0.0
 40
0.0
 40
0.0
 40
0.0
 40
1.0
 40
1.0
 40
1.0
 40
1.0
 10
2.023840509679977
 20
2.667820352956764
 30
0.0
 10
2.02087216440268
 20
2.669412894067849
 30
0.0
 10
2.018698701898979
 20
2.671486563501404
 30
0.0
 10
2.017279298455686
 20
2.674051365860027
 30
0.0
  0
SPLINE
  5
24B
330
6C
100
AcDbEntity
  8
Visible (ANSI)
100
AcDbSpline
210
0.0
220
0.0
230
1.0
 70
     8
 71
     3
 72
     8
 73
     4
 74
     0
 42
0.0000000001
 43
0.0000000001
 40
0.0
 40
0.0
 40
0.0
 40
0.0
 40
1.0
 40
1.0
 40
1.0
 40
1.0
 10
2.033824224454428
 20
2.66548383575446
 30
0.0
 10
2.030098290671824
 20
2.665483835754446
 30
0.0
 10
2.026771562626815
 20
2.666247819480967
 30
0.0
 10
2.023840509679977
 20
2.667820352956764
 30
0.0
  0
SPLINE
  5
24C
330
6C
100
AcDbEntity
  8
Visible (ANSI)
100
AcDbSpline
210
0.0
220
0.0
230
1.0
 70
     8
 71
     3
 72
     8
 73
     4
 74
     0
 42
0.0000000001
 43
0.0000000001
 40
0.0
 40
0.0
 40
0.0
 40
0.0
 40
1.0
 40
1.0
 40
1.0
 40
1.0
 10
2.042515163827651
 20
2.667293884908136
 30
0.0
 10
2.039989759836937
 20
2.666084108171531
 30
0.0
 10
2.037106595014455
 20
2.665483835754464
 30
0.0
 10
2.033824224454428
 20
2.66548383575446
 30
0.0
  0
ELLIPSE
  5
24D
330
6C
100
AcDbEntity
  8
Visible (ANSI)
100
AcDbEllipse
 10
1.464429809385265
 20
3.086983092708035
 30
0.0
 11
-0.5831767295607895
 21
0.4155520982262094
 31
0.0
210
0.0
220
0.0
230
1.0
 40
0.1265542359365624
 41
3.071754776370431
 42
3.151671955528293
  0
SPLINE
  5
24E
330
6C
100
AcDbEntity
  8
Visible (ANSI)
100
AcDbSpline
210
0.0
220
0.0
230
1.0
 70
     8
 71
     3
 72
     8
 73
     4
 74
     0
 42
0.0000000001
 43
0.0000000001
 40
0.0
 40
0.0
 40
0.0
 40
0.0
 40
1.0
 40
1.0
 40
1.0
 40
1.0
 10
2.049969943972066
 20
2.679071829137873
 30
0.0
 10
2.04996994397207
 20
2.676561598596646
 30
0.0
 10
2.049348954685317
 20
2.674269647417139
 30
0.0
 10
2.04810697634318
 20
2.6721959777738
 30
0.0
  0
ELLIPSE
  5
24F
330
6C
100
AcDbEntity
  8
Visible (ANSI)
100
AcDbEllipse
 10
1.982208103107708
 20
2.649060405296104
 30
0.0
 11
-0.0663585487526302
 21
-0.0358903594224994
 31
0.0
210
0.0
220
0.0
230
1.0
 40
0.382246605932538
 41
2.937717109808526
 42
3.16796327591621
  0
ELLIPSE
  5
250
330
6C
100
AcDbEntity
  8
Visible (ANSI)
100
AcDbEllipse
 10
1.672719167985123
 20
2.546178828328458
 30
0.0
 11
-0.3762900835454348
 21
-0.1377541796498019
 31
0.0
210
0.0
220
0.0
230
1.0
 40
0.1461224026200251
 41
3.173304403052565
 42
3.284127502904623
  0
ELLIPSE
  5
251
330
6C
100
AcDbEntity
  8
Visible (ANSI)
100
AcDbEllipse
 10
1.979907112599682
 20
2.70416959673266
 30
0.0
 11
-0.0635524130151268
 21
0.0146698100021774
 31
0.0
210
0.0
220
0.0
230
1.0
 40
0.0443686987963769
 41
3.340594411406488
 42
3.795053451722058
  0
ELLIPSE
  5
252
330
6C
100
AcDbEntity
  8
Visible (ANSI)
100
AcDbEllipse
 10
2.097479481347757
 20
2.694372496188134
 30
0.0
 11
0.0817853396038308
 21
-0.0080540034327567
 31
0.0
210
0.0
220
0.0
230
1.0
 40
0.1377622616954023
 41
3.40360451478526
 42
3.77204604432858
  0
ELLIPSE
  5
253
330
6C
100
AcDbEntity
  8
Visible (ANSI)
100
AcDbEllipse
 10
2.06418910767347
 20
2.731826072893955
 30
0.0
 11
0.0532599905230838
 21
0.0244873010547625
 31
0.0
210
0.0
220
0.0
230
1.0
 40
0.5429545041196146
 41
3.164445154779219
 42
3.474495306177435
  0
SPLINE
  5
254
330
6C
100
AcDbEntity
  8
Visible (ANSI)
100
AcDbSpline
210
0.0
220
0.0
230
1.0
 70
     8
 71
     3
 72
     8
 73
     4
 74
     0
 42
0.0000000001
 43
0.0000000001
 40
0.0
 40
0.0
 40
0.0
 40
0.0
 40
1.0
 40
1.0
 40
1.0
 40
1.0
 10
2.00898465686018
 20
2.716670737085411
 30
0.0
 10
2.008984656860175
 20
2.712959961710041
 30
0.0
 10
2.009738715210595
 20
2.709631175813742
 30
0.0
 10
2.011246832474201
 20
2.706684380207725
 30
0.0
  0
SPLINE
  5
255
330
6C
100
AcDbEntity
  8
Visible (ANSI)
100
AcDbSpline
210
0.0
220
0.0
230
1.0
 70
     8
 71
     3
 72
     8
 73
     4
 74
     0
 42
0.0000000001
 43
0.0000000001
 40
0.0
 40
0.0
 40
0.0
 40
0.0
 40
1.0
 40
1.0
 40
1.0
 40
1.0
 10
2.011779107422984
 20
2.727966781472515
 30
0.0
 10
2.00991614079031
 20
2.724474286851952
 30
0.0
 10
2.008984656860179
 20
2.720708937463832
 30
0.0
 10
2.00898465686018
 20
2.716670737085411
 30
0.0
  0
SPLINE
  5
256
330
6C
100
AcDbEntity
  8
Visible (ANSI)
100
AcDbSpline
210
0.0
220
0.0
230
1.0
 70
     8
 71
     3
 72
     8
 73
     4
 74
     0
 42
0.0000000001
 43
0.0000000001
 40
0.0
 40
0.0
 40
0.0
 40
0.0
 40
1.0
 40
1.0
 40
1.0
 40
1.0
 10
2.019945291105738
 20
2.735975040248864
 30
0.0
 10
2.016347814300146
 20
2.7341332195378
 30
0.0
 10
2.013642075541855
 20
2.731459278879228
 30
0.0
 10
2.011779107422984
 20
2.727966781472515
 30
0.0
  0
ELLIPSE
  5
257
330
6C
100
AcDbEntity
  8
Visible (ANSI)
100
AcDbEllipse
 10
2.085193896411492
 20
2.603579458101323
 30
0.0
 11
-0.0648583195377043
 21
0.1325909260606242
 31
0.0
210
0.0
220
0.0
230
1.0
 40
0.4026004030521192
 41
6.088735660584934
 42
6.290529441165744
  0
ELLIPSE
  5
258
330
6C
100
AcDbEntity
  8
Visible (ANSI)
100
AcDbEllipse
 10
1.96211824624471
 20
2.597938799265973
 30
0.0
 11
0.0839421111364264
 21
0.13706315123669
 31
0.0
210
0.0
220
0.0
230
1.0
 40
0.3827439716068639
 41
0.0271953548619556
 42
0.2302504969962356
  0
SPLINE
  5
259
330
6C
100
AcDbEntity
  8
Visible (ANSI)
100
AcDbSpline
210
0.0
220
0.0
230
1.0
 70
     8
 71
     3
 72
     8
 73
     4
 74
     0
 42
0.0000000001
 43
0.0000000001
 40
0.0
 40
0.0
 40
0.0
 40
0.0
 40
1.0
 40
1.0
 40
1.0
 40
1.0
 10
2.053103746375405
 20
2.727408529778644
 30
0.0
 10
2.051123211451416
 20
2.731131858644556
 30
0.0
 10
2.048284402176006
 20
2.733914942560265
 30
0.0
 10
2.044602822988969
 20
2.735824902370161
 30
0.0
  0
ELLIPSE
  5
25A
330
6C
100
AcDbEntity
  8
Visible (ANSI)
100
AcDbEllipse
 10
-0.610826137696307
 20
1.195791252926216
 30
0.0
 11
2.663520831576247
 21
1.532356420748735
 31
0.0
210
0.0
220
0.0
230
0.9999999999999998
 40
0.0909643473088298
 41
6.235368720089007
 42
6.280163463815201
  0
LINE
  5
25B
330
6C
100
AcDbEntity
  8
Visible (ANSI)
100
AcDbLine
 10
2.048062620564726
 20
2.714051365671228
 30
0.0
 11
2.056312907356717
 21
2.714815349397726
 31
0.0
  0
ELLIPSE
  5
25C
330
6C
100
AcDbEntity
  8
Visible (ANSI)
100
AcDbEllipse
 10
-1.417013087983729
 20
-1.225347003633842
 30
0.0
 11
-3.459908643575716
 21
-3.95143540714738
 31
0.0
210
0.0
220
0.0
230
1.0
 40
0.0485102363308871
 41
3.095195126437211
 42
3.138192211684776
  0
ELLIPSE
  5
25D
330
6C
100
AcDbEntity
  8
Visible (ANSI)
100
AcDbEllipse
 10
1.74970375222564
 20
2.413952572914968
 30
0.0
 11
-0.2935490709875301
 21
-0.3118096435097575
 31
0.0
210
0.0
220
0.0
230
1.0
 40
0.162403286011165
 41
3.136083088254268
 42
3.293310669930344
  0
SPLINE
  5
25E
330
6C
100
AcDbEntity
  8
Visible (ANSI)
100
AcDbSpline
210
0.0
220
0.0
230
1.0
 70
     8
 71
     3
 72
     8
 73
     4
 74
     0
 42
0.0000000001
 43
0.0000000001
 40
0.0
 40
0.0
 40
0.0
 40
0.0
 40
1.0
 40
1.0
 40
1.0
 40
1.0
 10
2.020827808667567
 20
2.725838542093884
 30
0.0
 10
2.02322305297048
 20
2.72818506222732
 30
0.0
 10
2.02699334423808
 20
2.729385609445643
 30
0.0
 10
2.032227395690465
 20
2.729385609445643
 30
0.0
  0
ELLIPSE
  5
25F
330
6C
100
AcDbEntity
  8
Visible (ANSI)
100
AcDbEllipse
 10
2.569291124725277
 20
2.488108966898837
 30
0.0
 11
-0.5511061992275122
 21
0.2339186591628976
 31
0.0
210
0.0
220
0.0
230
1.0
 40
0.1351203837252775
 41
6.227026814071337
 42
6.340474127871799
  0
SPLINE
  5
260
330
6C
100
AcDbEntity
  8
Visible (ANSI)
100
AcDbSpline
210
0.0
220
0.0
230
1.0
 70
     8
 71
     3
 72
     8
 73
     4
 74
     0
 42
0.0000000001
 43
0.0000000001
 40
0.0
 40
0.0
 40
0.0
 40
0.0
 40
1.0
 40
1.0
 40
1.0
 40
1.0
 10
2.019797643116558
 20
2.710272399673861
 30
0.0
 10
2.018122069128305
 20
2.712141408739156
 30
0.0
 10
2.017279298230274
 20
2.714487929163045
 30
0.0
 10
2.017279298230274
 20
2.717380151567525
 30
0.0
  0
ELLIPSE
  5
261
330
6C
100
AcDbEntity
  8
Visible (ANSI)
100
AcDbEllipse
 10
2.772565729067038
 20
2.693153138336426
 30
0.0
 11
-0.7535404762274606
 21
0.0188712605572138
 31
0.0
210
0.0
220
0.0
230
1.0
 40
0.0493980145033429
 41
0.0465351057634358
 42
0.1924590214475552
  0
SPLINE
  5
262
330
6C
100
AcDbEntity
  8
Visible (ANSI)
100
AcDbSpline
210
0.0
220
0.0
230
1.0
 70
     8
 71
     3
 72
     8
 73
     4
 74
     0
 42
0.0000000001
 43
0.0000000001
 40
0.0
 40
0.0
 40
0.0
 40
0.0
 40
1.0
 40
1.0
 40
1.0
 40
1.0
 10
2.047158274312653
 20
2.699433973050874
 30
0.0
 10
2.044558466455486
 20
2.700899934587544
 30
0.0
 10
2.039767978225659
 20
2.702591609773704
 30
0.0
 10
2.032759671945116
 20
2.704556140718528
 30
0.0
  0
ELLIPSE
  5
263
330
6C
100
AcDbEntity
  8
Visible (ANSI)
100
AcDbEllipse
 10
1.759426811056371
 20
2.520888304206734
 30
0.0
 11
0.2959213909805902
 21
0.1707418553900182
 31
0.0
210
0.0
220
0.0
230
0.9999999999999998
 40
0.2328562693437201
 41
6.278176282586862
 42
6.420026470482365
  0
ELLIPSE
  5
264
330
6C
100
AcDbEntity
  8
Visible (ANSI)
100
AcDbEllipse
 10
2.003357506112273
 20
2.657693956721016
 30
0.0
 11
0.0510842757900415
 21
0.0353715833949681
 31
0.0
210
0.0
220
0.0
230
1.0
 40
0.5690779548984737
 41
5.907819253338658
 42
6.223962161191574
  0
ELLIPSE
  5
265
330
6C
100
AcDbEntity
  8
Visible (ANSI)
100
AcDbEllipse
 10
1.942370137076381
 20
2.698773656027091
 30
0.0
 11
0.1153547405366288
 21
-0.024096490685378
 31
0.0
210
0.0
220
0.0
230
1.0
 40
0.4636241185209585
 41
6.152179237824871
 42
6.379734732026948
  0
ELLIPSE
  5
266
330
6C
100
AcDbEntity
  8
Visible (ANSI)
100
AcDbEllipse
 10
1.603690458908195
 20
3.133261592726044
 30
0.0
 11
-0.4473902508281323
 21
0.4709703534268583
 31
0.0
210
0.0
220
0.0
230
1.0
 40
0.1768126567053482
 41
3.095067077023839
 42
3.201734079470375
  0
ELLIPSE
  5
267
330
6C
100
AcDbEntity
  8
Visible (ANSI)
100
AcDbEllipse
 10
1.972866654398886
 20
2.851895962532955
 30
0.0
 11
-0.0703037487915646
 21
0.1943824736189482
 31
0.0
210
0.0
220
0.0
230
1.0
 40
0.347002608556427
 41
3.016738331617812
 42
3.195830384359685
  0
ELLIPSE
  5
268
330
6C
100
AcDbEntity
  8
Visible (ANSI)
100
AcDbEllipse
 10
2.286124105793054
 20
2.969836287812556
 30
0.0
 11
0.2711368108296861
 21
0.3076644701278694
 31
0.0
210
0.0
220
0.0
230
0.9999999999999998
 40
0.2286352698248536
 41
3.198281904325711
 42
3.340422476167001
  0
SPLINE
  5
269
330
6C
100
AcDbEntity
  8
Visible (ANSI)
100
AcDbSpline
210
0.0
220
0.0
230
1.0
 70
     8
 71
     3
 72
     8
 73
     4
 74
     0
 42
0.0000000001
 43
0.0000000001
 40
0.0
 40
0.0
 40
0.0
 40
0.0
 40
1.0
 40
1.0
 40
1.0
 40
1.0
 10
2.01004921007589
 20
2.668648910519845
 30
0.0
 10
2.012311384905244
 20
2.664392430601202
 30
0.0
 10
2.015416330370022
 20
2.661227355418277
 30
0.0
 10
2.019408404144541
 20
2.659153685324048
 30
0.0
  0
LINE
  5
26A
330
6C
100
AcDbEntity
  8
Visible (ANSI)
100
AcDbLine
 10
2.096854633183999
 20
2.657352866945335
 30
0.0
 11
2.096854633183991
 21
2.737680291948394
 31
0.0
  0
LINE
  5
26B
330
6C
100
AcDbEntity
  8
Visible (ANSI)
100
AcDbLine
 10
2.088870479674486
 20
2.657352866945339
 30
0.0
 11
2.096854633183999
 21
2.657352866945335
 31
0.0
  0
LINE
  5
26C
330
6C
100
AcDbEntity
  8
Visible (ANSI)
100
AcDbLine
 10
2.088870479674489
 20
2.719944953737329
 30
0.0
 11
2.088870479674486
 21
2.657352866945339
 31
0.0
  0
SPLINE
  5
26D
330
6C
100
AcDbEntity
  8
Visible (ANSI)
100
AcDbSpline
210
0.0
220
0.0
230
1.0
 70
     8
 71
     3
 72
     8
 73
     4
 74
     0
 42
0.0000000001
 43
0.0000000001
 40
0.0
 40
0.0
 40
0.0
 40
0.0
 40
1.0
 40
1.0
 40
1.0
 40
1.0
 10
2.08129522871233
 20
2.713158019146732
 30
0.0
 10
2.084390491901847
 20
2.715415620622711
 30
0.0
 10
2.086918804595947
 20
2.717653002557828
 30
0.0
 10
2.088870479674489
 20
2.719944953737329
 30
0.0
  0
SPLINE
  5
26E
330
6C
100
AcDbEntity
  8
Visible (ANSI)
100
AcDbSpline
210
0.0
220
0.0
230
1.0
 70
     8
 71
     3
 72
     8
 73
     4
 74
     0
 42
0.0000000001
 43
0.0000000001
 40
0.0
 40
0.0
 40
0.0
 40
0.0
 40
1.0
 40
1.0
 40
1.0
 40
1.0
 10
2.072902188158977
 20
2.708103208360746
 30
0.0
 10
2.075386145305997
 20
2.709194612321923
 30
0.0
 10
2.078180599034315
 20
2.710886292276457
 30
0.0
 10
2.08129522871233
 20
2.713158019146732
 30
0.0
  0
LINE
  5
26F
330
6C
100
AcDbEntity
  8
Visible (ANSI)
100
AcDbLine
 10
2.072902188158979
 20
2.717598433313441
 30
0.0
 11
2.072902188158977
 21
2.708103208360746
 31
0.0
  0
SPLINE
  5
270
330
6C
100
AcDbEntity
  8
Visible (ANSI)
100
AcDbSpline
210
0.0
220
0.0
230
1.0
 70
     8
 71
     3
 72
     8
 73
     4
 74
     0
 42
0.0000000001
 43
0.0000000001
 40
0.0
 40
0.0
 40
0.0
 40
0.0
 40
1.0
 40
1.0
 40
1.0
 40
1.0
 10
2.084613438500598
 20
2.726982911957399
 30
0.0
 10
2.081241186045123
 20
2.72327373963363
 30
0.0
 10
2.077337828136289
 20
2.720163235483237
 30
0.0
 10
2.072902188158979
 20
2.717598433313441
 30
0.0
  0
SPLINE
  5
271
330
6C
100
AcDbEntity
  8
Visible (ANSI)
100
AcDbSpline
210
0.0
220
0.0
230
1.0
 70
     8
 71
     3
 72
     8
 73
     4
 74
     0
 42
0.0000000001
 43
0.0000000001
 40
0.0
 40
0.0
 40
0.0
 40
0.0
 40
1.0
 40
1.0
 40
1.0
 40
1.0
 10
2.09170928894989
 20
2.737680291948394
 30
0.0
 10
2.09028988818806
 20
2.734187793550566
 30
0.0
 10
2.087938997682293
 20
2.730640725908346
 30
0.0
 10
2.084613438500598
 20
2.726982911957399
 30
0.0
  0
LINE
  5
272
330
6C
100
AcDbEntity
  8
Visible (ANSI)
100
AcDbLine
 10
2.096854633183991
 20
2.737680291948394
 30
0.0
 11
2.09170928894989
 21
2.737680291948394
 31
0.0
  0
LINE
  5
273
330
6C
100
AcDbEntity
  8
Visible (ANSI)
100
AcDbLine
 10
2.121782907996526
 20
2.657352866945341
 30
0.0
 11
2.130875965686575
 21
2.6573528669453
 31
0.0
  0
LINE
  5
274
330
6C
100
AcDbEntity
  8
Visible (ANSI)
100
AcDbLine
 10
2.121782907996526
 20
2.668539770660479
 30
0.0
 11
2.121782907996526
 21
2.657352866945341
 31
0.0
  0
LINE
  5
275
330
6C
100
AcDbEntity
  8
Visible (ANSI)
100
AcDbLine
 10
2.130875965686541
 20
2.668539770660478
 30
0.0
 11
2.121782907996526
 21
2.668539770660479
 31
0.0
  0
LINE
  5
276
330
6C
100
AcDbEntity
  8
Visible (ANSI)
100
AcDbLine
 10
2.130875965686575
 20
2.6573528669453
 30
0.0
 11
2.130875965686541
 21
2.668539770660478
 31
0.0
  0
SPLINE
  5
277
330
6C
100
AcDbEntity
  8
Visible (ANSI)
100
AcDbSpline
210
0.0
220
0.0
230
1.0
 70
     8
 71
     3
 72
     8
 73
     4
 74
     0
 42
0.0000000001
 43
0.0000000001
 40
0.0
 40
0.0
 40
0.0
 40
0.0
 40
1.0
 40
1.0
 40
1.0
 40
1.0
 10
2.14254169161774
 20
2.678307845411372
 30
0.0
 10
2.143073973686209
 20
2.671541133937913
 30
0.0
 10
2.145203070953085
 20
2.666138678607992
 30
0.0
 10
2.148917980686456
 20
2.662085225112547
 30
0.0
  0
LINE
  5
278
330
6C
100
AcDbEntity
  8
Visible (ANSI)
100
AcDbLine
 10
2.150925045050966
 20
2.679180970010834
 30
0.0
 11
2.14254169161774
 21
2.678307845411372
 31
0.0
  0
ELLIPSE
  5
279
330
6C
100
AcDbEntity
  8
Visible (ANSI)
100
AcDbEllipse
 10
2.454383660940275
 20
3.159029443754015
 30
0.0
 11
-0.2967877112026055
 21
-0.4931648237807689
 31
0.0
210
0.0
220
0.0
230
1.0
 40
0.1318150255634391
 41
6.116579752460836
 42
6.243069122743222
  0
ELLIPSE
  5
27A
330
6C
100
AcDbEntity
  8
Visible (ANSI)
100
AcDbEllipse
 10
2.236016746678469
 20
2.869370239721462
 30
0.0
 11
-0.0763554379350548
 21
-0.2046461678329857
 31
0.0
210
0.0
220
0.0
230
1.0
 40
0.2152731083354253
 41
6.171518140006004
 42
6.363333221040953
  0
ELLIPSE
  5
27B
330
6C
100
AcDbEntity
  8
Visible (ANSI)
100
AcDbEllipse
 10
2.048303899799982
 20
3.017711160338004
 30
0.0
 11
-0.1187260500379108
 21
0.3530733268548927
 31
0.0
210
0.0
220
0.0
230
1.0
 40
0.1694682940034056
 41
3.084670005041104
 42
3.258593866224546
  0
ELLIPSE
  5
27C
330
6C
100
AcDbEntity
  8
Visible (ANSI)
100
AcDbEllipse
 10
1.836785408631349
 20
2.97464438859675
 30
0.0
 11
-0.3353594852571533
 21
0.3065255946370378
 31
0.0
210
0.0
220
0.0
230
1.0
 40
0.1903735978223863
 41
3.160784879205264
 42
3.313873187979773
  0
ELLIPSE
  5
27D
330
6C
100
AcDbEntity
  8
Visible (ANSI)
100
AcDbEllipse
 10
-2.75634379797199
 20
-1.742289717298893
 30
0.0
 11
-4.929050615652014
 21
-4.439856598546352
 31
0.0
210
0.0
220
0.0
230
1.0
 40
0.0473292798236026
 41
3.098986470755733
 42
3.138598458883878
  0
SPLINE
  5
27E
330
6C
100
AcDbEntity
  8
Visible (ANSI)
100
AcDbSpline
210
0.0
220
0.0
230
1.0
 70
     8
 71
     3
 72
     8
 73
     4
 74
     0
 42
0.0000000001
 43
0.0000000001
 40
0.0
 40
0.0
 40
0.0
 40
0.0
 40
1.0
 40
1.0
 40
1.0
 40
1.0
 10
2.163300475238951
 20
2.70171848755844
 30
0.0
 10
2.167425618634938
 20
2.701718487558444
 30
0.0
 10
2.17075234667999
 20
2.700081381616669
 30
0.0
 10
2.173313907538602
 20
2.696848469260855
 30
0.0
  0
ELLIPSE
  5
27F
330
6C
100
AcDbEntity
  8
Visible (ANSI)
100
AcDbEllipse
 10
2.170190035576391
 20
2.666259796407795
 30
0.0
 11
-0.0103859670647217
 21
0.0349576607102153
 31
0.0
210
0.0
220
0.0
230
1.0
 40
0.5719023536483192
 41
6.114847590304526
 42
6.4666383889528
  0
ELLIPSE
  5
280
330
6C
100
AcDbEntity
  8
Visible (ANSI)
100
AcDbEllipse
 10
2.271585926315804
 20
2.597050488696973
 30
0.0
 11
-0.1182126521174081
 21
0.0998291097960943
 31
0.0
210
0.0
220
0.0
230
1.0
 40
0.305932468188568
 41
6.199713151022967
 42
6.356335290798046
  0
LINE
  5
281
330
6C
100
AcDbEntity
  8
Visible (ANSI)
100
AcDbLine
 10
2.143961100131316
 20
2.695170056638796
 30
0.0
 11
2.15145732711944
 21
2.693969511804656
 31
0.0
  0
LINE
  5
282
330
6C
100
AcDbEntity
  8
Visible (ANSI)
100
AcDbLine
 10
2.15025969634125
 20
2.736261462984166
 30
0.0
 11
2.143961100131316
 21
2.695170056638796
 31
0.0
  0
LINE
  5
283
330
6C
100
AcDbEntity
  8
Visible (ANSI)
100
AcDbLine
 10
2.182595494799496
 20
2.736261462984159
 30
0.0
 11
2.15025969634125
 21
2.736261462984166
 31
0.0
  0
LINE
  5
284
330
6C
100
AcDbEntity
  8
Visible (ANSI)
100
AcDbLine
 10
2.1825954947995
 20
2.726875376520232
 30
0.0
 11
2.182595494799496
 21
2.736261462984159
 31
0.0
  0
LINE
  5
285
330
6C
100
AcDbEntity
  8
Visible (ANSI)
100
AcDbLine
 10
2.156647019148857
 20
2.726875376520229
 30
0.0
 11
2.1825954947995
 21
2.726875376520232
 31
0.0
  0
LINE
  5
286
330
6C
100
AcDbEntity
  8
Visible (ANSI)
100
AcDbLine
 10
2.153142868915498
 20
2.705374693689422
 30
0.0
 11
2.156647019148857
 21
2.726875376520229
 31
0.0
  0
SPLINE
  5
287
330
6C
100
AcDbEntity
  8
Visible (ANSI)
100
AcDbSpline
210
0.0
220
0.0
230
1.0
 70
     8
 71
     3
 72
     8
 73
     4
 74
     0
 42
0.0000000001
 43
0.0000000001
 40
0.0
 40
0.0
 40
0.0
 40
0.0
 40
1.0
 40
1.0
 40
1.0
 40
1.0
 10
2.165429588009322
 20
2.710395159540254
 30
0.0
 10
2.161127006921497
 20
2.710395159540251
 30
0.0
 10
2.157046219072578
 20
2.708703479585728
 30
0.0
 10
2.153142868915498
 20
2.705374693689422
 30
0.0
  0
ELLIPSE
  5
288
330
6C
100
AcDbEntity
  8
Visible (ANSI)
100
AcDbEllipse
 10
1.928271148834074
 20
2.025029783843529
 30
0.0
 11
0.243036344978251
 21
0.6843828722213661
 31
0.0
210
0.0
220
0.0
230
1.0
 40
0.1509441197933926
 41
6.19093993579534
 42
6.336737550302093
  0
ELLIPSE
  5
289
330
6C
100
AcDbEntity
  8
Visible (ANSI)
100
AcDbEllipse
 10
-3.581003289697136
 20
-1.36767079329182
 30
0.0
 11
5.761739238685995
 21
4.06954335119453
 31
0.0
210
0.0
220
0.0
230
1.0
 40
0.0585231331286022
 41
6.241873665716955
 42
6.286982859008535
  0
ELLIPSE
  5
28A
330
6C
100
AcDbEntity
  8
Visible (ANSI)
100
AcDbEllipse
 10
1.800223676503833
 20
2.89351712374661
 30
0.0
 11
-0.3808848485443745
 21
0.2268976034660359
 31
0.0
210
0.0
220
0.0
230
1.0
 40
0.2601739615430088
 41
3.132056822583725
 42
3.295358629728883
  0
ELLIPSE
  5
28B
330
6C
100
AcDbEntity
  8
Visible (ANSI)
100
AcDbEllipse
 10
1.71219497111469
 20
3.638970049651863
 30
0.0
 11
-0.4596786401307709
 21
0.9811981253455416
 31
0.0
210
0.0
220
0.0
230
1.0
 40
0.1287508650798257
 41
3.081347818240326
 42
3.221920696759057
  0
SPLINE
  5
28C
330
6C
100
AcDbEntity
  8
Visible (ANSI)
100
AcDbSpline
210
0.0
220
0.0
230
1.0
 70
     8
 71
     3
 72
     8
 73
     4
 74
     0
 42
0.0000000001
 43
0.0000000001
 40
0.0
 40
0.0
 40
0.0
 40
0.0
 40
1.0
 40
1.0
 40
1.0
 40
1.0
 10
2.148917980686456
 20
2.662085225112547
 30
0.0
 10
2.152654942394108
 20
2.658007710022409
 30
0.0
 10
2.157489790046884
 20
2.655988610503768
 30
0.0
 10
2.163433541880207
 20
2.655988610503723
 30
0.0
  0
ENDSEC
  0
SECTION
  2
OBJECTS
  0
DICTIONARY
  5
C
330
0
100
AcDbDictionary
281
     1
  3
ACAD_CIP_PREVIOUS_PRODUCT_INFO
350
28D
  3
ACAD_COLOR
350
63
  3
ACAD_GROUP
350
D
  3
ACAD_LAYOUT
350
62
  3
ACAD_MATERIAL
350
10
  3
ACAD_MLEADERSTYLE
350
66
  3
ACAD_MLINESTYLE
350
5F
  3
ACAD_PLOTSETTINGS
350
61
  3
ACAD_PLOTSTYLENAME
350
E
  3
ACAD_SCALELIST
350
42
  3
ACAD_TABLESTYLE
350
64
  3
ACAD_VISUALSTYLE
350
29
  3
ACDB_RECOMPOSE_DATA
350
2E8
  3
AcDbVariableDictionary
350
76
  3
DWGPROPS
350
2E9
  0
DICTIONARY
  5
294
330
8
100
AcDbDictionary
280
     1
281
     1
  0
XRECORD
  5
28D
102
{ACAD_REACTORS
330
C
102
}
330
C
100
AcDbXrecord
280
     1
300
AMECH_PP
300
2012
300
85794PDSS_2012_0F
  0
DICTIONARY
  5
63
102
{ACAD_REACTORS
330
C
102
}
330
C
100
AcDbDictionary
281
     1
  0
DICTIONARY
  5
D
102
{ACAD_REACTORS
330
C
102
}
330
C
100
AcDbDictionary
281
     1
  0
DICTIONARY
  5
62
102
{ACAD_REACTORS
330
C
102
}
330
C
100
AcDbDictionary
281
     1
  3
Layout1
350
6B
  3
Layout2
350
73
  3
Model
350
6F
  0
DICTIONARY
  5
10
102
{ACAD_REACTORS
330
C
102
}
330
C
100
AcDbDictionary
281
     1
  3
ByBlock
350
19
  3
ByLayer
350
11
  3
Global
350
21
  0
DICTIONARY
  5
66
102
{ACAD_REACTORS
330
C
102
}
330
C
100
AcDbDictionary
281
     1
  3
Standard
350
67
  0
DICTIONARY
  5
5F
102
{ACAD_REACTORS
330
C
102
}
330
C
100
AcDbDictionary
281
     1
  3
Standard
350
60
  0
DICTIONARY
  5
61
102
{ACAD_REACTORS
330
C
102
}
330
C
100
AcDbDictionary
281
     1
  0
ACDBDICTIONARYWDFLT
  5
E
102
{ACAD_REACTORS
330
C
102
}
330
C
100
AcDbDictionary
281
     1
  3
Normal
350
F
100
AcDbDictionaryWithDefault
340
F
  0
DICTIONARY
  5
42
102
{ACAD_REACTORS
330
C
102
}
330
C
100
AcDbDictionary
281
     1
  3
A0
350
43
  3
A1
350
44
  3
A2
350
45
  3
A3
350
46
  3
A4
350
47
  3
A5
350
48
  3
A6
350
49
  3
A7
350
4A
  3
A8
350
4B
  3
A9
350
4C
  3
B0
350
4D
  3
B1
350
4E
  3
B2
350
4F
  3
B3
350
50
  3
B4
350
51
  3
B5
350
52
  3
B6
350
53
  0
DICTIONARY
  5
64
102
{ACAD_REACTORS
330
C
102
}
330
C
100
AcDbDictionary
281
     1
  3
Standard
350
65
  0
DICTIONARY
  5
29
102
{ACAD_REACTORS
330
C
102
}
330
C
100
AcDbDictionary
281
     1
  3
2dWireframe
350
2F
  3
Basic
350
2E
  3
Brighten
350
35
  3
ColorChange
350
39
  3
Conceptual
350
32
  3
Dim
350
34
  3
EdgeColorOff
350
41
  3
Facepattern
350
38
  3
Flat
350
2A
  3
FlatWithEdges
350
2B
  3
Gouraud
350
2C
  3
GouraudWithEdges
350
2D
  3
Hidden
350
31
  3
JitterOff
350
3F
  3
Linepattern
350
37
  3
OverhangOff
350
40
  3
Realistic
350
33
  3
Shaded
350
3E
  3
Shaded with edges
350
3D
  3
Shades of Gray
350
3A
  3
Sketchy
350
3B
  3
Thicken
350
36
  3
Wireframe
350
30
  3
X-Ray
350
3C
  0
XRECORD
  5
2E8
102
{ACAD_REACTORS
330
C
102
}
330
C
100
AcDbXrecord
280
     1
 90
        1
330
65
  0
DICTIONARY
  5
76
102
{ACAD_REACTORS
330
C
102
}
330
C
100
AcDbDictionary
281
     1
  3
CANNOSCALE
350
79
  3
CMLEADERSTYLE
350
78
  3
CTABLESTYLE
350
77
  3
DIMASSOC
350
2D8
  3
HIDETEXT
350
2D7
  3
INDEXCTL
350
2D6
  3
LAYEREVAL
350
2D3
  3
LAYERNOTIFY
350
2D4
  3
LIGHTINGUNITS
350
2D2
  3
MSLTSCALE
350
2D1
  3
SORTENTS
350
2D5
  3
XCLIPFRAME
350
2E4
  0
XRECORD
  5
2E9
102
{ACAD_REACTORS
330
C
102
}
330
C
100
AcDbXrecord
280
     1
  1
DWGPROPS COOKIE
  2

  3

  4
JIM WALLS
  6

  7

  8
jwalls
  9

300
Manager=
301
Company=
302
Category=
303
Part Number=
304
Description=
305
Project=
306
Designer=JIM WALLS
307
Engineer=
308
Authority=
309
Cost Center=
 40
0.0120422569444445
 41
2456345.384293067
 42
2456345.460071633
  1

 90
       16
300
Vendor=
300
User Status=
300
Design Status=WorkInProgress
300
Checked by=
300
Engr Approved by=
300
Mfg Approved by=
  0
LAYOUT
  5
6B
102
{ACAD_XDICTIONARY
360
31E
102
}
102
{ACAD_REACTORS
330
62
102
}
330
62
100
AcDbPlotSettings
  1

  2

  4

  6

 40
0.0
 41
0.0
 42
0.0
 43
0.0
 44
0.0
 45
0.0
 46
0.0
 47
0.0
 48
0.0
 49
0.0
140
0.0
141
0.0
142
1.0
143
1.0
 70
   688
 72
     0
 73
     0
 74
     5
  7

 75
    16
147
1.0
148
0.0
149
0.0
100
AcDbLayout
  1
Layout1
 70
     1
 71
     1
 10
0.0
 20
0.0
 11
7.0
 21
5.0
 12
0.0
 22
0.0
 32
0.0
 14
0.0
 24
0.0
 34
0.0
 15
7.0
 25
5.0
 35
0.0
146
0.0
 13
0.0
 23
0.0
 33
0.0
 16
1.0
 26
0.0
 36
0.0
 17
0.0
 27
1.0
 37
0.0
 76
     0
330
68
  0
LAYOUT
  5
73
102
{ACAD_XDICTIONARY
360
322
102
}
102
{ACAD_REACTORS
330
62
102
}
330
62
100
AcDbPlotSettings
  1

  2

  4

  6

 40
0.0
 41
0.0
 42
0.0
 43
0.0
 44
0.0
 45
0.0
 46
0.0
 47
0.0
 48
0.0
 49
0.0
140
0.0
141
0.0
142
1.0
143
1.0
 70
   688
 72
     0
 73
     0
 74
     5
  7

 75
    16
147
1.0
148
0.0
149
0.0
100
AcDbLayout
  1
Layout2
 70
     1
 71
     2
 10
0.0
 20
0.0
 11
12.0
 21
9.0
 12
0.0
 22
0.0
 32
0.0
 14
0.0
 24
0.0
 34
0.0
 15
0.0
 25
0.0
 35
0.0
146
0.0
 13
0.0
 23
0.0
 33
0.0
 16
1.0
 26
0.0
 36
0.0
 17
0.0
 27
1.0
 37
0.0
 76
     0
330
70
  0
LAYOUT
  5
6F
102
{ACAD_XDICTIONARY
360
320
102
}
102
{ACAD_REACTORS
330
62
102
}
330
62
100
AcDbPlotSettings
  1

  2

  4

  6

 40
0.0
 41
0.0
 42
0.0
 43
0.0
 44
0.0
 45
0.0
 46
0.0
 47
0.0
 48
0.0
 49
0.0
140
0.0
141
0.0
142
1.0
143
1.0
 70
  1712
 72
     0
 73
     0
 74
     0
  7

 75
     0
147
1.0
148
0.0
149
0.0
100
AcDbLayout
  1
Model
 70
     1
 71
     0
 10
0.0
 20
0.0
 11
12.0
 21
9.0
 12
0.0
 22
0.0
 32
0.0
 14
0.0
 24
0.0
 34
0.0
 15
0.0
 25
0.0
 35
0.0
146
0.0
 13
0.0
 23
0.0
 33
0.0
 16
1.0
 26
0.0
 36
0.0
 17
0.0
 27
1.0
 37
0.0
 76
     0
330
6C
331
57
  0
MATERIAL
  5
19
102
{ACAD_XDICTIONARY
360
1A
102
}
102
{ACAD_REACTORS
330
10
102
}
330
10
100
AcDbMaterial
  1
ByBlock
 72
     0
 43
0.0208333333333333
 43
0.0
 43
0.0
 43
0.0
 43
0.0
 43
0.0208333333333333
 43
0.0
 43
0.0
 43
0.0
 43
0.0
 43
1.0
 43
0.0
 43
0.0
 43
0.0
 43
0.0
 43
1.0
 77
     0
 47
0.0208333333333333
 47
0.0
 47
0.0
 47
0.0
 47
0.0
 47
0.0208333333333333
 47
0.0
 47
0.0
 47
0.0
 47
0.0
 47
1.0
 47
0.0
 47
0.0
 47
0.0
 47
0.0
 47
1.0
171
     0
 49
0.0208333333333333
 49
0.0
 49
0.0
 49
0.0
 49
0.0
 49
0.0208333333333333
 49
0.0
 49
0.0
 49
0.0
 49
0.0
 49
1.0
 49
0.0
 49
0.0
 49
0.0
 49
0.0
 49
1.0
175
     0
142
0.0208333333333333
142
0.0
142
0.0
142
0.0
142
0.0
142
0.0208333333333333
142
0.0
142
0.0
142
0.0
142
0.0
142
1.0
142
0.0
142
0.0
142
0.0
142
0.0
142
1.0
179
     0
144
0.0208333333333333
144
0.0
144
0.0
144
0.0
144
0.0
144
0.0208333333333333
144
0.0
144
0.0
144
0.0
144
0.0
144
1.0
144
0.0
144
0.0
144
0.0
144
0.0
144
1.0
147
0.0208333333333333
147
0.0
147
0.0
147
0.0
147
0.0
147
0.0208333333333333
147
0.0
147
0.0
147
0.0
147
0.0
147
1.0
147
0.0
147
0.0
147
0.0
147
0.0
147
1.0
  0
MATERIAL
  5
11
102
{ACAD_XDICTIONARY
360
12
102
}
102
{ACAD_REACTORS
330
10
102
}
330
10
100
AcDbMaterial
  1
ByLayer
 72
     0
 43
0.0208333333333333
 43
0.0
 43
0.0
 43
0.0
 43
0.0
 43
0.0208333333333333
 43
0.0
 43
0.0
 43
0.0
 43
0.0
 43
1.0
 43
0.0
 43
0.0
 43
0.0
 43
0.0
 43
1.0
 77
     0
 47
0.0208333333333333
 47
0.0
 47
0.0
 47
0.0
 47
0.0
 47
0.0208333333333333
 47
0.0
 47
0.0
 47
0.0
 47
0.0
 47
1.0
 47
0.0
 47
0.0
 47
0.0
 47
0.0
 47
1.0
171
     0
 49
0.0208333333333333
 49
0.0
 49
0.0
 49
0.0
 49
0.0
 49
0.0208333333333333
 49
0.0
 49
0.0
 49
0.0
 49
0.0
 49
1.0
 49
0.0
 49
0.0
 49
0.0
 49
0.0
 49
1.0
175
     0
142
0.0208333333333333
142
0.0
142
0.0
142
0.0
142
0.0
142
0.0208333333333333
142
0.0
142
0.0
142
0.0
142
0.0
142
1.0
142
0.0
142
0.0
142
0.0
142
0.0
142
1.0
179
     0
144
0.0208333333333333
144
0.0
144
0.0
144
0.0
144
0.0
144
0.0208333333333333
144
0.0
144
0.0
144
0.0
144
0.0
144
1.0
144
0.0
144
0.0
144
0.0
144
0.0
144
1.0
147
0.0208333333333333
147
0.0
147
0.0
147
0.0
147
0.0
147
0.0208333333333333
147
0.0
147
0.0
147
0.0
147
0.0
147
1.0
147
0.0
147
0.0
147
0.0
147
0.0
147
1.0
  0
MATERIAL
  5
21
102
{ACAD_XDICTIONARY
360
22
102
}
102
{ACAD_REACTORS
330
10
102
}
330
10
100
AcDbMaterial
  1
Global
 72
     0
 43
0.0208333333333333
 43
0.0
 43
0.0
 43
0.0
 43
0.0
 43
0.0208333333333333
 43
0.0
 43
0.0
 43
0.0
 43
0.0
 43
1.0
 43
0.0
 43
0.0
 43
0.0
 43
0.0
 43
1.0
 77
     0
 47
0.0208333333333333
 47
0.0
 47
0.0
 47
0.0
 47
0.0
 47
0.0208333333333333
 47
0.0
 47
0.0
 47
0.0
 47
0.0
 47
1.0
 47
0.0
 47
0.0
 47
0.0
 47
0.0
 47
1.0
171
     0
 49
0.0208333333333333
 49
0.0
 49
0.0
 49
0.0
 49
0.0
 49
0.0208333333333333
 49
0.0
 49
0.0
 49
0.0
 49
0.0
 49
1.0
 49
0.0
 49
0.0
 49
0.0
 49
0.0
 49
1.0
175
     0
142
0.0208333333333333
142
0.0
142
0.0
142
0.0
142
0.0
142
0.0208333333333333
142
0.0
142
0.0
142
0.0
142
0.0
142
1.0
142
0.0
142
0.0
142
0.0
142
0.0
142
1.0
179
     0
144
0.0208333333333333
144
0.0
144
0.0
144
0.0
144
0.0
144
0.0208333333333333
144
0.0
144
0.0
144
0.0
144
0.0
144
1.0
144
0.0
144
0.0
144
0.0
144
0.0
144
1.0
147
0.0208333333333333
147
0.0
147
0.0
147
0.0
147
0.0
147
0.0208333333333333
147
0.0
147
0.0
147
0.0
147
0.0
147
1.0
147
0.0
147
0.0
147
0.0
147
0.0
147
1.0
  0
MLEADERSTYLE
  5
67
102
{ACAD_XDICTIONARY
360
2E6
102
}
102
{ACAD_REACTORS
330
66
102
}
330
66
100
AcDbMLeaderStyle
170
     2
171
     1
172
     0
 90
        2
 40
0.0
 41
0.0
173
     1
 91
-1056964608
340
5B
 92
       -2
290
     1
 42
0.09
291
     1
 43
0.36
  3
Standard
 44
0.18
300

342
55
174
     1
178
     6
175
     1
176
     0
 93
-1056964608
 45
0.18
292
     0
297
     0
 46
0.18
 94
-1056964608
 47
1.0
 49
1.0
140
1.0
293
     1
141
0.0
294
     1
177
     0
142
1.0
295
     0
296
     0
143
0.125
1001
ACAD_MLEADERVER
1070
     2
  0
MLINESTYLE
  5
60
102
{ACAD_REACTORS
330
5F
102
}
330
5F
100
AcDbMlineStyle
  2
STANDARD
 70
     0
  3

 62
   256
 51
90.0
 52
90.0
 71
     2
 49
0.5
 62
   256
  6
BYLAYER
 49
-0.5
 62
   256
  6
BYLAYER
  0
ACDBPLACEHOLDER
  5
F
102
{ACAD_REACTORS
330
E
102
}
330
E
  0
SCALE
  5
43
102
{ACAD_REACTORS
330
42
102
}
330
42
100
AcDbScale
 70
     0
300
1:1
140
1.0
141
1.0
290
     1
  0
SCALE
  5
44
102
{ACAD_REACTORS
330
42
102
}
330
42
100
AcDbScale
 70
     0
300
1/128" = 1'-0"
140
0.0078125
141
12.0
290
     0
  0
SCALE
  5
45
102
{ACAD_REACTORS
330
42
102
}
330
42
100
AcDbScale
 70
     0
300
1/64" = 1'-0"
140
0.015625
141
12.0
290
     0
  0
SCALE
  5
46
102
{ACAD_REACTORS
330
42
102
}
330
42
100
AcDbScale
 70
     0
300
1/32" = 1'-0"
140
0.03125
141
12.0
290
     0
  0
SCALE
  5
47
102
{ACAD_REACTORS
330
42
102
}
330
42
100
AcDbScale
 70
     0
300
1/16" = 1'-0"
140
0.0625
141
12.0
290
     0
  0
SCALE
  5
48
102
{ACAD_REACTORS
330
42
102
}
330
42
100
AcDbScale
 70
     0
300
3/32" = 1'-0"
140
0.09375
141
12.0
290
     0
  0
SCALE
  5
49
102
{ACAD_REACTORS
330
42
102
}
330
42
100
AcDbScale
 70
     0
300
1/8" = 1'-0"
140
0.125
141
12.0
290
     0
  0
SCALE
  5
4A
102
{ACAD_REACTORS
330
42
102
}
330
42
100
AcDbScale
 70
     0
300
3/16" = 1'-0"
140
0.1875
141
12.0
290
     0
  0
SCALE
  5
4B
102
{ACAD_REACTORS
330
42
102
}
330
42
100
AcDbScale
 70
     0
300
1/4" = 1'-0"
140
0.25
141
12.0
290
     0
  0
SCALE
  5
4C
102
{ACAD_REACTORS
330
42
102
}
330
42
100
AcDbScale
 70
     0
300
3/8" = 1'-0"
140
0.375
141
12.0
290
     0
  0
SCALE
  5
4D
102
{ACAD_REACTORS
330
42
102
}
330
42
100
AcDbScale
 70
     0
300
1/2" = 1'-0"
140
0.5
141
12.0
290
     0
  0
SCALE
  5
4E
102
{ACAD_REACTORS
330
42
102
}
330
42
100
AcDbScale
 70
     0
300
3/4" = 1'-0"
140
0.75
141
12.0
290
     0
  0
SCALE
  5
4F
102
{ACAD_REACTORS
330
42
102
}
330
42
100
AcDbScale
 70
     0
300
1" = 1'-0"
140
1.0
141
12.0
290
     0
  0
SCALE
  5
50
102
{ACAD_REACTORS
330
42
102
}
330
42
100
AcDbScale
 70
     0
300
1-1/2" = 1'-0"
140
1.5
141
12.0
290
     0
  0
SCALE
  5
51
102
{ACAD_REACTORS
330
42
102
}
330
42
100
AcDbScale
 70
     0
300
3" = 1'-0"
140
3.0
141
12.0
290
     0
  0
SCALE
  5
52
102
{ACAD_REACTORS
330
42
102
}
330
42
100
AcDbScale
 70
     0
300
6" = 1'-0"
140
6.0
141
12.0
290
     0
  0
SCALE
  5
53
102
{ACAD_REACTORS
330
42
102
}
330
42
100
AcDbScale
 70
     0
300
1'-0" = 1'-0"
140
12.0
141
12.0
290
     0
  0
TABLESTYLE
  5
65
102
{ACAD_XDICTIONARY
360
28E
102
}
102
{ACAD_REACTORS
330
64
102
}
330
64
100
AcDbTableStyle
  3
Standard
 70
     0
 71
     0
 40
0.06
 41
0.06
280
     0
281
     0
  7
Standard
140
0.18
170
     2
 62
     0
 63
     7
283
     0
274
    -2
284
     1
 64
     0
275
    -2
285
     1
 65
     0
276
    -2
286
     1
 66
     0
277
    -2
287
     1
 67
     0
278
    -2
288
     1
 68
     0
279
    -2
289
     1
 69
     0
  7
Standard
140
0.25
170
     5
 62
     0
 63
     7
283
     0
274
    -2
284
     1
 64
     0
275
    -2
285
     1
 65
     0
276
    -2
286
     1
 66
     0
277
    -2
287
     1
 67
     0
278
    -2
288
     1
 68
     0
279
    -2
289
     1
 69
     0
  7
Standard
140
0.18
170
     5
 62
     0
 63
     7
283
     0
274
    -2
284
     1
 64
     0
275
    -2
285
     1
 65
     0
276
    -2
286
     1
 66
     0
277
    -2
287
     1
 67
     0
278
    -2
288
     1
 68
     0
279
    -2
289
     1
 69
     0
  0
VISUALSTYLE
  5
2F
102
{ACAD_XDICTIONARY
360
2F7
102
}
102
{ACAD_REACTORS
330
29
102
}
330
29
100
AcDbVisualStyle
  2
2dWireframe
 70
     4
 71
     0
 72
     2
 73
     0
 90
        0
 40
-0.6
 41
-30.0
 62
     5
 63
     7
 74
     1
 91
        4
 64
     7
 65
   257
 75
     1
175
     1
 42
1.0
 92
        0
 66
   257
 43
1.0
 76
     1
 77
     6
 78
     2
 67
     7
 79
     5
170
     0
171
     0
290
     0
174
     0
 93
        1
 44
0.0
173
     0
291
     0
 45
0.0
1001
ACAD
1000
AcDbSavedByObjectVersion
1070
     0
  0
VISUALSTYLE
  5
2E
102
{ACAD_XDICTIONARY
360
2F5
102
}
102
{ACAD_REACTORS
330
29
102
}
330
29
100
AcDbVisualStyle
  2
Basic
 70
     7
 71
     1
 72
     0
 73
     1
 90
        0
 40
-0.6
 41
-30.0
 62
     5
 63
     7
 74
     0
 91
        4
 64
     7
 65
   257
 75
     1
175
     1
 42
1.0
 92
        8
 66
     7
 43
1.0
 76
     1
 77
     6
 78
     2
 67
     7
 79
     5
170
     0
171
     0
290
     0
174
     0
 93
        1
 44
0.0
173
     0
291
     1
 45
0.0
1001
ACAD
1000
AcDbSavedByObjectVersion
1070
     0
  0
VISUALSTYLE
  5
35
102
{ACAD_XDICTIONARY
360
303
102
}
102
{ACAD_REACTORS
330
29
102
}
330
29
100
AcDbVisualStyle
  2
Brighten
 70
    12
 71
     2
 72
     2
 73
     0
 90
        0
 40
-0.6
 41
-30.0
 62
     5
 63
     7
 74
     1
 91
        4
 64
     7
 65
   257
 75
     1
175
     1
 42
1.0
 92
        8
 66
     7
 43
1.0
 76
     1
 77
     6
 78
     2
 67
     7
 79
     5
170
     0
171
     0
290
     0
174
     0
 93
        1
 44
50.0
173
     0
291
     1
 45
0.0
1001
ACAD
1000
AcDbSavedByObjectVersion
1070
     0
  0
VISUALSTYLE
  5
39
102
{ACAD_XDICTIONARY
360
30B
102
}
102
{ACAD_REACTORS
330
29
102
}
330
29
100
AcDbVisualStyle
  2
ColorChange
 70
    16
 71
     2
 72
     2
 73
     3
 90
        0
 40
-0.6
 41
-30.0
 62
     5
 63
     8
 74
     1
 91
        4
 64
     7
 65
   257
 75
     1
175
     1
 42
1.0
 92
        8
 66
     8
 43
1.0
 76
     1
 77
     6
 78
     2
 67
     7
 79
     5
170
     0
171
     0
290
     0
174
     0
 93
        1
 44
0.0
173
     0
291
     1
 45
0.0
1001
ACAD
1000
AcDbSavedByObjectVersion
1070
     0
  0
VISUALSTYLE
  5
32
102
{ACAD_XDICTIONARY
360
2FD
102
}
102
{ACAD_REACTORS
330
29
102
}
330
29
100
AcDbVisualStyle
  2
Conceptual
 70
     9
 71
     3
 72
     2
 73
     0
 90
        0
 40
-0.6
 41
-30.0
 62
     5
 63
     7
 74
     2
 91
        2
 64
     7
 65
   257
 75
     1
175
     1
 42
179.0
 92
        8
 66
     7
 43
1.0
 76
     1
 77
     6
 78
     2
 67
     7
 79
     3
170
     0
171
     0
290
     0
174
     0
 93
        1
 44
0.0
173
     0
291
     0
 45
0.0
1001
ACAD
1000
AcDbSavedByObjectVersion
1070
     0
  0
VISUALSTYLE
  5
34
102
{ACAD_XDICTIONARY
360
301
102
}
102
{ACAD_REACTORS
330
29
102
}
330
29
100
AcDbVisualStyle
  2
Dim
 70
    11
 71
     2
 72
     2
 73
     0
 90
        0
 40
-0.6
 41
-30.0
 62
     5
 63
     7
 74
     1
 91
        4
 64
     7
 65
   257
 75
     1
175
     1
 42
1.0
 92
        8
 66
     7
 43
1.0
 76
     1
 77
     6
 78
     2
 67
     7
 79
     5
170
     0
171
     0
290
     0
174
     0
 93
        1
 44
-50.0
173
     0
291
     1
 45
0.0
1001
ACAD
1000
AcDbSavedByObjectVersion
1070
     0
  0
VISUALSTYLE
  5
41
102
{ACAD_XDICTIONARY
360
31B
102
}
102
{ACAD_REACTORS
330
29
102
}
330
29
100
AcDbVisualStyle
  2
EdgeColorOff
 70
    22
 71
     2
 72
     2
 73
     0
 90
        0
 40
-0.6
 41
-30.0
 62
     5
 63
     7
 74
     1
 91
        4
 64
     7
 65
   257
 75
     1
175
     1
 42
1.0
 92
        8
 66
     7
 43
1.0
 76
     1
 77
     6
 78
     2
 67
     7
 79
     5
170
     0
171
     0
290
     0
174
     0
 93
        1
 44
0.0
173
     0
291
     1
 45
0.0
1001
ACAD
1000
AcDbSavedByObjectVersion
1070
     0
  0
VISUALSTYLE
  5
38
102
{ACAD_XDICTIONARY
360
309
102
}
102
{ACAD_REACTORS
330
29
102
}
330
29
100
AcDbVisualStyle
  2
Facepattern
 70
    15
 71
     2
 72
     2
 73
     0
 90
        0
 40
-0.6
 41
-30.0
 62
     5
 63
     7
 74
     1
 91
        4
 64
     7
 65
   257
 75
     1
175
     1
 42
1.0
 92
        8
 66
     7
 43
1.0
 76
     1
 77
     6
 78
     2
 67
     7
 79
     5
170
     0
171
     0
290
     0
174
     0
 93
        1
 44
0.0
173
     0
291
     1
 45
0.0
1001
ACAD
1000
AcDbSavedByObjectVersion
1070
     0
  0
VISUALSTYLE
  5
2A
102
{ACAD_XDICTIONARY
360
2ED
102
}
102
{ACAD_REACTORS
330
29
102
}
330
29
100
AcDbVisualStyle
  2
Flat
 70
     0
 71
     2
 72
     1
 73
     1
 90
        2
 40
-0.6
 41
30.0
 62
     5
 63
     7
 74
     0
 91
        0
 64
     7
 65
   257
 75
     1
175
     1
 42
1.0
 92
        8
 66
     7
 43
1.0
 76
     1
 77
     6
 78
     2
 67
     7
 79
     5
170
     0
171
     0
290
     0
174
     0
 93
       13
 44
0.0
173
     0
291
     1
 45
0.0
1001
ACAD
1000
AcDbSavedByObjectVersion
1070
     0
  0
VISUALSTYLE
  5
2B
102
{ACAD_XDICTIONARY
360
2EF
102
}
102
{ACAD_REACTORS
330
29
102
}
330
29
100
AcDbVisualStyle
  2
FlatWithEdges
 70
     1
 71
     2
 72
     1
 73
     1
 90
        2
 40
-0.6
 41
30.0
 62
     5
 63
     7
 74
     1
 91
        0
 64
     7
 65
   257
 75
     1
175
     1
 42
1.0
 92
        0
 66
   257
 43
1.0
 76
     1
 77
     6
 78
     2
 67
     7
 79
     5
170
     0
171
     0
290
     0
174
     0
 93
       13
 44
0.0
173
     0
291
     1
 45
0.0
1001
ACAD
1000
AcDbSavedByObjectVersion
1070
     0
  0
VISUALSTYLE
  5
2C
102
{ACAD_XDICTIONARY
360
2F1
102
}
102
{ACAD_REACTORS
330
29
102
}
330
29
100
AcDbVisualStyle
  2
Gouraud
 70
     2
 71
     2
 72
     2
 73
     1
 90
        2
 40
-0.6
 41
30.0
 62
     5
 63
     7
 74
     0
 91
        0
 64
     7
 65
   257
 75
     1
175
     1
 42
1.0
 92
        0
 66
     7
 43
1.0
 76
     1
 77
     6
 78
     2
 67
     7
 79
     5
170
     0
171
     0
290
     0
174
     0
 93
       13
 44
0.0
173
     0
291
     1
 45
0.0
1001
ACAD
1000
AcDbSavedByObjectVersion
1070
     0
  0
VISUALSTYLE
  5
2D
102
{ACAD_XDICTIONARY
360
2F3
102
}
102
{ACAD_REACTORS
330
29
102
}
330
29
100
AcDbVisualStyle
  2
GouraudWithEdges
 70
     3
 71
     2
 72
     2
 73
     1
 90
        2
 40
-0.6
 41
30.0
 62
     5
 63
     7
 74
     1
 91
        0
 64
     7
 65
   257
 75
     1
175
     1
 42
1.0
 92
        0
 66
   257
 43
1.0
 76
     1
 77
     6
 78
     2
 67
     7
 79
     5
170
     0
171
     0
290
     0
174
     0
 93
       13
 44
0.0
173
     0
291
     1
 45
0.0
1001
ACAD
1000
AcDbSavedByObjectVersion
1070
     0
  0
VISUALSTYLE
  5
31
102
{ACAD_XDICTIONARY
360
2FB
102
}
102
{ACAD_REACTORS
330
29
102
}
330
29
100
AcDbVisualStyle
  2
Hidden
 70
     6
 71
     1
 72
     2
 73
     2
 90
        0
 40
-0.6
 41
-30.0
 62
     5
 63
     7
 74
     2
 91
        2
 64
     7
 65
   257
 75
     2
175
     1
 42
40.0
 92
        0
 66
   257
 43
1.0
 76
     1
 77
     6
 78
     2
 67
     7
 79
     3
170
     0
171
     0
290
     0
174
     0
 93
        1
 44
0.0
173
     0
291
     0
 45
0.0
1001
ACAD
1000
AcDbSavedByObjectVersion
1070
     0
  0
VISUALSTYLE
  5
3F
102
{ACAD_XDICTIONARY
360
317
102
}
102
{ACAD_REACTORS
330
29
102
}
330
29
100
AcDbVisualStyle
  2
JitterOff
 70
    20
 71
     2
 72
     2
 73
     0
 90
        0
 40
-0.6
 41
-30.0
 62
     5
 63
     7
 74
     1
 91
        4
 64
     7
 65
   257
 75
     1
175
     1
 42
1.0
 92
       10
 66
     7
 43
1.0
 76
     1
 77
     6
 78
     2
 67
     7
 79
     5
170
     0
171
     0
290
     0
174
     0
 93
        1
 44
0.0
173
     0
291
     1
 45
0.0
1001
ACAD
1000
AcDbSavedByObjectVersion
1070
     0
  0
VISUALSTYLE
  5
37
102
{ACAD_XDICTIONARY
360
307
102
}
102
{ACAD_REACTORS
330
29
102
}
330
29
100
AcDbVisualStyle
  2
Linepattern
 70
    14
 71
     2
 72
     2
 73
     0
 90
        0
 40
-0.6
 41
-30.0
 62
     5
 63
     7
 74
     1
 91
        4
 64
     7
 65
   257
 75
     7
175
     7
 42
1.0
 92
        8
 66
     7
 43
1.0
 76
     1
 77
     6
 78
     2
 67
     7
 79
     5
170
     0
171
     0
290
     0
174
     0
 93
        1
 44
0.0
173
     0
291
     1
 45
0.0
1001
ACAD
1000
AcDbSavedByObjectVersion
1070
     0
  0
VISUALSTYLE
  5
40
102
{ACAD_XDICTIONARY
360
319
102
}
102
{ACAD_REACTORS
330
29
102
}
330
29
100
AcDbVisualStyle
  2
OverhangOff
 70
    21
 71
     2
 72
     2
 73
     0
 90
        0
 40
-0.6
 41
-30.0
 62
     5
 63
     7
 74
     1
 91
        4
 64
     7
 65
   257
 75
     1
175
     1
 42
1.0
 92
        9
 66
     7
 43
1.0
 76
     1
 77
     6
 78
     2
 67
     7
 79
     5
170
     0
171
     0
290
     0
174
     0
 93
        1
 44
0.0
173
     0
291
     1
 45
0.0
1001
ACAD
1000
AcDbSavedByObjectVersion
1070
     0
  0
VISUALSTYLE
  5
33
102
{ACAD_XDICTIONARY
360
2FF
102
}
102
{ACAD_REACTORS
330
29
102
}
330
29
100
AcDbVisualStyle
  2
Realistic
 70
     8
 71
     2
 72
     2
 73
     0
 90
        2
 40
-0.6
 41
30.0
 62
     5
 63
     7
 74
     0
 91
        0
 64
     7
 65
   257
 75
     1
175
     1
 42
1.0
 92
        8
 66
   257
 43
1.0
 76
     1
 77
     6
 78
     2
 67
     7
 79
     3
170
     0
171
     0
290
     0
174
     0
 93
       13
 44
0.0
173
     0
291
     0
 45
0.0
1001
ACAD
1000
AcDbSavedByObjectVersion
1070
     0
  0
VISUALSTYLE
  5
3E
102
{ACAD_XDICTIONARY
360
315
102
}
102
{ACAD_REACTORS
330
29
102
}
330
29
100
AcDbVisualStyle
  2
Shaded
 70
    27
 71
     2
 72
     2
 73
     1
 90
        2
 40
-0.6
 41
30.0
 62
     5
 63
     7
 74
     0
 91
        4
 64
     7
 65
   257
 75
     1
175
     1
 42
1.0
 92
        8
 66
   257
 43
1.0
 76
     1
 77
     6
 78
     2
 67
     8
 79
     3
170
     0
171
     0
290
     0
174
     0
 93
        5
 44
0.0
173
     0
291
     0
 45
0.0
1001
ACAD
1000
AcDbSavedByObjectVersion
1070
     0
  0
VISUALSTYLE
  5
3D
102
{ACAD_XDICTIONARY
360
313
102
}
102
{ACAD_REACTORS
330
29
102
}
330
29
100
AcDbVisualStyle
  2
Shaded with edges
 70
    26
 71
     2
 72
     2
 73
     1
 90
        2
 40
-0.6
 41
30.0
 62
     5
 63
     7
 74
     1
 91
       10
 64
     7
 65
   257
 75
     2
175
     1
 42
1.0
 92
        8
 66
   257
 43
1.0
 76
     1
 77
     6
 78
     2
 67
     7
 79
     3
170
     0
171
     0
290
     0
174
     0
 93
        5
 44
0.0
173
     0
291
     0
 45
0.0
1001
ACAD
1000
AcDbSavedByObjectVersion
1070
     0
  0
VISUALSTYLE
  5
3A
102
{ACAD_XDICTIONARY
360
30D
102
}
102
{ACAD_REACTORS
330
29
102
}
330
29
100
AcDbVisualStyle
  2
Shades of Gray
 70
    23
 71
     2
 72
     2
 73
     3
 90
        0
 40
-0.6
 41
-30.0
 62
     5
 63
     7
 74
     2
 91
        2
 64
     7
 65
     7
 75
     1
175
     1
 42
40.0
 92
        8
 66
     7
 43
1.0
 76
     1
 77
     6
 78
     2
 67
     7
 79
     3
170
     0
171
     0
290
     0
174
     0
 93
        1
 44
0.0
173
     0
291
     0
 45
0.0
1001
ACAD
1000
AcDbSavedByObjectVersion
1070
     0
  0
VISUALSTYLE
  5
3B
102
{ACAD_XDICTIONARY
360
30F
102
}
102
{ACAD_REACTORS
330
29
102
}
330
29
100
AcDbVisualStyle
  2
Sketchy
 70
    24
 71
     1
 72
     2
 73
     2
 90
        0
 40
-0.6
 41
-30.0
 62
     5
 63
     7
 74
     2
 91
        2
 64
     7
 65
     7
 75
     1
175
     1
 42
40.0
 92
       11
 66
     7
 43
1.0
 76
     1
 77
     6
 78
     2
 67
     7
 79
     6
170
     0
171
     0
290
     0
174
     0
 93
        1
 44
0.0
173
     0
291
     0
 45
0.0
1001
ACAD
1000
AcDbSavedByObjectVersion
1070
     0
  0
VISUALSTYLE
  5
36
102
{ACAD_XDICTIONARY
360
305
102
}
102
{ACAD_REACTORS
330
29
102
}
330
29
100
AcDbVisualStyle
  2
Thicken
 70
    13
 71
     2
 72
     2
 73
     0
 90
        0
 40
-0.6
 41
-30.0
 62
     5
 63
     7
 74
     1
 91
        4
 64
     7
 65
   257
 75
     1
175
     1
 42
1.0
 92
       12
 66
     7
 43
1.0
 76
     1
 77
     6
 78
     2
 67
     7
 79
     5
170
     0
171
     0
290
     0
174
     0
 93
        1
 44
0.0
173
     0
291
     1
 45
0.0
1001
ACAD
1000
AcDbSavedByObjectVersion
1070
     0
  0
VISUALSTYLE
  5
30
102
{ACAD_XDICTIONARY
360
2F9
102
}
102
{ACAD_REACTORS
330
29
102
}
330
29
100
AcDbVisualStyle
  2
Wireframe
 70
     5
 71
     0
 72
     2
 73
     0
 90
        0
 40
-0.6
 41
-30.0
 62
     5
 63
     7
 74
     1
 91
        4
 64
     7
 65
   257
 75
     1
175
     1
 42
1.0
 92
        0
 66
   257
 43
1.0
 76
     1
 77
     6
 78
     2
 67
     7
 79
     3
170
     0
171
     0
290
     0
174
     0
 93
        1
 44
0.0
173
     0
291
     0
 45
0.0
1001
ACAD
1000
AcDbSavedByObjectVersion
1070
     0
  0
VISUALSTYLE
  5
3C
102
{ACAD_XDICTIONARY
360
311
102
}
102
{ACAD_REACTORS
330
29
102
}
330
29
100
AcDbVisualStyle
  2
X-Ray
 70
    25
 71
     2
 72
     2
 73
     1
 90
        1
 40
0.5
 41
-30.0
 62
     5
 63
     7
 74
     1
 91
        0
 64
     7
 65
   257
 75
     1
175
     1
 42
1.0
 92
        8
 66
     7
 43
1.0
 76
     1
 77
     6
 78
     2
 67
     7
 79
     3
170
     0
171
     0
290
     0
174
     0
 93
       13
 44
0.0
173
     0
291
     0
 45
0.0
1001
ACAD
1000
AcDbSavedByObjectVersion
1070
     0
  0
DICTIONARYVAR
  5
79
102
{ACAD_REACTORS
330
76
102
}
330
76
100
DictionaryVariables
280
     0
  1
1:1
  0
DICTIONARYVAR
  5
78
102
{ACAD_REACTORS
330
76
102
}
330
76
100
DictionaryVariables
280
     0
  1
STANDARD
  0
DICTIONARYVAR
  5
77
102
{ACAD_REACTORS
330
76
102
}
330
76
100
DictionaryVariables
280
     0
  1
STANDARD
  0
DICTIONARYVAR
  5
2D8
102
{ACAD_REACTORS
330
76
102
}
330
76
100
DictionaryVariables
280
     0
  1
1
  0
DICTIONARYVAR
  5
2D7
102
{ACAD_REACTORS
330
76
102
}
330
76
100
DictionaryVariables
280
     0
  1
1
  0
DICTIONARYVAR
  5
2D6
102
{ACAD_REACTORS
330
76
102
}
330
76
100
DictionaryVariables
280
     0
  1
0
  0
DICTIONARYVAR
  5
2D3
102
{ACAD_REACTORS
330
76
102
}
330
76
100
DictionaryVariables
280
     0
  1
0
  0
DICTIONARYVAR
  5
2D4
102
{ACAD_REACTORS
330
76
102
}
330
76
100
DictionaryVariables
280
     0
  1
0
  0
DICTIONARYVAR
  5
2D2
102
{ACAD_REACTORS
330
76
102
}
330
76
100
DictionaryVariables
280
     0
  1
2
  0
DICTIONARYVAR
  5
2D1
102
{ACAD_REACTORS
330
76
102
}
330
76
100
DictionaryVariables
280
     0
  1
1
  0
DICTIONARYVAR
  5
2D5
102
{ACAD_REACTORS
330
76
102
}
330
76
100
DictionaryVariables
280
     0
  1
127
  0
DICTIONARYVAR
  5
2E4
102
{ACAD_REACTORS
330
76
102
}
330
76
100
DictionaryVariables
280
     0
  1
2
  0
DICTIONARY
  5
31E
330
6B
100
AcDbDictionary
280
     1
281
     1
  3
ACAD_XREC_ROUNDTRIP
360
31F
  0
DICTIONARY
  5
322
330
73
100
AcDbDictionary
280
     1
281
     1
  3
ACAD_XREC_ROUNDTRIP
360
323
  0
DICTIONARY
  5
320
330
6F
100
AcDbDictionary
280
     1
281
     1
  3
ACAD_XREC_ROUNDTRIP
360
321
  0
DICTIONARY
  5
1A
330
19
100
AcDbDictionary
280
     1
281
     1
  3
ACAD_XREC_ROUNDTRIP
360
2EB
  3
BUMPTILE
360
1C
  3
DIFFUSETILE
360
1B
  3
OPACITYTILE
360
1F
  3
REFLECTIONTILE
360
1E
  3
REFRACTIONTILE
360
20
  3
SPECULARTILE
360
1D
  0
DICTIONARY
  5
12
330
11
100
AcDbDictionary
280
     1
281
     1
  3
ACAD_XREC_ROUNDTRIP
360
2EA
  3
BUMPTILE
360
14
  3
DIFFUSETILE
360
13
  3
FBXASSET
360
F8
  3
OPACITYTILE
360
17
  3
REFLECTIONTILE
360
16
  3
REFRACTIONTILE
360
18
  3
SPECULARTILE
360
15
  0
DICTIONARY
  5
22
330
21
100
AcDbDictionary
280
     1
281
     1
  3
ACAD_XREC_ROUNDTRIP
360
2EC
  3
BUMPTILE
360
24
  3
DIFFUSETILE
360
23
  3
FBXASSET
360
BA
  3
OPACITYTILE
360
27
  3
REFLECTIONTILE
360
26
  3
REFRACTIONTILE
360
28
  3
SPECULARTILE
360
25
  0
DICTIONARY
  5
2E6
330
67
100
AcDbDictionary
280
     1
281
     1
  3
ACAD_XREC_ROUNDTRIP
360
2E7
  0
DICTIONARY
  5
28E
330
65
100
AcDbDictionary
280
     1
281
     1
  3
ACAD_ROUNDTRIP_2008_TABLESTYLE_CELLSTYLEMAP
360
2E5
  3
ACAD_XREC_ROUNDTRIP
360
31D
  0
DICTIONARY
  5
2F7
330
2F
100
AcDbDictionary
280
     1
281
     1
  3
ACAD_XREC_ROUNDTRIP
360
2F8
  0
DICTIONARY
  5
2F5
330
2E
100
AcDbDictionary
280
     1
281
     1
  3
ACAD_XREC_ROUNDTRIP
360
2F6
  0
DICTIONARY
  5
303
330
35
100
AcDbDictionary
280
     1
281
     1
  3
ACAD_XREC_ROUNDTRIP
360
304
  0
DICTIONARY
  5
30B
330
39
100
AcDbDictionary
280
     1
281
     1
  3
ACAD_XREC_ROUNDTRIP
360
30C
  0
DICTIONARY
  5
2FD
330
32
100
AcDbDictionary
280
     1
281
     1
  3
ACAD_XREC_ROUNDTRIP
360
2FE
  0
DICTIONARY
  5
301
330
34
100
AcDbDictionary
280
     1
281
     1
  3
ACAD_XREC_ROUNDTRIP
360
302
  0
DICTIONARY
  5
31B
330
41
100
AcDbDictionary
280
     1
281
     1
  3
ACAD_XREC_ROUNDTRIP
360
31C
  0
DICTIONARY
  5
309
330
38
100
AcDbDictionary
280
     1
281
     1
  3
ACAD_XREC_ROUNDTRIP
360
30A
  0
DICTIONARY
  5
2ED
330
2A
100
AcDbDictionary
280
     1
281
     1
  3
ACAD_XREC_ROUNDTRIP
360
2EE
  0
DICTIONARY
  5
2EF
330
2B
100
AcDbDictionary
280
     1
281
     1
  3
ACAD_XREC_ROUNDTRIP
360
2F0
  0
DICTIONARY
  5
2F1
330
2C
100
AcDbDictionary
280
     1
281
     1
  3
ACAD_XREC_ROUNDTRIP
360
2F2
  0
DICTIONARY
  5
2F3
330
2D
100
AcDbDictionary
280
     1
281
     1
  3
ACAD_XREC_ROUNDTRIP
360
2F4
  0
DICTIONARY
  5
2FB
330
31
100
AcDbDictionary
280
     1
281
     1
  3
ACAD_XREC_ROUNDTRIP
360
2FC
  0
DICTIONARY
  5
317
330
3F
100
AcDbDictionary
280
     1
281
     1
  3
ACAD_XREC_ROUNDTRIP
360
318
  0
DICTIONARY
  5
307
330
37
100
AcDbDictionary
280
     1
281
     1
  3
ACAD_XREC_ROUNDTRIP
360
308
  0
DICTIONARY
  5
319
330
40
100
AcDbDictionary
280
     1
281
     1
  3
ACAD_XREC_ROUNDTRIP
360
31A
  0
DICTIONARY
  5
2FF
330
33
100
AcDbDictionary
280
     1
281
     1
  3
ACAD_XREC_ROUNDTRIP
360
300
  0
DICTIONARY
  5
315
330
3E
100
AcDbDictionary
280
     1
281
     1
  3
ACAD_XREC_ROUNDTRIP
360
316
  0
DICTIONARY
  5
313
330
3D
100
AcDbDictionary
280
     1
281
     1
  3
ACAD_XREC_ROUNDTRIP
360
314
  0
DICTIONARY
  5
30D
330
3A
100
AcDbDictionary
280
     1
281
     1
  3
ACAD_XREC_ROUNDTRIP
360
30E
  0
DICTIONARY
  5
30F
330
3B
100
AcDbDictionary
280
     1
281
     1
  3
ACAD_XREC_ROUNDTRIP
360
310
  0
DICTIONARY
  5
305
330
36
100
AcDbDictionary
280
     1
281
     1
  3
ACAD_XREC_ROUNDTRIP
360
306
  0
DICTIONARY
  5
2F9
330
30
100
AcDbDictionary
280
     1
281
     1
  3
ACAD_XREC_ROUNDTRIP
360
2FA
  0
DICTIONARY
  5
311
330
3C
100
AcDbDictionary
280
     1
281
     1
  3
ACAD_XREC_ROUNDTRIP
360
312
  0
XRECORD
  5
31F
102
{ACAD_REACTORS
330
31E
102
}
330
31E
100
AcDbXrecord
280
     1
102
SHADEPLOT
 70
     0
102
SHADEPLOTRESLEVEL
 70
     2
102
SHADEPLOTCUSTOMDPI
 70
   300
  0
XRECORD
  5
323
102
{ACAD_REACTORS
330
322
102
}
330
322
100
AcDbXrecord
280
     1
102
SHADEPLOT
 70
     0
102
SHADEPLOTRESLEVEL
 70
     2
102
SHADEPLOTCUSTOMDPI
 70
   300
  0
XRECORD
  5
321
102
{ACAD_REACTORS
330
320
102
}
330
320
100
AcDbXrecord
280
     1
102
SHADEPLOT
 70
     0
102
SHADEPLOTRESLEVEL
 70
     2
102
SHADEPLOTCUSTOMDPI
 70
   300
  0
XRECORD
  5
2EB
102
{ACAD_REACTORS
330
1A
102
}
330
1A
100
AcDbXrecord
280
     1
102
MATERIAL
148
0.0
149
0.0
149
0.0
 93
        0
 94
      127
282
     0
 72
     0
 77
     0
171
     0
175
     0
179
     0
273
     0
  0
XRECORD
  5
1C
102
{ACAD_REACTORS
330
1A
102
}
330
1A
100
AcDbXrecord
280
     1
270
     1
271
     1
  0
XRECORD
  5
1B
102
{ACAD_REACTORS
330
1A
102
}
330
1A
100
AcDbXrecord
280
     1
270
     1
271
     1
  0
XRECORD
  5
1F
102
{ACAD_REACTORS
330
1A
102
}
330
1A
100
AcDbXrecord
280
     1
270
     1
271
     1
  0
XRECORD
  5
1E
102
{ACAD_REACTORS
330
1A
102
}
330
1A
100
AcDbXrecord
280
     1
270
     1
271
     1
  0
XRECORD
  5
20
102
{ACAD_REACTORS
330
1A
102
}
330
1A
100
AcDbXrecord
280
     1
270
     1
271
     1
  0
XRECORD
  5
1D
102
{ACAD_REACTORS
330
1A
102
}
330
1A
100
AcDbXrecord
280
     1
270
     1
271
     1
  0
XRECORD
  5
2EA
102
{ACAD_REACTORS
330
12
102
}
330
12
100
AcDbXrecord
280
     1
102
MATERIAL
148
0.0
149
0.0
149
0.0
 93
        0
 94
      127
282
     0
 72
     0
 77
     0
171
     0
175
     0
179
     0
273
     0
  0
XRECORD
  5
14
102
{ACAD_REACTORS
330
12
102
}
330
12
100
AcDbXrecord
280
     1
270
     1
271
     1
  0
XRECORD
  5
13
102
{ACAD_REACTORS
330
12
102
}
330
12
100
AcDbXrecord
280
     1
270
     1
271
     1
  0
XRECORD
  5
F8
102
{ACAD_REACTORS
330
12
102
}
330
12
100
AcDbXrecord
280
     1
 70
     1
 90
1959938040
 71
     1
  1
F71DD82B-181D-483A-880D-EA78B9BFFFAC
311
504B03040A0000080000AC4955423DEE336E79000000790000001B0000006175746F6465736B2D64657369676E2D7061636B6167652E786D6C3C3F786D6C2076657273696F6E3D22312E302220656E636F64696E673D227574662D3822203F3E3C666F726D6174733E3C666F726D61743E687474703A2F2F736368656D612E
311
6175746F6465736B2E636F6D2F64657369676E2D7061636B6167652F323030393C2F666F726D61743E3C2F666F726D6174733E504B0304140006080800AC495542D486FD9CA0000000F4000000130000005B436F6E74656E745F54797065735D2E786D6C7D8EC10E82300C865F65E91D8A1E8C310C0EEA1BF002731658846E
311
D98AC1B77784ABF1D8FE5FBFBF75BBCE937A534CCEB38643598122B6FEE978D0B0485F9C41B54DDD7D022595594E1A469170414C76A4D9A4D207E29CF43ECE46F218070CC6BECC4078ACAA135ACF422C856C0E68EA1BF5669944DDD7BCDE7B1F8E415D77AECB980613C2E4AC91FC167A2B244592486606FC29C8FD7F045B9A
311
EF7053A7E60B504B0304140006080800AC49554218D68000EA0000007C01000008000000636F72652E786D6C8D905B6EC3201444B782F8C7E6915AB685896AB75E41378080B82831583CAA2EBF3871A4F6AF5FF76A98C31D0D3F7FAF37F06542B4DE0D90541802E394D7D62D03CCE9825A08CE8207EFD32F1B044EAE6680BB
311
0C055F82CFDB2129EF9271A9A8CE6B73883246932050B7B20C30AA4FB3CA4AE6541CF15A6D525DE5622AF2DC0A9CB3D5E071C4EAF29FBD5813A020EDC8664C099A1AFC8A4EE3D4A1AE995FD0D4B1A66DE6B7F76964BCDE61C1935D9FF7553032190D05C584214C11251FB8EB09EBE909E1B6C798D7BBFD0F9437FD4F285B97
311
183DE23EB058B29620F707C1EBBD8B32EE4595B9F7267E00504B0304140006080800AC49554255019EA25F0000007C00000007000000636E782E786D6C4DCB3B0E80201045D1AD90E915ED2CF8AC45050C11660C8261F98AB1B07AC9C97D42D718D865D3E909258CFD00CCE24AC6E326A164D74DC0B4128928FF326038472B
311
A13128B1252AC747C6BAB984FC68F0B87FE8960A5C09FE86CFB69FBA01504B0304140006080800AC495542A646B66A66010000020300000C0000006662782F636F72652E786D6C8D525B6E833010BC8AE57F63032982C8386A6873825EC00187A2808D8C8D72FC2E8F88A68AA20AC958333BBBB303FC70EB5A342A3B3446E7
311
380C18464A97A66A749D63EF2E24C5E820B835C6FD2AC348CB4EE57882B1E0B535BE5FA1D268A7B403549B4AADA01C06E5302A5BB8E47828BF552703E91D540CD7A097E555D62A0803A0A14EF0C15930809621D389C5E57CE374C105F7BEA956B6A9605A736994C5224C8FF18945212912F64E76C7222359727A2345162769
311
72FAF82C8E31A7935870D7747777A555D2A90A8B888531611189C22F96EDC3781FED084BF78C713A953F887C5FFD53E41BEDE268B5BBC806F00A4666E2CFB6109143831CC10F159C4E21C26B4EF8316808044276F2DCDEF7B80234AAD219BB03A6327EA346D97A0553199A1F4E17163ACF0D60B3A77DA2177D5EF7800F2875
311
0DD6A483EBD9BB693A5FA6AE51F4CA92D1DD9036B693ED666EB1B89DDBA0A7F2D2B4C6FE474DD755E91A269DFE5EF103504B0304140006080800AC4955429EB294B97E0000009D0000000B0000006662782F636E782E786D6C4DCCD10E82201886E15B61FF390989211BE041C17DB844C7426804ADCB4F9B071D7DDBB36FAF
311
1C3E6B406F975F3E4505F44400B9784F938F8B825A66DC031AB4CC2995BF1BA038AE4EC1CEA0E592537D1E34B979ACA16C1A7C7C1CC8687BA39DE83027BCC78C1A8BFBD69EB1A04C74E66AEC857068B46C7EA56DF7B0FE02504B0304140006080800AC49554275852C2B2A01000014020000310000006662782F3431334431
311
3539352D373037382D343145462D383346322D3931343935454345463630372F636F72652E786D6C8D51CB6EC32010FC15C4293D6003B6133BC2E4D0265FD01F20405294182C1E553EBF503B527BCB8545B333B3A35D76784C77F0AD7D30CE8E905418026DA553C65E4798E205F5101C38F3CEC53F3408AC98F4080B0C39BB
311
7A97E61592CE466D6346AD537A0545083A4220EFF933C220BFF4242A916266845B350B7913575D912AB7338FB3107D0E009621E585BC25CD07E9860EEDF0AE472D399E50DF9C281A483B74C7F7E3698B77AC5E849CA564D42A372AC73117A3FDAB2645CC5934D333BEF45A44AD20A79834085344C9271EF6A4D9D316E17E8F
311
31AB0BFD9F28CDEA4551323636748DBBC802E484D54B8333E5D2F9FE0CA31FB3F31194799BA0E51BE4B8C2B81F6847B364A1E60564CF6DBB7A86E87C5EF0E676CE6CD22DC6DB96B3BADC2897DF03E65AEEC97F00504B0304140006080800AC4955422CE4D07A4C01000033030000300000006662782F34313344313539352D
311
373037382D343145462D383346322D3931343935454345463630372F636E782E786D6CD593BD6E032110845F05D1DFAF4F966371584A912748919683B54DCCC1899F287EFB2C3676DCB84899069D668799D5278EEDBE6743BEC007EDEC48BBBAA504AC744ADBC34853DC571B4A769C79E7E2838D122B66186996296707EFD2
311
5224057B914C44D5687B2AA287E092971050CE37897152180C005B2514619E402950E46EC4AF3D785C05C5E94CE211C8DBEB0771D327C818589353386B720767F92C4D0F264AA411218C34C823CCA216293A05E1542B1145DDD5B7AE273BFD26917CE15699BC26B97CA4F9A4BC6C542347D6E090B3103DD22BA6785E8072B1
311
2C464B11117273315E3D9C256DE37A285E8DE03DBABBF56A1830EC32E32CEA198A437A101114E57DDBADAAB6AFFAEEBD7DD976AB6D3F54ED66DBB6ACC976CE26E74CB98431E0DD42A4B3116CA4BC634D1E3FC3577C44698FAC9D3FFF01240228AD573AF78CFFCCA7B9BC6FC4E5F12FE03F504B0304140006080800AC495542
311
1D181812A505000081100000340000006662782F34313344313539352D373037382D343145462D383346322D3931343935454345463630372F6F626A656374732E786D6CAD57D98EDB3614FD15417D691F6C59B693780A8D022F71602493043112F4C180414994861D6A0149CD78FAF53D94285972EC895BE4450B97CB7BCF
311
3D77A1F7F69072EB910AC9F2ECD6768723DBA25998472C4B6EED52C583996DBDF53D91E7AAB3CCB63292D25B5B0FDBBE9788BC2CCC50446352727532BA5EFC65C99066D4B6424EA4BCB565784F533224A5CA232A1F8611516498C487A13BAC17F6C5268214F727420B2268A6A029C63348B16AA5DCFEEFC8767CCFD1F3BEA7
311
9F66D5E4F22AA7B2A77F3ECBA42259F8C361276226EE74F56EFCEA66F06A3A9D0CA6AFC7EE60B15EAC06EE9BC968F97AB9BC99BFBBC1C1520948329A081ADBFE7B602358E839F594EF952C5393B159621CE408FAC8B4A76C7F6CB99E53AF69AD33469E533FCCB38C86155640A3B2CF888E6841B3083E675442B30E42A3FEAF
311
AB71EC4C4FF4BF39B23B7C1D02DD1D1D418DEECDBBAB691EFC0D13E4350C12926A06D6581A436BAE8E8E080779CECD1C93564A14158C708BB34010F16CFB58AA97F85E4F8C66B2D0D1A02DB07D78A19EEED30561F4739E9FD3322E39D734B6FD2A0AF68815AA64A519FB878AA3F65D64A0137CA5D9303306A9E782DAFE4D4D
311
91D9099B6A20AD9893042E87997AE7647C62E852C7E96665FB1FD6C161AB63F7FCE185C80B2A94A60FA8D538AE796B948C4EEE559ED31BEC13558EA07C05F29F10EA4755E037C10ED3C3D49CA204C9649C8B14BEB146D66084C7C872ABA7FEEE7C794EBBB9EFBD4B78C2D91AAA5F8067DF86AE2F3B70FADE23089F8B89316D
311
1B128EB471C73200A44962F11C43C8C37170B0FD0DB21CB2327611EEBB3019EA3EE2D3738C18248AEAA4CE3B03962769F18A040DD82A46428D9AFC46C1A39F7E4867D5C166D925785FFD12BACE57DB0FDB52C424A47726A65734661953287147DE7415EA61DEB3E8813E3FE52282A13FE2BDEDE29D9AA324D0D6986BE09326
311
A7EB9FE3C9BD0342EC4B729D6EBC9F9C00237461EDC8BF6332A49C938CE66573EE8BF50365A3865807BB66725B608E8505A4A9674E6210453A14ACD020B6D5AA4D9AC30BD67DDB7C02236D7FF1FC913C77B35770CCBD61CE73B10F9EF7755A3A0BF5F73EB70D068E9602BA5741D2C4BF017D1FB1382E2592E0195CBF6F965D
311
DFE9B48014D148ADA3650AFB115C4418D2367251AD054125CDB33D43DD44DC9D3DA02B1F901A0654022F692C298FF78CF332DDC78CA31AED53525C80E3FFEB1F9469B127695E66EA82EC9EEAA80E7DDD7BEC954F4485F7B6BFADDE8305726F44A30B64D0B5E40C563DD7AEDFB8ABD56CBC18B833773598CE26F3C16C365A0D
311
DECDDFCC16378BF57A3D87E946A3AA89F2BDA6D474231A5E4269F34AC18CFBBE6D103F2609D8FE1D5172F7BE0ECFE6FD6D33442FEC39D8837AD96E9C478FE8FB68F47301C79567056DD282D394668AE818BAD31FFC2B419FD153A61EDFA424A15748F9FC7E7B620C46AED8F745C73B7D3AD96B46973A20CF0A51F7651A6484
311
F1938D498DE4B0C812835FE393F65D179AE657FF19C7A03395396711F2606425344FA94236BCA20889944A50AFDBD347E6EE71C5EEC7BA435424E0B4D1E49EA049E61261019297A1EA8F5BBFA1A9D37DD5AD8D723B7CC0C3640ADB02676E6D34E98A85540E031468DD0A55C2C1A56E270FCE922CE1E8B5EB4DED7FBB4B63D3
311
2BC9ED926BFA2763579DC28D01482305FA063444F04EA58CEF55BA99F9F03F19DEA8631185CFA054AD2DC781D698EA1884686D94B92DA0897930471F10A82F9BE50EAB353D44AEBA65BD48825AEA401191543705AD9F5169BEFAE2A043B1369FAD8297097C79BDA481A02073A9031C2C022B8CCC82285075F9E7EE8BC87193
311
4DAD350305ACDF0FB3D77FEC96799AE6593DB49B9BFBB0B5BDC7ED36DA2139507D2D91BBF1C81DEFAAEB80B9A1EC0322E99044F20103F0AC602DD03DF78397F59D1175A89E68D739DA15270CDDAC2C53D8A6106AE8D2CDAD1A1C341E19B51043FA4AA923A6BBA078F146E0544BA182402FEFFF0B504B0304140006080000AC
311
495542000000000000000000000000350000006662782F34313344313539352D373037382D343145462D383346322D3931343935454345463630372F76657274696365732E62696E504B0304140006080800AC495542F270F1330600000004000000360000006662782F34313344313539352D373037382D343145462D3833
311
46322D3931343935454345463630372F747269616E676C65732E62696E636660600000504B0304140006080000AC495542000000000000000000000000370000006662782F34313344313539352D373037382D343145462D383346322D3931343935454345463630372F617474726962757465732E62696E504B0304140006
311
080800AC495542D5987DFC8F00000041010000360000006662782F34313344313539352D373037382D343145462D383346322D3931343935454345463630372F6469726563746F72792E786D6C858F410EC2201045AF4266AF15DDB800BA74E7C21B903225242D6328188F2FA5C4183471359997F9FF81E89FF3C41E181647
311
5E02DF1F80A11FC8386F25A438EECEC07A250251FC3803E6F58C12560C4AD840E95E91C151A72936F496F35732D860FE635F62C8F2DA16B505C545B74125BAA2FA9E05D7CC053D063734D5C7665FD55B6B8D15D5E9BFEAFD8490FFA45E504B0304140006080800AC4955420B7DAE98FC000000A00100003B0000006662782F
311
34313344313539352D373037382D343145462D383346322D3931343935454345463630372F7265736F75726365732F636F72652E786D6C8D504B6E833010BD8AE5BDC1362982C8382AB49CA017B0CC84580936F2A7EAF16B0295DA5D3733A3F7D13C3D71F95A1EE8137C30CE7698151423B0DA4DC6CE1D4EF14A1A8C2E5278
311
E7E22F1946562DD0E10DC652CCDEA5F580B4B3116CCCA875131CA00A012246FA918F0E077D8345152AC5AC08F76255FAAE66285891E9AC9322449F03A0FDC936B1F4105CF21A822877568A94CC7468CC947F9AAB018F256BFA6AA49C92A1A6AFE4D40F2D69EBF1850C6D5537F5F8F63EF4952837B314D12C3F19B5071561C2
311
92535611CA09671FB43DB3EACC4F8436674A45B9C9FF98D23AFDD3948C8D153FE2EEB690B3E6204F428A72EB2BAF6799796FDDCA6F504B010214000A0000080000AC4955423DEE336E79000000790000001B00000000000000000000000000000000006175746F6465736B2D64657369676E2D7061636B6167652E786D6C50
311
4B01021400140006080800AC495542D486FD9CA0000000F40000001300000000000000000000000000B20000005B436F6E74656E745F54797065735D2E786D6C504B01021400140006080800AC49554218D68000EA0000007C010000080000000000000000000000000083010000636F72652E786D6C504B01021400140006
311
080800AC49554255019EA25F0000007C000000070000000000000000000000000093020000636E782E786D6C504B01021400140006080800AC495542A646B66A66010000020300000C00000000000000000000000000170300006662782F636F72652E786D6C504B01021400140006080800AC4955429EB294B97E0000009D
311
0000000B00000000000000000000000000A70400006662782F636E782E786D6C504B01021400140006080800AC49554275852C2B2A0100001402000031000000000000000000000000004E0500006662782F34313344313539352D373037382D343145462D383346322D3931343935454345463630372F636F72652E786D6C
311
504B01021400140006080800AC4955422CE4D07A4C010000330300003000000000000000000000000000C70600006662782F34313344313539352D373037382D343145462D383346322D3931343935454345463630372F636E782E786D6C504B01021400140006080800AC4955421D181812A5050000811000003400000000
311
000000000000000000610800006662782F34313344313539352D373037382D343145462D383346322D3931343935454345463630372F6F626A656374732E786D6C504B01021400140006080000AC4955420000000000000000000000003500000000000000000000000000580E00006662782F34313344313539352D373037
311
382D343145462D383346322D3931343935454345463630372F76657274696365732E62696E504B01021400140006080800AC495542F270F13306000000040000003600000000000000000000000000AB0E00006662782F34313344313539352D373037382D343145462D383346322D3931343935454345463630372F747269
311
616E676C65732E62696E504B01021400140006080000AC4955420000000000000000000000003700000000000000000000000000050F00006662782F34313344313539352D373037382D343145462D383346322D3931343935454345463630372F617474726962757465732E62696E504B01021400140006080800AC495542
311
D5987DFC8F0000004101000036000000000000000000000000005A0F00006662782F34313344313539352D373037382D343145462D383346322D3931343935454345463630372F6469726563746F72792E786D6C504B01021400140006080800AC4955420B7DAE98FC000000A00100003B000000000000000000000000003D
311
1000006662782F34313344313539352D373037382D343145462D383346322D3931343935454345463630372F7265736F75726365732F636F72652E786D6C504B0506000000000E000E0080040000921100000000
310
504B03040A0000080000AC4955423DEE336E79000000790000001B0000006175746F6465736B2D64657369676E2D7061636B6167652E786D6C3C3F786D6C2076657273696F6E3D22312E302220656E636F64696E673D227574662D3822203F3E3C666F726D6174733E3C666F726D61743E687474703A2F2F736368656D612E
310
6175746F6465736B2E636F6D2F64657369676E2D7061636B6167652F323030393C2F666F726D61743E3C2F666F726D6174733E504B0304140006080800AC495542D486FD9CA0000000F4000000130000005B436F6E74656E745F54797065735D2E786D6C7D8EC10E82300C865F65E91D8A1E8C310C0EEA1BF002731658846E
310
D98AC1B77784ABF1D8FE5FBFBF75BBCE937A534CCEB38643598122B6FEE978D0B0485F9C41B54DDD7D022595594E1A469170414C76A4D9A4D207E29CF43ECE46F218070CC6BECC4078ACAA135ACF422C856C0E68EA1BF5669944DDD7BCDE7B1F8E415D77AECB980613C2E4AC91FC167A2B244592486606FC29C8FD7F045B9A
310
EF7053A7E60B504B0304140006080800AC4955421542B108E90000007C01000008000000636F72652E786D6C8D904D6EC3201085AF82668F0DD8917F8489ECB637E8051010072506CB40D5E317278ED4EEBA9AD19BF7CD8C1E3F7F2F77F465B660BD1B8016049071CA6BEBE60152BCE016D059F0CDFBF8CB06C8C9C50CB0CB
310
20F8BCF9B41E92F22E1A17B3EABC36872843301190BAE76680A0AE6691854C313BC2AD58A5BAC9D914F4D5653825ABD1F388D5799FBD58B3813855E3D41052613A3514D7D3DB88A79A36B81BDB137D9FBA76FC60BCDC61C1A35D5EF7D56664341A0423B4C28461463F49D7D3AA6735266D4F082F77FB1F28ADFA9F50B22E56
310
EC78F7890510343FF218085EEE59E4F2082AD73D37F103504B0304140006080800AC49554255019EA25F0000007C00000007000000636E782E786D6C4DCB3B0E80201045D1AD90E915ED2CF8AC45050C11660C8261F98AB1B07AC9C97D42D718D865D3E909258CFD00CCE24AC6E326A164D74DC0B4128928FF326038472BA1
310
3128B1252AC747C6BAB984FC68F0B87FE8960A5C09FE86CFB69FBA01504B0304140006080800AC495542E51F772C65010000020300000C0000006662782F636F72652E786D6C8D52ED8E8320107C15C27F04D4A61F411ABDBB37B817A04A3D528506C1F4F16FAD36BD5E9AA6314132B3B33B3B2AF697BE43A3F68371B6C03C
310
6118695BBBC6D8B6C0311CC906A3BD14DEB9F0A70C23AB7A5DE009C652B4DEC5F302D5CE066D03A0D6357A01D530E88051DDC1A5C043FDA37B95A818A062382567559F54AB139E000D75520CC18301340F994E2C8F878BA0332E458CA65958D3C0347334DA63B9CACA6ACD584678B5E624AF3E4A52E57C4DB6E566C53FABED
310
A6FC4A059DC45204D3DFDCD55EABA01B2C53C633C25292F26FB6DDF16C97E6846D768C093A953F88E2B97953148D0D59BAD89D6503961C8C5C897FDB4244010D6A043F540A3A8508AF6BC28F41432010725087EEB6C709A051D7C1F91C98C6C53B35AA2E6A98CAD0F5117466A1F3B5016CF6B44FFAA2CFEB1EF001956DC19A
310
0A703DC4304D17F3D4258AB3F6640C17649DEF557737375BBC9FF7414FE5B5EB9C7F474D9755E912269DFE5EF90B504B0304140006080800AC4955426A04E4ED7E0000009D0000000B0000006662782F636E782E786D6C4DCCDF0A83201C86E15B91DFB92B23FF0CCC0E74DE472C0B99E9703A76F9ABD1C18E3E78F878E5F8
310
D9027ABBFCF2290E402E2D2017EF69F6711DA096050B40A39239A5F2770314A7CD0D703028B9E6549F27CD6E996A28BB061F1F2712D6DBCE508B756729EE6F846261AE0C336EB4105DAB3917D028D9FC4AFB1E61F505504B0304140006080800AC49554298FA583F2C01000014020000310000006662782F31363446324435
310
462D433246352D344531352D384439362D3637444338383230433737382F636F72652E786D6C8D51CB6EC23010FC95C8277A70623B2604E49803942FE80F98C48005B1233F2A3EBFEB2648ED8D8BD79A9D991DED8AFD737C14DFDA07E36C87684950A16DEF0663AF1D4AF1825B54ECA5F0CEC53F34545835EA0E65184971F5
310
2E4D0BD43B1BB58D805A37E8055421E8888AFE019F0E85FEA64755AA148111EEE5A4FABBBAEA9296D0069E14217A0850CC43F28B246DF8891DD7277C60A735E69F748DDBE3B6C1CDE678685B460E9B4D2BAA5928454A6658E4668038E662B47FD7248BA588667CC5EFBD56510F4832426B4C1866F48B6C77B4DE318E49BB23
310
445499FE4F94A6E14D513236D66C893BCB026415D5DC906270E9FC7885D1CFC9F958E479ABA0FB0F24494928A77CDB5251CD54580078367CF10CD17958F0EA7E06760DAC6CDC7029AA7C2328BF07849AEF297F00504B0304140006080800AC4955424A431F6D5401000033030000300000006662782F31363446324435462D
310
433246352D344531352D384439362D3637444338383230433737382F636E782E786D6CBD93CD6EC32010845F0571F7BF15B91126520F7D821E7AC5B04969305880ABE6EDBB2424CD25874A552FC89A1D66569F30DB7DCD867C820FDAD99136654D0958E994B68791AE715F0C94EC38F3CEC53B1B2556CC30D22453CE0EDEAD
310
4B9614ECC56A22AA46DB63163D04B77A0901E57493182785C100B0C58A22CC1328058ADC8CF8B5078FABA0389D487C07F2F2FC46DCF401320656A514CEAAD4C1593A73D39D8912694408230DF21D66518A353A05E1582A1145D994D7AE073BFD249174E15AB97A4D52F948D34979DEA8448EACC22167217AA4974DF1B400E5
310
62598C962222E4EA6CBC78385BB58D9B3E7B3582F7E8EEDACD3060D879C659D4336487F4202228CADBBAE98ABA2DDAE6B57EDA36DDB6ED8B7AD8D635AB929DB3C939932F610C78B710E96C041B296F5895C68FF0651F51DA236BE74FBF00890072EB85CE2DE32FF9349BAEEFFF914F757EDF88CBE35FC0BF01504B03041400
310
06080800AC4955428CDBCE96640700009A1B0000340000006662782F31363446324435462D433246352D344531352D384439362D3637444338383230433737382F6F626A656374732E786D6CED59DD73A33610FF5718FAD23E189BD8B9733A849BC4BEDC78DAB43775EFA60F9E616490891A2118492471FFFAAE3EC0404C82
310
7BE9DB3DD8809056BBBFFDD4127C78CAA8F380B92039BB747D6FE23A98C57942587AE99672379ABBCE8730E0792E1BD35C87A10C5FBA6AD80D8394E765618712BC4325959DD19BEBBF1C1163865D27A648884B57C47738431E2A659E6071EF2548222FDD3D79BE6726B6C9A61C15771DA205E29849E014C61950710C537EFB
310
71E28EC360ACDE8781FAB7B3A68366CDFA678DB5D46D2E091312B1F8194B1D32D3412C4DFDD9F2E3D9F9C5E87C369B8E66EFCEFCD1F5CDF572E4BF9F4E16EF168B8BAB8F17C0DE36CFA99529C1056609E86FEF867E30566F6AD12D02C7B88E73C670AC8104A8B4585D82040BD8AA01DFA4FDE82B891AAFB5848DE7997A6F59
310
680C4FDB54FA660D03A2451704B1DB551257D7A67CF9F66F105C0C314A2EB0046E85E4A05D0B0F07AF70C3493036A361B03DE882082743127382A843C996230E4A81A96A4A189805968C720E0EA41C2581D69C79DDB62DF0CCD75DE71897BB9252E5196EA81D2B02F7C35268CEC83F981FB86F22033C81B42561726EB994FB
310
02BBE14530D68361A02ED333FBD200E9EC284A8546C4BCED08BA50AEBF5ABAE12F37DBA7B50A07C7372F785E602E95D1293D6ABEC090ED55A164B7F507694E2D00610CA876E501943F00F9DF207A1C5801BD71F2347B9AD9B99223267639CF4037CEC4194DE06FE2F8FA5FDD37EE8271BDB8ADBD3E3CC14D1554F36FC7B32D
310
83C6CAF2DF80330C1EC0E0733EB5AFD631A260CFB7840140CA481C9AC31084F6DDF6C90D57103821D0C32A44431F4406761FE036185B3207AD54EE65BD8E01A2768FE91025016CDA22818D1E3D7D82ECC1497C505353C43E78CFDFC45CAF96EB5FD625DFA118DF5A9F5EE21D614442D63CCE500BF39644F778FF98F304047D
310
8EF7BA897766B71280B6C25C019F5620A887C3CEAD0D625897E62ADC04AFEC0042A85CDDA07F4B448C29450CE765B56F1DDD94A1D61E6F6B06373C33104FCF3A26CCF10351550538CD61468B51C8FB31278502D10D3F19C9EAA0E9F548F765F51B58643DBF67D68A41E86588FEA983D6111C5A965D216D81A805DE1EC2799C
310
D39C47DB7D64229D0BB504B0D1F696AF2DA210EB8D921415F020ED775548498DB4514276BB52405C3DC2E2D7D5A2690E136FEA9F3BCDFF8E33CE20DA82EF226EFDAEB347443294E2688792BEED9ABBD5B48526D9439AE31D05B9C80391FB08C96892E0F414684E227EF1A6D4539A0B41181690AF8E82DF4463E2412031DAAC
310
58565AED004D44946189E8290828323DE0EAB4A36BDC184A87D779ACADF7258D3589FE4F16C111D492398B0894A290435E65DCF7CE2186B4D1352877F0056BAB686B3168092544BC8F1E3149EFE429A81BF23DB8C77024296594172806B31E40F699AF28A57678DFA2F85EE58F282EE95B1988C07417114ACB2C821F6170F2
310
18E2DA75607A1185067113FB24CEA02843B2E4433679773E79B68FA919BA21B0B1D18E5008DB51868A1ED45B0151D7234E0DBEA5DEA3D46D991511CAF2920D32146FDAF5264BBEAB56457620BFAA5484B2B1226C09860161B2CEAA55CC0653D78115DC4807AA7D24505650730A7B25F1F8B53769CABD1B70EBA76FBB410685
310
5F8FF69A117556C160796C1506E211C9F8CE0DD7FA3ABA86FA3BC1C921D557B566B30204C454242F39B12AFAB282F2C6D6686E788BA4D87C3259B7BA7E5979D0FD08C6B0066A977AE14A019D612691AA4C6ED50DFD0341086ED130E32B95534FA1729524BA6A44F486F4A9B35546B436CD8857DC619667F0631BC2625A2678
310
8312711FDD4A1AAD8962DD4AE965A4C2F845017FFFB4EEC003230344FAAC0A3CFCD8596B4717AA5C3A4A44DE95D996210241B0255A6A74E3152CB51AA9B45C5FD59902EA2E3030ABE2D9F79345B31DF1FD64915AC3F8A693C5F5FE57B46FF6451AE93C56767DD231A0CE4F8ACA5B1C0374DBA1A65A671193CCADFCD6992208
310
8A55941F5C8D5541C310ECE3F83F67EDBE2C68B6EBF07F5AD6F69F551C276595D664D5A53A52B9AE9A39ECE6BDBF5CCECFAE47FEDC5F8E66F3E9D5683E9F2C471FAFDECFAF2FAE6F6E6EAE16359ADA51C3A00E663A77C1B3096AD5B07AB218405756E49424709A4F9C1443CC9770A61FD03EE71916903C9BCDEEC436E507AC
310
7E307D4E89B614579CDC2168105301691D302A63D91E777E80D6A48483F6A50B4D23EF1EFEAC55BA0E649E4B175A0592C458785B6833A9869E260E2957E77E4B0CF0412C5529D12CAA9FEB550A9B56F8AFA70C490356AE560F030AB702BA5FAD0E85E6CDF2149F2478C58E8324DC6E4B09D59A91E530500BA3B739A8DFC846
310
09BBB75B3F81EBBE2C96EFE9392D44067D3278D1080CD591443CD5FD6EC59865E96AF9790C7D3667F5BB53D032055D0EA734E2188CB954051558115885A5592009A6BAF879F399E7F08927737455E4FCF8347FF7D366916759CECCD0E60A4E65097C2872D677F0D927D940F18055735D6CCE26FED94637B56D9F3DDA22813D
310
5515C140554C28413A260776F9AC4165DB9763A58ACEF4D5D2B141149A01C68E9EF578CD472E077C487D4E511EA3FDBC92F6C5BEF6584F059BE0D0910EFF05504B0304140006080000AC495542000000000000000000000000350000006662782F31363446324435462D433246352D344531352D384439362D363744433838
310
3230433737382F76657274696365732E62696E504B0304140006080800AC495542F270F1330600000004000000360000006662782F31363446324435462D433246352D344531352D384439362D3637444338383230433737382F747269616E676C65732E62696E636660600000504B0304140006080000AC49554200000000
310
0000000000000000370000006662782F31363446324435462D433246352D344531352D384439362D3637444338383230433737382F617474726962757465732E62696E504B0304140006080800AC495542D5987DFC8F00000041010000360000006662782F31363446324435462D433246352D344531352D384439362D3637
310
444338383230433737382F6469726563746F72792E786D6C858F410EC2201045AF4266AF15DDB800BA74E7C21B903225242D6328188F2FA5C4183471359997F9FF81E89FF3C41E1816475E02DF1F80A11FC8386F25A438EECEC07A250251FC3803E6F58C12560C4AD840E95E91C151A72936F496F35732D860FE635F62C8F2
310
DA16B505C545B74125BAA2FA9E05D7CC053D063734D5C7665FD55B6B8D15D5E9BFEAFD8490FFA45E504B0304140006080800AC49554206E99F90FB000000A00100003B0000006662782F31363446324435462D433246352D344531352D384439362D3637444338383230433737382F7265736F75726365732F636F72652E78
310
6D6C8D50496E843010FC0AEABBC106462C321E41921FE40396E921D60C36F212E5F9310391925B2EDDAD5AD4A5E2D7AFF5917DA2F3DA9A01584E2143A3ECACCD32400C37D2427615DC591B7EC9203372C5017618045F9C8DDB09296B029A905063673C41E93D06C8D4231D0378F581ABCC650C49E1EFF926D55D2E98B33CD1
310
4927B80F2E05C88E27FB04E1D0DBE8147A5E1CACE031EAF9D4E839FDD4378D0EC4A51AA786D292B0A961A49E5E4632D5AC21DDD85ED8EBD4B5E35BC98BDD2C78D0EB4F46E550069C4194945524D94BF64EBB9E557D5913DAF694F26297FF31C56DFEA7296A13AAF28C7BD83C0896823C09C18BBDAFB49E65A6BD772BBE0150
310
4B010214000A0000080000AC4955423DEE336E79000000790000001B00000000000000000000000000000000006175746F6465736B2D64657369676E2D7061636B6167652E786D6C504B01021400140006080800AC495542D486FD9CA0000000F40000001300000000000000000000000000B20000005B436F6E74656E745F
310
54797065735D2E786D6C504B01021400140006080800AC4955421542B108E90000007C010000080000000000000000000000000083010000636F72652E786D6C504B01021400140006080800AC49554255019EA25F0000007C000000070000000000000000000000000092020000636E782E786D6C504B0102140014000608
310
0800AC495542E51F772C65010000020300000C00000000000000000000000000160300006662782F636F72652E786D6C504B01021400140006080800AC4955426A04E4ED7E0000009D0000000B00000000000000000000000000A50400006662782F636E782E786D6C504B01021400140006080800AC49554298FA583F2C01
310
00001402000031000000000000000000000000004C0500006662782F31363446324435462D433246352D344531352D384439362D3637444338383230433737382F636F72652E786D6C504B01021400140006080800AC4955424A431F6D54010000330300003000000000000000000000000000C70600006662782F31363446
310
324435462D433246352D344531352D384439362D3637444338383230433737382F636E782E786D6C504B01021400140006080800AC4955428CDBCE96640700009A1B00003400000000000000000000000000690800006662782F31363446324435462D433246352D344531352D384439362D3637444338383230433737382F
310
6F626A656374732E786D6C504B01021400140006080000AC49554200000000000000000000000035000000000000000000000000001F1000006662782F31363446324435462D433246352D344531352D384439362D3637444338383230433737382F76657274696365732E62696E504B01021400140006080800AC495542F2
310
70F13306000000040000003600000000000000000000000000721000006662782F31363446324435462D433246352D344531352D384439362D3637444338383230433737382F747269616E676C65732E62696E504B01021400140006080000AC4955420000000000000000000000003700000000000000000000000000CC10
310
00006662782F31363446324435462D433246352D344531352D384439362D3637444338383230433737382F617474726962757465732E62696E504B01021400140006080800AC495542D5987DFC8F000000410100003600000000000000000000000000211100006662782F31363446324435462D433246352D344531352D38
310
4439362D3637444338383230433737382F6469726563746F72792E786D6C504B01021400140006080800AC49554206E99F90FB000000A00100003B00000000000000000000000000041200006662782F31363446324435462D433246352D344531352D384439362D3637444338383230433737382F7265736F75726365732F
310
636F72652E786D6C504B0506000000000E000E0080040000581300000000
  0
XRECORD
  5
17
102
{ACAD_REACTORS
330
12
102
}
330
12
100
AcDbXrecord
280
     1
270
     1
271
     1
  0
XRECORD
  5
16
102
{ACAD_REACTORS
330
12
102
}
330
12
100
AcDbXrecord
280
     1
270
     1
271
     1
  0
XRECORD
  5
18
102
{ACAD_REACTORS
330
12
102
}
330
12
100
AcDbXrecord
280
     1
270
     1
271
     1
  0
XRECORD
  5
15
102
{ACAD_REACTORS
330
12
102
}
330
12
100
AcDbXrecord
280
     1
270
     1
271
     1
  0
XRECORD
  5
2EC
102
{ACAD_REACTORS
330
22
102
}
330
22
100
AcDbXrecord
280
     1
102
MATERIAL
148
0.0
149
0.0
149
0.0
 93
        0
 94
      127
282
     0
 72
     0
 77
     0
171
     0
175
     0
179
     0
273
     0
  0
XRECORD
  5
24
102
{ACAD_REACTORS
330
22
102
}
330
22
100
AcDbXrecord
280
     1
270
     1
271
     1
  0
XRECORD
  5
23
102
{ACAD_REACTORS
330
22
102
}
330
22
100
AcDbXrecord
280
     1
270
     1
271
     1
  0
XRECORD
  5
BA
102
{ACAD_REACTORS
330
22
102
}
330
22
100
AcDbXrecord
280
     1
 70
     1
 90
1959938040
 71
     1
  1
CC95E06C-E7AA-45CE-AB51-F3BB02A4838E
311
504B03040A0000080000AB4955423DEE336E79000000790000001B0000006175746F6465736B2D64657369676E2D7061636B6167652E786D6C3C3F786D6C2076657273696F6E3D22312E302220656E636F64696E673D227574662D3822203F3E3C666F726D6174733E3C666F726D61743E687474703A2F2F736368656D612E
311
6175746F6465736B2E636F6D2F64657369676E2D7061636B6167652F323030393C2F666F726D61743E3C2F666F726D6174733E504B0304140006080800AB495542D486FD9CA0000000F4000000130000005B436F6E74656E745F54797065735D2E786D6C7D8EC10E82300C865F65E91D8A1E8C310C0EEA1BF002731658846E
311
D98AC1B77784ABF1D8FE5FBFBF75BBCE937A534CCEB38643598122B6FEE978D0B0485F9C41B54DDD7D022595594E1A469170414C76A4D9A4D207E29CF43ECE46F218070CC6BECC4078ACAA135ACF422C856C0E68EA1BF5669944DDD7BCDE7B1F8E415D77AECB980613C2E4AC91FC167A2B244592486606FC29C8FD7F045B9A
311
EF7053A7E60B504B0304140006080800AB495542CEAFD296E90000007C01000008000000636F72652E786D6C8D505B6EC32010BC0AE21F9B8793D816265294E404BD00828D8B128365A0EAF18B13476AFFFAB5BBB333BBA391C7EFE981BE60892EF801B38A6204DE04EBFC38E09C6EA4C5E8A8E41242FA45C3C8EB0906BCC2
311
58C9710979DE20137C029F0AEA83850DD43142C2C83C4A33E0683E61D295CEA930E2BD9AB5B9EB112AF6EE8A386767D1EB89B3E59EBB3958B062CD85EE5AB627677A3A9046F0969CBAC39E74577E15BC3977976627EB55AC6472D3FBBF594027B05871CA04A19C70F641BB9E899E97B1ED2995F54AFF23CAB3FDA7283B9F04
311
DFECBE64B1782D469E0B25EB358B529E4195BAE6A67E00504B0304140006080800AB49554255019EA25F0000007C00000007000000636E782E786D6C4DCB3B0E80201045D1AD90E915ED2CF8AC45050C11660C8261F98AB1B07AC9C97D42D718D865D3E909258CFD00CCE24AC6E326A164D74DC0B4128928FF326038472BA1
311
3128B1252AC747C6BAB984FC68F0B87FE8960A5C09FE86CFB69FBA01504B0304140006080800AB4955425F6BE46D64010000020300000C0000006662782F636F72652E786D6C8D52ED8E8230107C95A6FFA1A5A082293531EA13DC0B54A81C115A525AE2E3DFF261382FC65C48A0ECECECCC0EF0C3A36DD0A06C5F1B9DE328
311
A418295D98B2D6558EBDBB05294607C1AD31EE571B465AB62AC763190B5E59E3BBA55418ED947650D5A6544B51F6BD7218150D1C72DC17DFAA95A1F40E3AFA7BD8C9E22E2B154621C0D02778EF2C1840B3C878C7E2767D7032D705F7BE2E17B42E41ADBED5CA62112567BA49A36D70A2C75D90C42C0D8ED96E1B6417768959
311
72CACEC98693912CB8ABDBA7BBC22AE9548905A3511C5016B0E88B66FB28DE33784DF7947232B6BF907C57FE93E46BED62B6D89D693D78052313F0675B88C8A15E0EE087084EC610E13125FC1A340402213B796D9E7BDCA134A8C2199B00521ABF42836CBC02558AA68B931985C9D300D8ECED1CF661CEE719F001A5AEC09A
311
7470BC7A37AAF3597589A2533618DC0369635BD9ACE6668BEB7D157A4B2F4C63EC7FD86459952C6192F1EF153F504B0304140006080800AB495542E4EE5ABB7D0000009D0000000B0000006662782F636E782E786D6C4DCCD10AC2201886E15B91FFDCA62D99813A16EA7D8CE686E4344CA3CB6F8B1D74F4C1C3C72BFACF1A
311
D0DBE5974F51023D11402EDED3E4E322A196197340BD1239A5F2770314C7D549D819945872AACF8326378F35944D838F8F034D670931DD808DE5045F386BF1A0B9C6E71BBD6AC6196D2D874689E657DA760FAB2F504B0304140006080800AB495542AED214D22A01000014020000310000006662782F45374630304537412D
311
454638302D343835332D414438442D3242313944353835313346382F636F72652E786D6C8D51DB6E022114FC15C2937D6017F6A268588C8DFA05FD010A68892E6CB8347E7EA1BB26ED9B2F1C1866E64CCE61FBC77807DFDA07E3EC00498521D0563A65EC7580295E108560CF99772EFEA14160C5A8075860C8D9D5BB342D90
311
74366A1B336A9DD20B2842D0110279CF970106F9A5475189143323DCAA49C89BB8EA8A54F93BF3380BD1E700606E524EC84F9B33C6A7CD019DCE14A38EF62D3A1CE91135EF647BEC694FDA3365F52CE42C25A316B951398EB918ED5F352962CEA2199FF1A5D7226A057983498B70831AF281B73BD2EE9AFCA43B8C595DE8FF
311
4469522F8A92B1B16D96B8B32C404E583D7F70A65CFABC3FC3E8C7E47C04A5DF2A68F90639AE30A19BAEEFD7AC9EA97900D973DD2D9E213A9F07BCBA7D6636E967E375C7595D7694CBEF02732DFBE43F504B0304140006080800AB4955426A893DF54C01000033030000300000006662782F45374630304537412D45463830
311
2D343835332D414438442D3242313944353835313346382F636E782E786D6CD593CD6EC23010845FC5F23DFF0851E418A9873E410FBD3AF6022E8E1DF9A72A6FDF3518CA85438FBD58C9ECE799D52861BBEFD9902FF0413B3BD2AE6E29012B9DD2F630D214F7D586921D67DEB9F8805162C50C23CD32E5ECE05D5A8AA4602F
311
9289A81A6D4F45F4105CF21202CAF926314E0A830660AB8422CC1328058ADC417CDA83C755509CCE241E81BCBD7E10377D828C8135D985B326677096CF92F40051228D0861A4411E6116B548D12908A75A8928EAAEBE653DD9E9D789E40BB7C8E435C9E123CD27E565A31A7B640D0E390BD1637B058AE7052817CB62B41411
311
4B6E2EE095E12C691BD7ABC26A2CDE23DDAD87D50ACD2E33CEA29EA110D28388A028EFDB6EA8DABEEABBF7F665DB0DDB1E5F37DBB6654DC6399B9C33E512DA80770B91CE46B091F28E3579FCACBEC211A53D76EDFCF90F45620125F5DACEDDE33FF7D35CBE6FACCBE35FC07F00504B0304140006080800AB495542326B5D18
311
A405000080100000340000006662782F45374630304537412D454638302D343835332D414438442D3242313944353835313346382F6F626A656374732E786D6CAD57DB6EDB3810FD1541FBB2FBE08B6C274D168A0ADB490AA3485BD468B10F060C4AA2146EA80B482A71F6EBF750A464C9B553EFA22F96450D873367CE5CE8
311
BFDF65DC79A642B222BF71BDE1D875681E1531CBD31BB752C9E0CA75DE07BE280AD511739D9C64F4C6D5CB6EE0A7A2A84ABB14D384545C1DACDE2FFE72644473EA3A112752DEB8327AA41919924A1531954FC39828324C93DDD01B1AC1BEDA5490F2F140694904CD152CC57A0E2D8E31CAEBBF8EDD51E08FF4F7C0D7BF566A
311
7A5A6A54FBD33F9FE552913CFAE1B00335536F767B37B9B81E5CCC66D3C1EC72E20D16F78BDB81F76E3A5E5E2E97D7F3BB6B1C2C9580266B89A0891B7C00368245FEC87C0AFC8AE56A3AB122364023419F998E941B4C1CCF1F1999D63BEBE431F3A322CF69546305346AFFACEA9896348F117346252CEB2034EEBF7A1AC7CE
311
E7A97EB7477697CF43A0BBA3A3A8B1BD79762D2DC2BFE1823C87414252CD4083A575D47075BC47382C0A6EBF31E9644451C10877380B0511AF6E00512D12F83D359AC9426783F6C00D1005F3B94F17A4D1CF797ECCCAA4E25CD3D80DEA2CD82257A892B565EC1F2AF6D67791814D889566C3957548BD96D40DAE0D45AE0ED8
311
648074124E52841C6EEA9DD3C981A34B9DA7AB5B37F8781FEED63A778F1F5E8AA2A44269FA805A4DE09AA746C9DAE49D1539BDC13D30650FCA5720FF09A9BE370571136C37DBCDEC294A905C2685C8101B67EC0CC6F8193B5EFDABFF77FEF9A376733F7AA7F044B03554BF00CFBE0FDD5876E00CFC6710BE1053EBDA3A221C
311
65E381E5004893C4E1059650879370E7062B54395465EC223CF0E032CC7DC65F7F64D5A050D427759E39B03C288B671468C05633126618F25B03F771FAA19CD5075BB153F05EFC12BACE6FD71FD7954848441F6C4EDFD284E54CA1C5ED79D335A88779CFA327FAFA5288188EFE88F7BA8B77668F92405B63AE814F9B9AAE5F
311
F627F70E88B02F2D74B9F17F72029CD08DB5A3FF81C988724E725A54CDB96FF60FB40D03B14E76CDE4B6C1EC1B0B4863BE1CE4209A742458A9416CBB555B348727BCFBB6FA0446429E1721E17BA1705F7AA38217621BBE6E4D553A8AF4F73EB52D0423AD056CAF73A4497F8BF93666495249D4C023B07E5F2DBBA1D3550115
311
A2D16A926506F7915B4458CE367AD1AC0541232DF22D43DB44DA1D3DA0AB1F885A02D40A4F592C294FB68CF32ADB268CA3196D33529E80E3FFDB1F5659B9255951E5EA84EE9EE9680E7DDB7BE4952F44458F6EB0AE9F83054A6F4CE37D987BC2BA951CC1AA175A0C481777E3CBE5E0EEDD7C3E985D2CEF06F3C58537B89F2E
311
16E3C97C7635BDBA6BE26494077ED369BA098D28A1B3F99560367CDF56481F5B03DCE08128B9F960B2B3797E5B0D310AFB23EC41BB6C37CEE3678C7D34FEB982BDE45145ABACE434A3B9223A851EF41FFE9560CCE81963D6571949E9195A3E7F581F38839533F67DD1E94E5F0EF6DAD5A54EC8A34AD46395853961FC60636A
311
901C96796AF16B62D23E4D9F695EF59B0D0C0653597016A30CC64E4A8B8C2A14C3337A90C8A804F5BA237D6CAF1E67EC7E3603A22221A78D258F04333297480B50AB8A547FDDF90D339D1EAB6E5C74DBE1137E6CA5701D70E6C6C58CAE5844E530447FD69350AD1C5CEA0EF298FB499E728CDA6653FBDEEED2D8F43A722B72
311
CEF864FD3215DC3A803252626CC03C84E8D4C6047E6D9BFD1EFD27C71B731CA2F037AC54EBCB7EA175A63E06296A9CB29705CC304FF6E81D12F56DB7BC612DD343E4AC4BD69B24305A078A88B4BE2868FBAC49F3DB2F230C28CEEAB353F22A452CCFD734101464AE748283456085D5591205AA2EFFDC7C11052EB29973CF40
311
01E7F7DDD5E51F9B659165456E9636737B1D76D68FB8DCC61B1407AA6F257233197B934D7D1BB017946D48241D92583E61019115AC05BA177EF0D25C19D187CC87566EA44371C0D0D5AD631BDB0C4A2D5DBAB5558383B923A70E7248DF2875C67405CA372F04A35A1426088CF2C1BF504B0304140006080000AB4955420000
311
00000000000000000000350000006662782F45374630304537412D454638302D343835332D414438442D3242313944353835313346382F76657274696365732E62696E504B0304140006080800AB495542F270F1330600000004000000360000006662782F45374630304537412D454638302D343835332D414438442D3242
311
313944353835313346382F747269616E676C65732E62696E636660600000504B0304140006080000AB495542000000000000000000000000370000006662782F45374630304537412D454638302D343835332D414438442D3242313944353835313346382F617474726962757465732E62696E504B0304140006080800AB49
311
5542D5987DFC8F00000041010000360000006662782F45374630304537412D454638302D343835332D414438442D3242313944353835313346382F6469726563746F72792E786D6C858F410EC2201045AF4266AF15DDB800BA74E7C21B903225242D6328188F2FA5C4183471359997F9FF81E89FF3C41E1816475E02DF1F80
311
A11FC8386F25A438EECEC07A250251FC3803E6F58C12560C4AD840E95E91C151A72936F496F35732D860FE635F62C8F2DA16B505C545B74125BAA2FA9E05D7CC053D063734D5C7665FD55B6B8D15D5E9BFEAFD8490FFA45E504B0304140006080800AB495542A6458FA7FB000000A00100003B0000006662782F4537463030
311
4537412D454638302D343835332D414438442D3242313944353835313346382F7265736F75726365732F636F72652E786D6C8D504B6EC32010BD0A628F0DD86E6C0B13294A72825E00E1498A1283C5A7EAF10BB12BB5BB6E18E67D344F4F1CBF9627FA041F8CB3136615C508AC76B3B1F709A778233D464729BC73F1970C23
311
AB16987081B11477EFD2BA43DAD9083666D4BA19765085001123FDCC9F0907FD018BAA548A59111ED5AAF443DDA16255A6B34E8A107D0E80B623E5C5D24370C96B08A2DE58295232F3AE3173BE696E063C96ACBDD0AE671D39D3D381B40DEFC96938BC91E1CAAF0D6FCFC3A5ED445DCC5244B3FC64D41E5484194B4E594328
311
279CBDD36164CDC8F3DA8F948ABAC8FF98D23AFFD3948C8D0DDFE36EB690B3E6202F428ABAF495C7ABCC3C4BB7F21B504B010214000A0000080000AB4955423DEE336E79000000790000001B00000000000000000000000000000000006175746F6465736B2D64657369676E2D7061636B6167652E786D6C504B0102140014
311
0006080800AB495542D486FD9CA0000000F40000001300000000000000000000000000B20000005B436F6E74656E745F54797065735D2E786D6C504B01021400140006080800AB495542CEAFD296E90000007C010000080000000000000000000000000083010000636F72652E786D6C504B01021400140006080800AB4955
311
4255019EA25F0000007C000000070000000000000000000000000092020000636E782E786D6C504B01021400140006080800AB4955425F6BE46D64010000020300000C00000000000000000000000000160300006662782F636F72652E786D6C504B01021400140006080800AB495542E4EE5ABB7D0000009D0000000B0000
311
0000000000000000000000A40400006662782F636E782E786D6C504B01021400140006080800AB495542AED214D22A0100001402000031000000000000000000000000004A0500006662782F45374630304537412D454638302D343835332D414438442D3242313944353835313346382F636F72652E786D6C504B01021400
311
140006080800AB4955426A893DF54C010000330300003000000000000000000000000000C30600006662782F45374630304537412D454638302D343835332D414438442D3242313944353835313346382F636E782E786D6C504B01021400140006080800AB495542326B5D18A4050000801000003400000000000000000000
311
0000005D0800006662782F45374630304537412D454638302D343835332D414438442D3242313944353835313346382F6F626A656374732E786D6C504B01021400140006080000AB4955420000000000000000000000003500000000000000000000000000530E00006662782F45374630304537412D454638302D34383533
311
2D414438442D3242313944353835313346382F76657274696365732E62696E504B01021400140006080800AB495542F270F13306000000040000003600000000000000000000000000A60E00006662782F45374630304537412D454638302D343835332D414438442D3242313944353835313346382F747269616E676C6573
311
2E62696E504B01021400140006080000AB4955420000000000000000000000003700000000000000000000000000000F00006662782F45374630304537412D454638302D343835332D414438442D3242313944353835313346382F617474726962757465732E62696E504B01021400140006080800AB495542D5987DFC8F00
311
0000410100003600000000000000000000000000550F00006662782F45374630304537412D454638302D343835332D414438442D3242313944353835313346382F6469726563746F72792E786D6C504B01021400140006080800AB495542A6458FA7FB000000A00100003B0000000000000000000000000038100000666278
311
2F45374630304537412D454638302D343835332D414438442D3242313944353835313346382F7265736F75726365732F636F72652E786D6C504B0506000000000E000E00800400008C1100000000
310
504B03040A0000080000AB4955423DEE336E79000000790000001B0000006175746F6465736B2D64657369676E2D7061636B6167652E786D6C3C3F786D6C2076657273696F6E3D22312E302220656E636F64696E673D227574662D3822203F3E3C666F726D6174733E3C666F726D61743E687474703A2F2F736368656D612E
310
6175746F6465736B2E636F6D2F64657369676E2D7061636B6167652F323030393C2F666F726D61743E3C2F666F726D6174733E504B0304140006080800AB495542D486FD9CA0000000F4000000130000005B436F6E74656E745F54797065735D2E786D6C7D8EC10E82300C865F65E91D8A1E8C310C0EEA1BF002731658846E
310
D98AC1B77784ABF1D8FE5FBFBF75BBCE937A534CCEB38643598122B6FEE978D0B0485F9C41B54DDD7D022595594E1A469170414C76A4D9A4D207E29CF43ECE46F218070CC6BECC4078ACAA135ACF422C856C0E68EA1BF5669944DDD7BCDE7B1F8E415D77AECB980613C2E4AC91FC167A2B244592486606FC29C8FD7F045B9A
310
EF7053A7E60B504B0304140006080800AB495542687EE297E90000007C01000008000000636F72652E786D6C8D90416EC3201045AF82668F0D38491D0B13C58E7C825E0001715062B00C543D7E71E248EDAEAB193EFFCD8C3E3F7D4F0FF4659660BD6B8116049071CA6BEBC61652BCE21AD049F0C5FBF8CB06C8C9C9B4B0CA
310
20F8B8F8346F92F22E1A17B3EABC369B28433011907AE4A685A06E6692854C313BC2BD98A5BACBD114F4DD653825ABD16B89D5799EBD5AB3802043478761D7E18A1D2ABC1B3E067C3E5F1826FBFAD0D3EED2F7FB232F5758F068A7F77EB518198D06C108AD306198D14F726C68D5B0FCAC1B4278B9DAFF4069D6FF849275B1
310
62DBB92F2C80A0F990E787E0E59A452ECFA0725D73133F504B0304140006080800AB49554255019EA25F0000007C00000007000000636E782E786D6C4DCB3B0E80201045D1AD90E915ED2CF8AC45050C11660C8261F98AB1B07AC9C97D42D718D865D3E909258CFD00CCE24AC6E326A164D74DC0B4128928FF326038472BA1
310
3128B1252AC747C6BAB984FC68F0B87FE8960A5C09FE86CFB69FBA01504B0304140006080800AB495542CBCBC40866010000020300000C0000006662782F636F72652E786D6C8D52ED8E8230107C95A6FF4B5B504F4DA9F1233CC1BD4085CA11A125A5253EFE2D1FC6F3628C2181B2B3B3333B2076B7A646BD765D654D8A79
310
C430D226B74565CA14077F216B8C7652386BFD9F368C8C6A748A873296A27436B47329B7C66BE3A16A6CA1E7A2EA3AED31CA6B38A4B8CB7F74A322153C7474D7A855F955953AE211C0D02745E71D184093C870C7F272BE093AD5A508A12A66B42A40ADBA54DA61C9B203CFB2C58124F12A218BEC2B23FBFD29266CB95E1DF9
310
E1743C2E37820E64297CD5DCDDE54E2BAF0B2C63C613C26212F36FB6D9F2641BC3EB7ACB98A043FB1329B4C587A450199FC4B3DD89D661C9C1C808FCDB1622F2A8533DF8A152D02144788C093F070D8140C85E9DEBFB1E5728F53AF7D62D00296C7840BDAA83065586C64BD00985C9E300D8ECE59CF8CD9CF733E0032A5382
310
35E5E1780E7E501793EA1C45AB1DE9FD0D19EB1A553FCC4D161FF787D04B7A6E6BEB3E61D379553A874987BF57FE02504B0304140006080800AB4955426E7FD2417C0000009D0000000B0000006662782F636E782E786D6C4DCCD10A83201886E15B91FFDC655323410D733712CB42663A9C8E5DFE6A74B0A30F1E3E5E397C
310
B680DE2EBF7C8A0ADA0B01E4E23DCD3EAE0A6A59700F68D032A754FE6E80E2B439050783966B4EF579D2EC96A986B26BF0F171221F69DBD12BC7B46302B3B6675818C3B1112327D4127EB3161A2D9B5F69DF23ACBF504B0304140006080800AB4955423E8B35F92801000014020000310000006662782F3542333136333235
310
2D333634392D343138342D394141352D4139423530334330354443432F636F72652E786D6C8D514B6EC32014BC0A62D52E6CF331961D61A2243D422F4080A42831587CAA1CBFB876A476970D0F869979A3F7F8FE31DDC1B709D17A37425C23088C535E5B771D614E97AA87602F78F03EFDA141E0E46446B8C050F06BF079DE
310
20E55D322E15D4796D3650C6681204EA5E2E238CEACB4CB296391546BCD5B35437793535AECB77E1091E532801C0DA6439A160478A3B4A5845BB76A85ADCB7D57038B0EA301C19A227C43E4E27DEAC42C173B67A935B5DE2D88B35E15593452C78B2D333BE0A4626A3A12008D30A918AE04F34EC30DD91F2EC7708F166A1FF
310
13E559BF28CAD6254AB6B8AB2C428179B37E08AE7D3EDF9F61CC63F62181A5DF5B34EA1D0A5423C67A4C06C29B955A06503CBB76F38CC98732E0B7DBB9B0E966DCB58237CB8E4AF95D60A9CB3EC50F504B0304140006080800AB4955420C2EF2E25301000033030000300000006662782F35423331363332352D333634392D
310
343138342D394141352D4139423530334330354443432F636E782E786D6CBD93CD6EC32010845F0571F77F14A51126520F7D821E7AC5B049693058FC54CDDB7749489A4B0E95AA5E903D3BCCAC3ED96CF7351BF2093E686747DAD52D2560A553DA1E469AE2BEDA50B2E3CC3B17EF6C945831C348B34C393B7897962229D88B
310
6422AA46DB63113D0497BC848072BE498C93C26000D82AA108F3044A812237233EEDC1E32A284E2712DF81BC3CBF11377D808C81353985B326777096CFD27467A2441A11C248837C8759D42245A7201C6B25A2A8BBFADAF560A79F24922F5C2B93D724978F349F94978D6AE4C81A1C7216A2477AC5144F0B502E96C5682922
310
426ECEC68B87B3A46D5CAF8A5723788FEEA15F6F3618769E7116F50CC5213D88088AF2BEED86AAEDABBE7B6D9FB6DDB0EDF175B36D5BD6643B679373A65CC218F06E21D2D9083652DEB1268F1FE12B3EA2B447D6CE9F7E01120194D60B9D5BC65FF2E9D6C36AF58F7C9AF3F78DB83CFE05FC1B504B0304140006080800AB49
310
55420980495362070000991B0000340000006662782F35423331363332352D333634392D343138342D394141352D4139423530334330354443432F6F626A656374732E786D6CED59DD739B3810FF5718EEE5EEC1D8C4769ADC106E1C27E9783A693BF5B5730F9E616490892E4230924893FBEB6FF5010662127CCDBDF5C106
310
84B4DAFDEDA796E08FC78C3A0F980B92B30BD7F726AE83599C2784A5176E2977A333D7F9230C789ECBC634D76128C317AE1A76C320E57959D8A104EF50496567F4E6F22F47C49861D7892912E2C215F11DCE90874A992758DC7B0992C84B778F9EEF99896DB22947C55D87688138661238857106541CC394DF7E9CB8E33018
310
ABF761A0FEEDACE9A059B3FE59632D759B4BC284442C7EC65287CC74104B537F76757D323F1FCD67B3E968767AE28F2E6F2EAF46FEBBE96479BA5C9E2FAECF81BD6D9E532B53820BCC12D0DF931BFAC158BDA945B7081CE23ACE19C3B10612A0D2627509122C60AB067C93F6A3AF246ABCD612369E67EABD65A1313C6D53E9
310
9B350C88165D10C46E57495C5D9BF2E5DBBF417031C428B9C012B8159283762D3C1CBCC20D27C1D88C86C176AF0B229C0C49CC09A20E255B8E382805A6AA296160165832CA3938907294045A73E675DBB6C0335F779D435CEE4A4A9567B8A176AC08DC0F4BA13923FF60BEE7BE890CF004D29684C933CBA57C2AB01B9E0763
310
3D1806EA323DB12F0D90CE8EA2546844CCDB8EA04BE5FAAB2B37FC70B37D5CAB707078F382E705E652199DD2A3E60B0CD95E154A765B7F90E6D40210C6806A57EE41F902C87F84E8B16705F4C6C9E3EC7166E74A8E98D8E53C03DD3813673481BF89E3EB7F75DFB80BC6F5E2B6F6FAF0043755509DFD389E6D19345696FF06
310
9C61F000069FF3A97DB58E11057BBE250C005246E2D01C8620B4EFB68F6EB882C009811E56211AFA2032B0FB00B7C1D892D96BA5722FEB750C10B57B4C87280960D316096CF4E8E93D640F4EE2BD9A9A22F6C13B7F13735D5CAD3FAC4BBE4331BEB53E7D857784110959F330432DCC5B12DDE3A7EF394F40D0E778AF9B7867
310
762B01682BCC15F06905827AD8EFDCDA20867569AEC24DF0CA0E2084CAD50DFAB744C49852C4705E56FBD6D14D196AEDF1B66670C31303F1F4A463C21C3F10555580D3EC67B41885BC1F73522810DDF0BD91AC0E9A5E8F745F571FC122EBF93DB3560C422F43F44F1DB40EE0D0B2EC0A690B442DF0761FCEE39CE63CDA3E45
310
26D2B9504B001B6D6FF9D6220AB1DE284951010FD27E578594D4481B2564B72B05C4D5032C7E5B2D9BE630F1A6FEDC69FE779C7106D1167C1771EB779D3D2292A114473B94F46DD7DCADA62D34C91ED21CEF28C8451E887C8A908C26094E8F81E628E2E76F4A3DA5B910846101F9EA20F84D34261E0412A3CD8A65A5D50ED0
310
44441996881E838022D303AE4E3BBAC68DA174789DC7DA7A5FD25893E8FF64111C412D99B38840290A39E455C67D6F0E31A48DAE41B9832F585B455B8B414B2821E2A7E83B26E99D3C067543BE07F7188E24A58CF202C560D603C83EF315A5D40EEF5B14DFABFC11C5257D2B031198EE2242699945F0230C4E1E435CBB0E4C
310
2FA2D0206E629FC419146548967CC826A7F3C9B37D4CCDD00D818D8D768442D88E3254F4A0DE0A88BA1E716AF02DF51EA56ECBAC885096976C90A178D3AE3759F25DB52AB203F955A522948D15614B300C08937556AD623698BA0EACE0463A503D4502650535A7B057128F5F7B93A6DCBB01B77EFAB61B6450F8F568AF1951
310
67150C96C7566120BE2319DFB9E15A5F4797507F2738D9A7FAAAD66C568080988AE4252756455F5750DED81ACD0D6F91149BF726EB56D7AF2B0FBA1FC118D640ED522F5C29A033CC245295C9ADBAA15F1084E0160D33BE5239F5182A8B24D15523A237A44F9DAD32A2B56946BCE20EB33C831FDB1016D332C11B9488FBE856
310
D2684D14EB564A2F2315C62F0AF8E9FDBA030F8C0C10E9B32AF0F0F7CE5A3BBA54E5D24122F2AECCB60C1108822DD152A31BAF60A9D548A5E5FAAACE14507781815915CF7E9E2C9AED889F278BD41AC68F9D2C68BE45741F6D1AD93C56667DD429A04E4F8ACA5B9C0274D7A1A65A271193CBADF8D69722888955901F5C8C55
310
31C310ECE3F83F27EDBE2468B6EBF07F5CD2F69F151C472595D664D5A43A50B8AE9A290C3AB0F3EBC9E97274FD6EB118CDE6CBEBD1E272EE8F6EA697979393C5EC6C7A765DA3A9FD340CEA58A653173C9B98560DAB278B013465454E490287F9C44931847C0947FA01DD739E6101B9B3D9EB4E6C4F7EC0EA07D3E694684B71
310
C5C91D82FE301590D501A33296ED71E717E84C4A38675FB8D033F2EEE1CF5AA5EB40E2B970A15320498C85B7852E93EAE769E2907175EAB7C4001FC4529511CDA2FAB95EA5B06945FF7ACA902C60E56AB530A06E2BA0F9D56A5068DE2C4FF1518257EC3848C2EDB69450AC1959F603B5307A9BBDFA8D6C94B07BBBF523B8EE
310
CB62F99E9ED34264D01783178DC0501D49C453DDEE568C599616579FC7D06673569F9C829629E87238A511C760CCA5AAA7C08AC02A2CCD024930D5E5EF9BCF3C872F3C99A38B22E7D7C7B3D3DF36CB3CCB726686360B389425F09DC859DFC1579F6403B50356BD75B13999F8271BDDD3B66DF6688B04F654510403552DA104
310
E9981CD8E5B3FE94ED5E8E952A3AD357578E0DA27320AA6DF7598BD77CE372C087D4D714E531DACF2B695F6C6B8FF554B0090E0DE9F05F504B0304140006080000AB495542000000000000000000000000350000006662782F35423331363332352D333634392D343138342D394141352D4139423530334330354443432F76
310
657274696365732E62696E504B0304140006080800AB495542F270F1330600000004000000360000006662782F35423331363332352D333634392D343138342D394141352D4139423530334330354443432F747269616E676C65732E62696E636660600000504B0304140006080000AB495542000000000000000000000000
310
370000006662782F35423331363332352D333634392D343138342D394141352D4139423530334330354443432F617474726962757465732E62696E504B0304140006080800AB495542D5987DFC8F00000041010000360000006662782F35423331363332352D333634392D343138342D394141352D41394235303343303544
310
43432F6469726563746F72792E786D6C858F410EC2201045AF4266AF15DDB800BA74E7C21B903225242D6328188F2FA5C4183471359997F9FF81E89FF3C41E1816475E02DF1F80A11FC8386F25A438EECEC07A250251FC3803E6F58C12560C4AD840E95E91C151A72936F496F35732D860FE635F62C8F2DA16B505C545B741
310
25BAA2FA9E05D7CC053D063734D5C7665FD55B6B8D15D5E9BFEAFD8490FFA45E504B0304140006080800AB4955420094BFA6FC000000A00100003B0000006662782F35423331363332352D333634392D343138342D394141352D4139423530334330354443432F7265736F75726365732F636F72652E786D6C8D50596EC320
310
10BD8A35FFD8809334B1305116F904BD00C2131725068BA5EAF10B892BB57FFD6198B7689E9E387ECD8FEA137D30CEF6C06A0A155AED4663A71E52BC913D544729BC73F1970C2AAB66ECA1C020C5E45D5A56483B1BD1C68C5A37E20AAA103042A51FF9D343D01F38AB5AA59815E15E2F4ADFD58435AB339D755284E87380EA
310
75A4BC203D0697BCC6209A172B454A665C3566CC37CDCDA0074987331B86CD89B47CD792CDF03690D3E9CA09DDEE771776BE5E2EDB83688A598A68E69F8CDAA38A3882E494B58472C2D93B3D74ACED785EF71DA5A229F23FA6B48CFF34256363CBD7B82F5B00C9729027214553FACAE359669EA55BF90D504B010214000A00
310
00080000AB4955423DEE336E79000000790000001B00000000000000000000000000000000006175746F6465736B2D64657369676E2D7061636B6167652E786D6C504B01021400140006080800AB495542D486FD9CA0000000F40000001300000000000000000000000000B20000005B436F6E74656E745F54797065735D2E
310
786D6C504B01021400140006080800AB495542687EE297E90000007C010000080000000000000000000000000083010000636F72652E786D6C504B01021400140006080800AB49554255019EA25F0000007C000000070000000000000000000000000092020000636E782E786D6C504B01021400140006080800AB495542CB
310
CBC40866010000020300000C00000000000000000000000000160300006662782F636F72652E786D6C504B01021400140006080800AB4955426E7FD2417C0000009D0000000B00000000000000000000000000A60400006662782F636E782E786D6C504B01021400140006080800AB4955423E8B35F9280100001402000031
310
000000000000000000000000004B0500006662782F35423331363332352D333634392D343138342D394141352D4139423530334330354443432F636F72652E786D6C504B01021400140006080800AB4955420C2EF2E253010000330300003000000000000000000000000000C20600006662782F35423331363332352D3336
310
34392D343138342D394141352D4139423530334330354443432F636E782E786D6C504B01021400140006080800AB4955420980495362070000991B00003400000000000000000000000000630800006662782F35423331363332352D333634392D343138342D394141352D4139423530334330354443432F6F626A65637473
310
2E786D6C504B01021400140006080000AB4955420000000000000000000000003500000000000000000000000000171000006662782F35423331363332352D333634392D343138342D394141352D4139423530334330354443432F76657274696365732E62696E504B01021400140006080800AB495542F270F13306000000
310
0400000036000000000000000000000000006A1000006662782F35423331363332352D333634392D343138342D394141352D4139423530334330354443432F747269616E676C65732E62696E504B01021400140006080000AB4955420000000000000000000000003700000000000000000000000000C41000006662782F35
310
423331363332352D333634392D343138342D394141352D4139423530334330354443432F617474726962757465732E62696E504B01021400140006080800AB495542D5987DFC8F000000410100003600000000000000000000000000191100006662782F35423331363332352D333634392D343138342D394141352D413942
310
3530334330354443432F6469726563746F72792E786D6C504B01021400140006080800AB4955420094BFA6FC000000A00100003B00000000000000000000000000FC1100006662782F35423331363332352D333634392D343138342D394141352D4139423530334330354443432F7265736F75726365732F636F72652E786D
310
6C504B0506000000000E000E0080040000511300000000
  0
XRECORD
  5
27
102
{ACAD_REACTORS
330
22
102
}
330
22
100
AcDbXrecord
280
     1
270
     1
271
     1
  0
XRECORD
  5
26
102
{ACAD_REACTORS
330
22
102
}
330
22
100
AcDbXrecord
280
     1
270
     1
271
     1
  0
XRECORD
  5
28
102
{ACAD_REACTORS
330
22
102
}
330
22
100
AcDbXrecord
280
     1
270
     1
271
     1
  0
XRECORD
  5
25
102
{ACAD_REACTORS
330
22
102
}
330
22
100
AcDbXrecord
280
     1
270
     1
271
     1
  0
XRECORD
  5
2E7
102
{ACAD_REACTORS
330
2E6
102
}
330
2E6
100
AcDbXrecord
280
     1
102
ACAD_ROUNDTRIP_2012_MLEADER_STYLE
298
     1
  0
CELLSTYLEMAP
  5
2E5
102
{ACAD_REACTORS
330
28E
102
}
330
28E
100
AcDbCellStyleMap
 90
        3
300
CELLSTYLE
  1
TABLEFORMAT_BEGIN
 90
        5
170
     1
 91
        0
 92
    32768
 62
   257
 93
        1
300
CONTENTFORMAT
  1
CONTENTFORMAT_BEGIN
 90
        0
 91
        0
 92
      512
 93
        0
300

 40
0.0
140
1.0
 94
        5
 62
     0
340
55
144
0.25
309
CONTENTFORMAT_END
171
     0
 94
        0
309
TABLEFORMAT_END
  1
CELLSTYLE_BEGIN
 90
        1
 91
        1
300
_TITLE
309
CELLSTYLE_END
300
CELLSTYLE
  1
TABLEFORMAT_BEGIN
 90
        5
170
     1
 91
        0
 92
        0
 62
   257
 93
        1
300
CONTENTFORMAT
  1
CONTENTFORMAT_BEGIN
 90
        0
 91
        0
 92
      512
 93
        0
300

 40
0.0
140
1.0
 94
        5
 62
     0
340
55
144
0.18
309
CONTENTFORMAT_END
171
     0
 94
        0
309
TABLEFORMAT_END
  1
CELLSTYLE_BEGIN
 90
        2
 91
        1
300
_HEADER
309
CELLSTYLE_END
300
CELLSTYLE
  1
TABLEFORMAT_BEGIN
 90
        5
170
     1
 91
        0
 92
        0
 62
   257
 93
        1
300
CONTENTFORMAT
  1
CONTENTFORMAT_BEGIN
 90
        0
 91
        0
 92
      512
 93
        0
300

 40
0.0
140
1.0
 94
        2
 62
     0
340
55
144
0.18
309
CONTENTFORMAT_END
171
     0
 94
        0
309
TABLEFORMAT_END
  1
CELLSTYLE_BEGIN
 90
        3
 91
        2
300
_DATA
309
CELLSTYLE_END
  0
XRECORD
  5
31D
102
{ACAD_REACTORS
330
28E
102
}
330
28E
100
AcDbXrecord
280
     1
102
ACAD_ROUNDTRIP_PRE2007_TABLESTYLE
 90
      512
 91
        0
  1

 92
      512
 93
        0
  2

 94
      512
 95
        0
  3

  0
XRECORD
  5
2F8
102
{ACAD_REACTORS
330
2F7
102
}
330
2F7
100
AcDbXrecord
280
     1
102
RTVSPropertyOp0
 70
     1
102
RTVSPropertyOp1
 70
     1
102
RTVSPropertyOp2
 70
     1
102
RTVSPropertyOp3
 70
     1
102
RTVSPropertyOp4
 70
     1
102
RTVSPropertyOp5
 70
     1
102
RTVSPropertyOp6
 70
     1
102
RTVSPropertyOp7
 70
     1
102
RTVSPropertyOp8
 70
     1
102
RTVSPropertyOp9
 70
     1
102
RTVSPropertyOp10
 70
     1
102
RTVSPropertyOp11
 70
     1
102
RTVSPropertyOp12
 70
     1
102
RTVSPropertyOp13
 70
     1
102
RTVSPropertyOp14
 70
     1
102
RTVSPropertyOp15
 70
     1
102
RTVSPropertyOp16
 70
     1
102
RTVSPropertyOp17
 70
     1
102
RTVSPropertyOp18
 70
     1
102
RTVSPropertyOp19
 70
     1
102
RTVSPropertyOp20
 70
     1
102
RTVSPropertyOp21
 70
     1
102
RTVSPropertyOp22
 70
     1
102
RTVSPropertyOp23
 70
     1
102
RTVSPropertyOp24
 70
     1
102
RTVSPropertyOp25
 70
     1
102
RTVSPropertyOp26
 70
     1
102
RTVSPropertyOp27
 70
     1
102
RTVSPropertyOp28
 70
     1
102
RTVSPropertyOp29
 70
     1
102
RTVSPropertyOp30
 70
     1
102
RTVSPropertyOp31
 70
     1
102
RTVSPropertyOp32
 70
     1
  0
XRECORD
  5
2F6
102
{ACAD_REACTORS
330
2F5
102
}
330
2F5
100
AcDbXrecord
280
     1
102
RTVSPropertyOp0
 70
     1
102
RTVSPropertyOp1
 70
     1
102
RTVSPropertyOp2
 70
     1
102
RTVSPropertyOp3
 70
     1
102
RTVSPropertyOp4
 70
     1
102
RTVSPropertyOp5
 70
     1
102
RTVSPropertyOp6
 70
     1
102
RTVSPropertyOp7
 70
     1
102
RTVSPropertyOp8
 70
     1
102
RTVSPropertyOp9
 70
     1
102
RTVSPropertyOp10
 70
     1
102
RTVSPropertyOp11
 70
     1
102
RTVSPropertyOp12
 70
     1
102
RTVSPropertyOp13
 70
     1
102
RTVSPropertyOp14
 70
     1
102
RTVSPropertyOp15
 70
     1
102
RTVSPropertyOp16
 70
     1
102
RTVSPropertyOp17
 70
     1
102
RTVSPropertyOp18
 70
     1
102
RTVSPropertyOp19
 70
     1
102
RTVSPropertyOp20
 70
     1
102
RTVSPropertyOp21
 70
     1
102
RTVSPropertyOp22
 70
     1
102
RTVSPropertyOp23
 70
     1
102
RTVSPropertyOp24
 70
     1
102
RTVSPropertyOp25
 70
     1
102
RTVSPropertyOp26
 70
     1
102
RTVSPropertyOp27
 70
     1
102
RTVSPropertyOp28
 70
     1
102
RTVSPropertyOp29
 70
     1
102
RTVSPropertyOp30
 70
     1
102
RTVSPropertyOp31
 70
     1
102
RTVSPropertyOp32
 70
     1
  0
XRECORD
  5
304
102
{ACAD_REACTORS
330
303
102
}
330
303
100
AcDbXrecord
280
     1
102
RTVSPropertyOp0
 70
     1
102
RTVSPropertyOp1
 70
     1
102
RTVSPropertyOp2
 70
     1
102
RTVSPropertyOp3
 70
     1
102
RTVSPropertyOp4
 70
     1
102
RTVSPropertyOp5
 70
     1
102
RTVSPropertyOp6
 70
     1
102
RTVSPropertyOp7
 70
     1
102
RTVSPropertyOp8
 70
     1
102
RTVSPropertyOp9
 70
     1
102
RTVSPropertyOp10
 70
     1
102
RTVSPropertyOp11
 70
     1
102
RTVSPropertyOp12
 70
     1
102
RTVSPropertyOp13
 70
     1
102
RTVSPropertyOp14
 70
     1
102
RTVSPropertyOp15
 70
     1
102
RTVSPropertyOp16
 70
     1
102
RTVSPropertyOp17
 70
     1
102
RTVSPropertyOp18
 70
     1
102
RTVSPropertyOp19
 70
     1
102
RTVSPropertyOp20
 70
     1
102
RTVSPropertyOp21
 70
     1
102
RTVSPropertyOp22
 70
     1
102
RTVSPropertyOp23
 70
     1
102
RTVSPropertyOp24
 70
     1
102
RTVSPropertyOp25
 70
     1
102
RTVSPropertyOp26
 70
     1
102
RTVSPropertyOp27
 70
     1
102
RTVSPropertyOp28
 70
     1
102
RTVSPropertyOp29
 70
     1
102
RTVSPropertyOp30
 70
     1
102
RTVSPropertyOp31
 70
     1
102
RTVSPropertyOp32
 70
     1
  0
XRECORD
  5
30C
102
{ACAD_REACTORS
330
30B
102
}
330
30B
100
AcDbXrecord
280
     1
102
RTVSPropertyOp0
 70
     1
102
RTVSPropertyOp1
 70
     1
102
RTVSPropertyOp2
 70
     1
102
RTVSPropertyOp3
 70
     1
102
RTVSPropertyOp4
 70
     1
102
RTVSPropertyOp5
 70
     1
102
RTVSPropertyOp6
 70
     1
102
RTVSPropertyOp7
 70
     1
102
RTVSPropertyOp8
 70
     1
102
RTVSPropertyOp9
 70
     1
102
RTVSPropertyOp10
 70
     1
102
RTVSPropertyOp11
 70
     1
102
RTVSPropertyOp12
 70
     1
102
RTVSPropertyOp13
 70
     1
102
RTVSPropertyOp14
 70
     1
102
RTVSPropertyOp15
 70
     1
102
RTVSPropertyOp16
 70
     1
102
RTVSPropertyOp17
 70
     1
102
RTVSPropertyOp18
 70
     1
102
RTVSPropertyOp19
 70
     1
102
RTVSPropertyOp20
 70
     1
102
RTVSPropertyOp21
 70
     1
102
RTVSPropertyOp22
 70
     1
102
RTVSPropertyOp23
 70
     1
102
RTVSPropertyOp24
 70
     1
102
RTVSPropertyOp25
 70
     1
102
RTVSPropertyOp26
 70
     1
102
RTVSPropertyOp27
 70
     1
102
RTVSPropertyOp28
 70
     1
102
RTVSPropertyOp29
 70
     1
102
RTVSPropertyOp30
 70
     1
102
RTVSPropertyOp31
 70
     1
102
RTVSPropertyOp32
 70
     1
  0
XRECORD
  5
2FE
102
{ACAD_REACTORS
330
2FD
102
}
330
2FD
100
AcDbXrecord
280
     1
102
RTVSPropertyOp0
 70
     1
102
RTVSPropertyOp1
 70
     1
102
RTVSPropertyOp2
 70
     1
102
RTVSPropertyOp3
 70
     1
102
RTVSPropertyOp4
 70
     1
102
RTVSPropertyOp5
 70
     1
102
RTVSPropertyOp6
 70
     1
102
RTVSPropertyOp7
 70
     1
102
RTVSPropertyOp8
 70
     1
102
RTVSPropertyOp9
 70
     1
102
RTVSPropertyOp10
 70
     1
102
RTVSPropertyOp11
 70
     1
102
RTVSPropertyOp12
 70
     1
102
RTVSPropertyOp13
 70
     1
102
RTVSPropertyOp14
 70
     1
102
RTVSPropertyOp15
 70
     1
102
RTVSPropertyOp16
 70
     1
102
RTVSPropertyOp17
 70
     1
102
RTVSPropertyOp18
 70
     1
102
RTVSPropertyOp19
 70
     1
102
RTVSPropertyOp20
 70
     1
102
RTVSPropertyOp21
 70
     1
102
RTVSPropertyOp22
 70
     1
102
RTVSPropertyOp23
 70
     1
102
RTVSPropertyOp24
 70
     1
102
RTVSPropertyOp25
 70
     1
102
RTVSPropertyOp26
 70
     1
102
RTVSPropertyOp27
 70
     1
102
RTVSPropertyOp28
 70
     1
102
RTVSPropertyOp29
 70
     1
102
RTVSPropertyOp30
 70
     1
102
RTVSPropertyOp31
 70
     1
102
RTVSPropertyOp32
 70
     1
  0
XRECORD
  5
302
102
{ACAD_REACTORS
330
301
102
}
330
301
100
AcDbXrecord
280
     1
102
RTVSPropertyOp0
 70
     1
102
RTVSPropertyOp1
 70
     1
102
RTVSPropertyOp2
 70
     1
102
RTVSPropertyOp3
 70
     1
102
RTVSPropertyOp4
 70
     1
102
RTVSPropertyOp5
 70
     1
102
RTVSPropertyOp6
 70
     1
102
RTVSPropertyOp7
 70
     1
102
RTVSPropertyOp8
 70
     1
102
RTVSPropertyOp9
 70
     1
102
RTVSPropertyOp10
 70
     1
102
RTVSPropertyOp11
 70
     1
102
RTVSPropertyOp12
 70
     1
102
RTVSPropertyOp13
 70
     1
102
RTVSPropertyOp14
 70
     1
102
RTVSPropertyOp15
 70
     1
102
RTVSPropertyOp16
 70
     1
102
RTVSPropertyOp17
 70
     1
102
RTVSPropertyOp18
 70
     1
102
RTVSPropertyOp19
 70
     1
102
RTVSPropertyOp20
 70
     1
102
RTVSPropertyOp21
 70
     1
102
RTVSPropertyOp22
 70
     1
102
RTVSPropertyOp23
 70
     1
102
RTVSPropertyOp24
 70
     1
102
RTVSPropertyOp25
 70
     1
102
RTVSPropertyOp26
 70
     1
102
RTVSPropertyOp27
 70
     1
102
RTVSPropertyOp28
 70
     1
102
RTVSPropertyOp29
 70
     1
102
RTVSPropertyOp30
 70
     1
102
RTVSPropertyOp31
 70
     1
102
RTVSPropertyOp32
 70
     1
  0
XRECORD
  5
31C
102
{ACAD_REACTORS
330
31B
102
}
330
31B
100
AcDbXrecord
280
     1
102
RTVSPropertyOp0
 70
     0
102
RTVSPropertyOp1
 70
     0
102
RTVSPropertyOp2
 70
     0
102
RTVSPropertyOp3
 70
     0
102
RTVSPropertyOp4
 70
     0
102
RTVSPropertyOp5
 70
     0
102
RTVSPropertyOp6
 70
     0
102
RTVSPropertyOp7
 70
     0
102
RTVSPropertyOp8
 70
     0
102
RTVSPropertyOp9
 70
     0
102
RTVSPropertyOp10
 70
     0
102
RTVSPropertyOp11
 70
     0
102
RTVSPropertyOp12
 70
     0
102
RTVSPropertyOp13
 70
     0
102
RTVSPropertyOp14
 70
     2
102
RTVSPropertyOp15
 70
     0
102
RTVSPropertyOp16
 70
     0
102
RTVSPropertyOp17
 70
     0
102
RTVSPropertyOp18
 70
     0
102
RTVSPropertyOp19
 70
     0
102
RTVSPropertyOp20
 70
     0
102
RTVSPropertyOp21
 70
     0
102
RTVSPropertyOp22
 70
     0
102
RTVSPropertyOp23
 70
     0
102
RTVSPropertyOp24
 70
     0
102
RTVSPropertyOp25
 70
     0
102
RTVSPropertyOp26
 70
     0
102
RTVSPropertyOp27
 70
     0
102
RTVSPropertyOp28
 70
     1
102
RTVSPropertyOp29
 70
     1
102
RTVSPropertyOp30
 70
     1
102
RTVSPropertyOp31
 70
     1
102
RTVSPropertyOp32
 70
     1
  0
XRECORD
  5
30A
102
{ACAD_REACTORS
330
309
102
}
330
309
100
AcDbXrecord
280
     1
102
RTVSPropertyOp0
 70
     1
102
RTVSPropertyOp1
 70
     1
102
RTVSPropertyOp2
 70
     1
102
RTVSPropertyOp3
 70
     1
102
RTVSPropertyOp4
 70
     1
102
RTVSPropertyOp5
 70
     1
102
RTVSPropertyOp6
 70
     1
102
RTVSPropertyOp7
 70
     1
102
RTVSPropertyOp8
 70
     1
102
RTVSPropertyOp9
 70
     1
102
RTVSPropertyOp10
 70
     1
102
RTVSPropertyOp11
 70
     1
102
RTVSPropertyOp12
 70
     1
102
RTVSPropertyOp13
 70
     1
102
RTVSPropertyOp14
 70
     1
102
RTVSPropertyOp15
 70
     1
102
RTVSPropertyOp16
 70
     1
102
RTVSPropertyOp17
 70
     1
102
RTVSPropertyOp18
 70
     1
102
RTVSPropertyOp19
 70
     1
102
RTVSPropertyOp20
 70
     1
102
RTVSPropertyOp21
 70
     1
102
RTVSPropertyOp22
 70
     1
102
RTVSPropertyOp23
 70
     1
102
RTVSPropertyOp24
 70
     1
102
RTVSPropertyOp25
 70
     1
102
RTVSPropertyOp26
 70
     1
102
RTVSPropertyOp27
 70
     1
102
RTVSPropertyOp28
 70
     1
102
RTVSPropertyOp29
 70
     1
102
RTVSPropertyOp30
 70
     1
102
RTVSPropertyOp31
 70
     1
102
RTVSPropertyOp32
 70
     1
  0
XRECORD
  5
2EE
102
{ACAD_REACTORS
330
2ED
102
}
330
2ED
100
AcDbXrecord
280
     1
102
RTVSPropertyOp0
 70
     1
102
RTVSPropertyOp1
 70
     1
102
RTVSPropertyOp2
 70
     1
102
RTVSPropertyOp3
 70
     1
102
RTVSPropertyOp4
 70
     1
102
RTVSPropertyOp5
 70
     1
102
RTVSPropertyOp6
 70
     1
102
RTVSPropertyOp7
 70
     1
102
RTVSPropertyOp8
 70
     1
102
RTVSPropertyOp9
 70
     1
102
RTVSPropertyOp10
 70
     1
102
RTVSPropertyOp11
 70
     1
102
RTVSPropertyOp12
 70
     1
102
RTVSPropertyOp13
 70
     1
102
RTVSPropertyOp14
 70
     1
102
RTVSPropertyOp15
 70
     1
102
RTVSPropertyOp16
 70
     1
102
RTVSPropertyOp17
 70
     1
102
RTVSPropertyOp18
 70
     1
102
RTVSPropertyOp19
 70
     1
102
RTVSPropertyOp20
 70
     1
102
RTVSPropertyOp21
 70
     1
102
RTVSPropertyOp22
 70
     1
102
RTVSPropertyOp23
 70
     1
102
RTVSPropertyOp24
 70
     1
102
RTVSPropertyOp25
 70
     1
102
RTVSPropertyOp26
 70
     1
102
RTVSPropertyOp27
 70
     1
102
RTVSPropertyOp28
 70
     1
102
RTVSPropertyOp29
 70
     1
102
RTVSPropertyOp30
 70
     1
102
RTVSPropertyOp31
 70
     1
102
RTVSPropertyOp32
 70
     1
  0
XRECORD
  5
2F0
102
{ACAD_REACTORS
330
2EF
102
}
330
2EF
100
AcDbXrecord
280
     1
102
RTVSPropertyOp0
 70
     1
102
RTVSPropertyOp1
 70
     1
102
RTVSPropertyOp2
 70
     1
102
RTVSPropertyOp3
 70
     1
102
RTVSPropertyOp4
 70
     1
102
RTVSPropertyOp5
 70
     1
102
RTVSPropertyOp6
 70
     1
102
RTVSPropertyOp7
 70
     1
102
RTVSPropertyOp8
 70
     1
102
RTVSPropertyOp9
 70
     1
102
RTVSPropertyOp10
 70
     1
102
RTVSPropertyOp11
 70
     1
102
RTVSPropertyOp12
 70
     1
102
RTVSPropertyOp13
 70
     1
102
RTVSPropertyOp14
 70
     1
102
RTVSPropertyOp15
 70
     1
102
RTVSPropertyOp16
 70
     1
102
RTVSPropertyOp17
 70
     1
102
RTVSPropertyOp18
 70
     1
102
RTVSPropertyOp19
 70
     1
102
RTVSPropertyOp20
 70
     1
102
RTVSPropertyOp21
 70
     1
102
RTVSPropertyOp22
 70
     1
102
RTVSPropertyOp23
 70
     1
102
RTVSPropertyOp24
 70
     1
102
RTVSPropertyOp25
 70
     1
102
RTVSPropertyOp26
 70
     1
102
RTVSPropertyOp27
 70
     1
102
RTVSPropertyOp28
 70
     1
102
RTVSPropertyOp29
 70
     1
102
RTVSPropertyOp30
 70
     1
102
RTVSPropertyOp31
 70
     1
102
RTVSPropertyOp32
 70
     1
  0
XRECORD
  5
2F2
102
{ACAD_REACTORS
330
2F1
102
}
330
2F1
100
AcDbXrecord
280
     1
102
RTVSPropertyOp0
 70
     1
102
RTVSPropertyOp1
 70
     1
102
RTVSPropertyOp2
 70
     1
102
RTVSPropertyOp3
 70
     1
102
RTVSPropertyOp4
 70
     1
102
RTVSPropertyOp5
 70
     1
102
RTVSPropertyOp6
 70
     1
102
RTVSPropertyOp7
 70
     1
102
RTVSPropertyOp8
 70
     1
102
RTVSPropertyOp9
 70
     1
102
RTVSPropertyOp10
 70
     1
102
RTVSPropertyOp11
 70
     1
102
RTVSPropertyOp12
 70
     1
102
RTVSPropertyOp13
 70
     1
102
RTVSPropertyOp14
 70
     1
102
RTVSPropertyOp15
 70
     1
102
RTVSPropertyOp16
 70
     1
102
RTVSPropertyOp17
 70
     1
102
RTVSPropertyOp18
 70
     1
102
RTVSPropertyOp19
 70
     1
102
RTVSPropertyOp20
 70
     1
102
RTVSPropertyOp21
 70
     1
102
RTVSPropertyOp22
 70
     1
102
RTVSPropertyOp23
 70
     1
102
RTVSPropertyOp24
 70
     1
102
RTVSPropertyOp25
 70
     1
102
RTVSPropertyOp26
 70
     1
102
RTVSPropertyOp27
 70
     1
102
RTVSPropertyOp28
 70
     1
102
RTVSPropertyOp29
 70
     1
102
RTVSPropertyOp30
 70
     1
102
RTVSPropertyOp31
 70
     1
102
RTVSPropertyOp32
 70
     1
  0
XRECORD
  5
2F4
102
{ACAD_REACTORS
330
2F3
102
}
330
2F3
100
AcDbXrecord
280
     1
102
RTVSPropertyOp0
 70
     1
102
RTVSPropertyOp1
 70
     1
102
RTVSPropertyOp2
 70
     1
102
RTVSPropertyOp3
 70
     1
102
RTVSPropertyOp4
 70
     1
102
RTVSPropertyOp5
 70
     1
102
RTVSPropertyOp6
 70
     1
102
RTVSPropertyOp7
 70
     1
102
RTVSPropertyOp8
 70
     1
102
RTVSPropertyOp9
 70
     1
102
RTVSPropertyOp10
 70
     1
102
RTVSPropertyOp11
 70
     1
102
RTVSPropertyOp12
 70
     1
102
RTVSPropertyOp13
 70
     1
102
RTVSPropertyOp14
 70
     1
102
RTVSPropertyOp15
 70
     1
102
RTVSPropertyOp16
 70
     1
102
RTVSPropertyOp17
 70
     1
102
RTVSPropertyOp18
 70
     1
102
RTVSPropertyOp19
 70
     1
102
RTVSPropertyOp20
 70
     1
102
RTVSPropertyOp21
 70
     1
102
RTVSPropertyOp22
 70
     1
102
RTVSPropertyOp23
 70
     1
102
RTVSPropertyOp24
 70
     1
102
RTVSPropertyOp25
 70
     1
102
RTVSPropertyOp26
 70
     1
102
RTVSPropertyOp27
 70
     1
102
RTVSPropertyOp28
 70
     1
102
RTVSPropertyOp29
 70
     1
102
RTVSPropertyOp30
 70
     1
102
RTVSPropertyOp31
 70
     1
102
RTVSPropertyOp32
 70
     1
  0
XRECORD
  5
2FC
102
{ACAD_REACTORS
330
2FB
102
}
330
2FB
100
AcDbXrecord
280
     1
102
RTVSPropertyOp0
 70
     1
102
RTVSPropertyOp1
 70
     1
102
RTVSPropertyOp2
 70
     1
102
RTVSPropertyOp3
 70
     1
102
RTVSPropertyOp4
 70
     1
102
RTVSPropertyOp5
 70
     1
102
RTVSPropertyOp6
 70
     1
102
RTVSPropertyOp7
 70
     1
102
RTVSPropertyOp8
 70
     1
102
RTVSPropertyOp9
 70
     1
102
RTVSPropertyOp10
 70
     1
102
RTVSPropertyOp11
 70
     1
102
RTVSPropertyOp12
 70
     1
102
RTVSPropertyOp13
 70
     1
102
RTVSPropertyOp14
 70
     1
102
RTVSPropertyOp15
 70
     1
102
RTVSPropertyOp16
 70
     1
102
RTVSPropertyOp17
 70
     1
102
RTVSPropertyOp18
 70
     1
102
RTVSPropertyOp19
 70
     1
102
RTVSPropertyOp20
 70
     1
102
RTVSPropertyOp21
 70
     1
102
RTVSPropertyOp22
 70
     1
102
RTVSPropertyOp23
 70
     1
102
RTVSPropertyOp24
 70
     1
102
RTVSPropertyOp25
 70
     1
102
RTVSPropertyOp26
 70
     1
102
RTVSPropertyOp27
 70
     1
102
RTVSPropertyOp28
 70
     1
102
RTVSPropertyOp29
 70
     1
102
RTVSPropertyOp30
 70
     1
102
RTVSPropertyOp31
 70
     1
102
RTVSPropertyOp32
 70
     1
  0
XRECORD
  5
318
102
{ACAD_REACTORS
330
317
102
}
330
317
100
AcDbXrecord
280
     1
102
RTVSPropertyOp0
 70
     0
102
RTVSPropertyOp1
 70
     0
102
RTVSPropertyOp2
 70
     0
102
RTVSPropertyOp3
 70
     0
102
RTVSPropertyOp4
 70
     0
102
RTVSPropertyOp5
 70
     0
102
RTVSPropertyOp6
 70
     0
102
RTVSPropertyOp7
 70
     0
102
RTVSPropertyOp8
 70
     0
102
RTVSPropertyOp9
 70
     0
102
RTVSPropertyOp10
 70
     0
102
RTVSPropertyOp11
 70
     0
102
RTVSPropertyOp12
 70
     0
102
RTVSPropertyOp13
 70
     0
102
RTVSPropertyOp14
 70
     2
102
RTVSPropertyOp15
 70
     0
102
RTVSPropertyOp16
 70
     0
102
RTVSPropertyOp17
 70
     0
102
RTVSPropertyOp18
 70
     0
102
RTVSPropertyOp19
 70
     0
102
RTVSPropertyOp20
 70
     0
102
RTVSPropertyOp21
 70
     0
102
RTVSPropertyOp22
 70
     0
102
RTVSPropertyOp23
 70
     0
102
RTVSPropertyOp24
 70
     0
102
RTVSPropertyOp25
 70
     0
102
RTVSPropertyOp26
 70
     0
102
RTVSPropertyOp27
 70
     0
102
RTVSPropertyOp28
 70
     1
102
RTVSPropertyOp29
 70
     1
102
RTVSPropertyOp30
 70
     1
102
RTVSPropertyOp31
 70
     1
102
RTVSPropertyOp32
 70
     1
  0
XRECORD
  5
308
102
{ACAD_REACTORS
330
307
102
}
330
307
100
AcDbXrecord
280
     1
102
RTVSPropertyOp0
 70
     1
102
RTVSPropertyOp1
 70
     1
102
RTVSPropertyOp2
 70
     1
102
RTVSPropertyOp3
 70
     1
102
RTVSPropertyOp4
 70
     1
102
RTVSPropertyOp5
 70
     1
102
RTVSPropertyOp6
 70
     1
102
RTVSPropertyOp7
 70
     1
102
RTVSPropertyOp8
 70
     1
102
RTVSPropertyOp9
 70
     1
102
RTVSPropertyOp10
 70
     1
102
RTVSPropertyOp11
 70
     1
102
RTVSPropertyOp12
 70
     1
102
RTVSPropertyOp13
 70
     1
102
RTVSPropertyOp14
 70
     1
102
RTVSPropertyOp15
 70
     1
102
RTVSPropertyOp16
 70
     1
102
RTVSPropertyOp17
 70
     1
102
RTVSPropertyOp18
 70
     1
102
RTVSPropertyOp19
 70
     1
102
RTVSPropertyOp20
 70
     1
102
RTVSPropertyOp21
 70
     1
102
RTVSPropertyOp22
 70
     1
102
RTVSPropertyOp23
 70
     1
102
RTVSPropertyOp24
 70
     1
102
RTVSPropertyOp25
 70
     1
102
RTVSPropertyOp26
 70
     1
102
RTVSPropertyOp27
 70
     1
102
RTVSPropertyOp28
 70
     1
102
RTVSPropertyOp29
 70
     1
102
RTVSPropertyOp30
 70
     1
102
RTVSPropertyOp31
 70
     1
102
RTVSPropertyOp32
 70
     1
  0
XRECORD
  5
31A
102
{ACAD_REACTORS
330
319
102
}
330
319
100
AcDbXrecord
280
     1
102
RTVSPropertyOp0
 70
     0
102
RTVSPropertyOp1
 70
     0
102
RTVSPropertyOp2
 70
     0
102
RTVSPropertyOp3
 70
     0
102
RTVSPropertyOp4
 70
     0
102
RTVSPropertyOp5
 70
     0
102
RTVSPropertyOp6
 70
     0
102
RTVSPropertyOp7
 70
     0
102
RTVSPropertyOp8
 70
     0
102
RTVSPropertyOp9
 70
     0
102
RTVSPropertyOp10
 70
     0
102
RTVSPropertyOp11
 70
     0
102
RTVSPropertyOp12
 70
     0
102
RTVSPropertyOp13
 70
     0
102
RTVSPropertyOp14
 70
     2
102
RTVSPropertyOp15
 70
     0
102
RTVSPropertyOp16
 70
     0
102
RTVSPropertyOp17
 70
     0
102
RTVSPropertyOp18
 70
     0
102
RTVSPropertyOp19
 70
     0
102
RTVSPropertyOp20
 70
     0
102
RTVSPropertyOp21
 70
     0
102
RTVSPropertyOp22
 70
     0
102
RTVSPropertyOp23
 70
     0
102
RTVSPropertyOp24
 70
     0
102
RTVSPropertyOp25
 70
     0
102
RTVSPropertyOp26
 70
     0
102
RTVSPropertyOp27
 70
     0
102
RTVSPropertyOp28
 70
     1
102
RTVSPropertyOp29
 70
     1
102
RTVSPropertyOp30
 70
     1
102
RTVSPropertyOp31
 70
     1
102
RTVSPropertyOp32
 70
     1
  0
XRECORD
  5
300
102
{ACAD_REACTORS
330
2FF
102
}
330
2FF
100
AcDbXrecord
280
     1
102
RTVSPropertyOp0
 70
     1
102
RTVSPropertyOp1
 70
     1
102
RTVSPropertyOp2
 70
     1
102
RTVSPropertyOp3
 70
     1
102
RTVSPropertyOp4
 70
     1
102
RTVSPropertyOp5
 70
     1
102
RTVSPropertyOp6
 70
     1
102
RTVSPropertyOp7
 70
     1
102
RTVSPropertyOp8
 70
     1
102
RTVSPropertyOp9
 70
     1
102
RTVSPropertyOp10
 70
     1
102
RTVSPropertyOp11
 70
     1
102
RTVSPropertyOp12
 70
     1
102
RTVSPropertyOp13
 70
     1
102
RTVSPropertyOp14
 70
     1
102
RTVSPropertyOp15
 70
     1
102
RTVSPropertyOp16
 70
     1
102
RTVSPropertyOp17
 70
     1
102
RTVSPropertyOp18
 70
     1
102
RTVSPropertyOp19
 70
     1
102
RTVSPropertyOp20
 70
     1
102
RTVSPropertyOp21
 70
     1
102
RTVSPropertyOp22
 70
     1
102
RTVSPropertyOp23
 70
     1
102
RTVSPropertyOp24
 70
     1
102
RTVSPropertyOp25
 70
     1
102
RTVSPropertyOp26
 70
     1
102
RTVSPropertyOp27
 70
     1
102
RTVSPropertyOp28
 70
     1
102
RTVSPropertyOp29
 70
     1
102
RTVSPropertyOp30
 70
     1
102
RTVSPropertyOp31
 70
     1
102
RTVSPropertyOp32
 70
     1
  0
XRECORD
  5
316
102
{ACAD_REACTORS
330
315
102
}
330
315
100
AcDbXrecord
280
     1
102
RTVSPropertyOp0
 70
     1
102
RTVSPropertyOp1
 70
     1
102
RTVSPropertyOp2
 70
     1
102
RTVSPropertyOp3
 70
     1
102
RTVSPropertyOp4
 70
     1
102
RTVSPropertyOp5
 70
     1
102
RTVSPropertyOp6
 70
     1
102
RTVSPropertyOp7
 70
     1
102
RTVSPropertyOp8
 70
     1
102
RTVSPropertyOp9
 70
     1
102
RTVSPropertyOp10
 70
     1
102
RTVSPropertyOp11
 70
     1
102
RTVSPropertyOp12
 70
     1
102
RTVSPropertyOp13
 70
     1
102
RTVSPropertyOp14
 70
     1
102
RTVSPropertyOp15
 70
     1
102
RTVSPropertyOp16
 70
     1
102
RTVSPropertyOp17
 70
     1
102
RTVSPropertyOp18
 70
     1
102
RTVSPropertyOp19
 70
     1
102
RTVSPropertyOp20
 70
     1
102
RTVSPropertyOp21
 70
     1
102
RTVSPropertyOp22
 70
     1
102
RTVSPropertyOp23
 70
     1
102
RTVSPropertyOp24
 70
     1
102
RTVSPropertyOp25
 70
     1
102
RTVSPropertyOp26
 70
     1
102
RTVSPropertyOp27
 70
     1
102
RTVSPropertyOp28
 70
     1
102
RTVSPropertyOp29
 70
     1
102
RTVSPropertyOp30
 70
     1
102
RTVSPropertyOp31
 70
     1
102
RTVSPropertyOp32
 70
     1
  0
XRECORD
  5
314
102
{ACAD_REACTORS
330
313
102
}
330
313
100
AcDbXrecord
280
     1
102
RTVSPropertyOp0
 70
     1
102
RTVSPropertyOp1
 70
     1
102
RTVSPropertyOp2
 70
     1
102
RTVSPropertyOp3
 70
     1
102
RTVSPropertyOp4
 70
     1
102
RTVSPropertyOp5
 70
     1
102
RTVSPropertyOp6
 70
     1
102
RTVSPropertyOp7
 70
     1
102
RTVSPropertyOp8
 70
     1
102
RTVSPropertyOp9
 70
     1
102
RTVSPropertyOp10
 70
     1
102
RTVSPropertyOp11
 70
     1
102
RTVSPropertyOp12
 70
     1
102
RTVSPropertyOp13
 70
     1
102
RTVSPropertyOp14
 70
     1
102
RTVSPropertyOp15
 70
     1
102
RTVSPropertyOp16
 70
     1
102
RTVSPropertyOp17
 70
     1
102
RTVSPropertyOp18
 70
     1
102
RTVSPropertyOp19
 70
     1
102
RTVSPropertyOp20
 70
     1
102
RTVSPropertyOp21
 70
     1
102
RTVSPropertyOp22
 70
     1
102
RTVSPropertyOp23
 70
     1
102
RTVSPropertyOp24
 70
     1
102
RTVSPropertyOp25
 70
     1
102
RTVSPropertyOp26
 70
     1
102
RTVSPropertyOp27
 70
     1
102
RTVSPropertyOp28
 70
     1
102
RTVSPropertyOp29
 70
     1
102
RTVSPropertyOp30
 70
     1
102
RTVSPropertyOp31
 70
     1
102
RTVSPropertyOp32
 70
     1
  0
XRECORD
  5
30E
102
{ACAD_REACTORS
330
30D
102
}
330
30D
100
AcDbXrecord
280
     1
102
RTVSPropertyOp0
 70
     1
102
RTVSPropertyOp1
 70
     1
102
RTVSPropertyOp2
 70
     1
102
RTVSPropertyOp3
 70
     1
102
RTVSPropertyOp4
 70
     1
102
RTVSPropertyOp5
 70
     1
102
RTVSPropertyOp6
 70
     1
102
RTVSPropertyOp7
 70
     1
102
RTVSPropertyOp8
 70
     1
102
RTVSPropertyOp9
 70
     1
102
RTVSPropertyOp10
 70
     1
102
RTVSPropertyOp11
 70
     1
102
RTVSPropertyOp12
 70
     1
102
RTVSPropertyOp13
 70
     1
102
RTVSPropertyOp14
 70
     1
102
RTVSPropertyOp15
 70
     1
102
RTVSPropertyOp16
 70
     1
102
RTVSPropertyOp17
 70
     1
102
RTVSPropertyOp18
 70
     1
102
RTVSPropertyOp19
 70
     1
102
RTVSPropertyOp20
 70
     1
102
RTVSPropertyOp21
 70
     1
102
RTVSPropertyOp22
 70
     1
102
RTVSPropertyOp23
 70
     1
102
RTVSPropertyOp24
 70
     1
102
RTVSPropertyOp25
 70
     1
102
RTVSPropertyOp26
 70
     1
102
RTVSPropertyOp27
 70
     1
102
RTVSPropertyOp28
 70
     1
102
RTVSPropertyOp29
 70
     1
102
RTVSPropertyOp30
 70
     1
102
RTVSPropertyOp31
 70
     1
102
RTVSPropertyOp32
 70
     1
  0
XRECORD
  5
310
102
{ACAD_REACTORS
330
30F
102
}
330
30F
100
AcDbXrecord
280
     1
102
RTVSPropertyOp0
 70
     1
102
RTVSPropertyOp1
 70
     1
102
RTVSPropertyOp2
 70
     1
102
RTVSPropertyOp3
 70
     1
102
RTVSPropertyOp4
 70
     1
102
RTVSPropertyOp5
 70
     1
102
RTVSPropertyOp6
 70
     1
102
RTVSPropertyOp7
 70
     1
102
RTVSPropertyOp8
 70
     1
102
RTVSPropertyOp9
 70
     1
102
RTVSPropertyOp10
 70
     1
102
RTVSPropertyOp11
 70
     1
102
RTVSPropertyOp12
 70
     1
102
RTVSPropertyOp13
 70
     1
102
RTVSPropertyOp14
 70
     1
102
RTVSPropertyOp15
 70
     1
102
RTVSPropertyOp16
 70
     1
102
RTVSPropertyOp17
 70
     1
102
RTVSPropertyOp18
 70
     1
102
RTVSPropertyOp19
 70
     1
102
RTVSPropertyOp20
 70
     1
102
RTVSPropertyOp21
 70
     1
102
RTVSPropertyOp22
 70
     1
102
RTVSPropertyOp23
 70
     1
102
RTVSPropertyOp24
 70
     1
102
RTVSPropertyOp25
 70
     1
102
RTVSPropertyOp26
 70
     1
102
RTVSPropertyOp27
 70
     1
102
RTVSPropertyOp28
 70
     1
102
RTVSPropertyOp29
 70
     1
102
RTVSPropertyOp30
 70
     1
102
RTVSPropertyOp31
 70
     1
102
RTVSPropertyOp32
 70
     1
  0
XRECORD
  5
306
102
{ACAD_REACTORS
330
305
102
}
330
305
100
AcDbXrecord
280
     1
102
RTVSPropertyOp0
 70
     1
102
RTVSPropertyOp1
 70
     1
102
RTVSPropertyOp2
 70
     1
102
RTVSPropertyOp3
 70
     1
102
RTVSPropertyOp4
 70
     1
102
RTVSPropertyOp5
 70
     1
102
RTVSPropertyOp6
 70
     1
102
RTVSPropertyOp7
 70
     1
102
RTVSPropertyOp8
 70
     1
102
RTVSPropertyOp9
 70
     1
102
RTVSPropertyOp10
 70
     1
102
RTVSPropertyOp11
 70
     1
102
RTVSPropertyOp12
 70
     1
102
RTVSPropertyOp13
 70
     1
102
RTVSPropertyOp14
 70
     1
102
RTVSPropertyOp15
 70
     1
102
RTVSPropertyOp16
 70
     1
102
RTVSPropertyOp17
 70
     1
102
RTVSPropertyOp18
 70
     1
102
RTVSPropertyOp19
 70
     1
102
RTVSPropertyOp20
 70
     1
102
RTVSPropertyOp21
 70
     1
102
RTVSPropertyOp22
 70
     1
102
RTVSPropertyOp23
 70
     1
102
RTVSPropertyOp24
 70
     1
102
RTVSPropertyOp25
 70
     1
102
RTVSPropertyOp26
 70
     1
102
RTVSPropertyOp27
 70
     1
102
RTVSPropertyOp28
 70
     1
102
RTVSPropertyOp29
 70
     1
102
RTVSPropertyOp30
 70
     1
102
RTVSPropertyOp31
 70
     1
102
RTVSPropertyOp32
 70
     1
  0
XRECORD
  5
2FA
102
{ACAD_REACTORS
330
2F9
102
}
330
2F9
100
AcDbXrecord
280
     1
102
RTVSPropertyOp0
 70
     1
102
RTVSPropertyOp1
 70
     1
102
RTVSPropertyOp2
 70
     1
102
RTVSPropertyOp3
 70
     1
102
RTVSPropertyOp4
 70
     1
102
RTVSPropertyOp5
 70
     1
102
RTVSPropertyOp6
 70
     1
102
RTVSPropertyOp7
 70
     1
102
RTVSPropertyOp8
 70
     1
102
RTVSPropertyOp9
 70
     1
102
RTVSPropertyOp10
 70
     1
102
RTVSPropertyOp11
 70
     1
102
RTVSPropertyOp12
 70
     1
102
RTVSPropertyOp13
 70
     1
102
RTVSPropertyOp14
 70
     1
102
RTVSPropertyOp15
 70
     1
102
RTVSPropertyOp16
 70
     1
102
RTVSPropertyOp17
 70
     1
102
RTVSPropertyOp18
 70
     1
102
RTVSPropertyOp19
 70
     1
102
RTVSPropertyOp20
 70
     1
102
RTVSPropertyOp21
 70
     1
102
RTVSPropertyOp22
 70
     1
102
RTVSPropertyOp23
 70
     1
102
RTVSPropertyOp24
 70
     1
102
RTVSPropertyOp25
 70
     1
102
RTVSPropertyOp26
 70
     1
102
RTVSPropertyOp27
 70
     1
102
RTVSPropertyOp28
 70
     1
102
RTVSPropertyOp29
 70
     1
102
RTVSPropertyOp30
 70
     1
102
RTVSPropertyOp31
 70
     1
102
RTVSPropertyOp32
 70
     1
  0
XRECORD
  5
312
102
{ACAD_REACTORS
330
311
102
}
330
311
100
AcDbXrecord
280
     1
102
RTVSPropertyOp0
 70
     1
102
RTVSPropertyOp1
 70
     1
102
RTVSPropertyOp2
 70
     1
102
RTVSPropertyOp3
 70
     1
102
RTVSPropertyOp4
 70
     1
102
RTVSPropertyOp5
 70
     1
102
RTVSPropertyOp6
 70
     1
102
RTVSPropertyOp7
 70
     1
102
RTVSPropertyOp8
 70
     1
102
RTVSPropertyOp9
 70
     1
102
RTVSPropertyOp10
 70
     1
102
RTVSPropertyOp11
 70
     1
102
RTVSPropertyOp12
 70
     1
102
RTVSPropertyOp13
 70
     1
102
RTVSPropertyOp14
 70
     1
102
RTVSPropertyOp15
 70
     1
102
RTVSPropertyOp16
 70
     1
102
RTVSPropertyOp17
 70
     1
102
RTVSPropertyOp18
 70
     1
102
RTVSPropertyOp19
 70
     1
102
RTVSPropertyOp20
 70
     1
102
RTVSPropertyOp21
 70
     1
102
RTVSPropertyOp22
 70
     1
102
RTVSPropertyOp23
 70
     1
102
RTVSPropertyOp24
 70
     1
102
RTVSPropertyOp25
 70
     1
102
RTVSPropertyOp26
 70
     1
102
RTVSPropertyOp27
 70
     1
102
RTVSPropertyOp28
 70
     1
102
RTVSPropertyOp29
 70
     1
102
RTVSPropertyOp30
 70
     1
102
RTVSPropertyOp31
 70
     1
102
RTVSPropertyOp32
 70
     1
  0
ENDSEC
  0
EOF
