  0
SECTION
  2
HEADER
  9
$ACADVER
  1
AC1015
  9
$ACADMAINTVER
 70
     6
  9
$DWGCODEPAGE
  3
ANSI_1252
  9
$INSBASE
 10
0.0
 20
0.0
 30
0.0
  9
$EXTMIN
 10
-2.31771128429175
 20
-0.1894868830354093
 30
0.0
  9
$EXTMAX
 10
10.47217367130969
 20
23.81049356242714
 30
0.0
  9
$LIMMIN
 10
0.0
 20
0.0
  9
$LIMMAX
 10
20.0
 20
26.25
  9
$ORTHOMODE
 70
     0
  9
$REGENMODE
 70
     1
  9
$FILLMODE
 70
     1
  9
$QTEXTMODE
 70
     0
  9
$MIRRTEXT
 70
     0
  9
$LTSCALE
 40
0.5
  9
$ATTMODE
 70
     1
  9
$TEXTSIZE
 40
0.225
  9
$TRACEWID
 40
0.05
  9
$TEXTSTYLE
  7
STANDARD
  9
$CLAYER
  8
0
  9
$CELTYPE
  6
ByLayer
  9
$CECOLOR
 62
   256
  9
$CELTSCALE
 40
1.0
  9
$DISPSILH
 70
     0
  9
$DIMSCALE
 40
2.5
  9
$DIMASZ
 40
0.125
  9
$DIMEXO
 40
0.062
  9
$DIMDLI
 40
0.375
  9
$DIMRND
 40
0.0
  9
$DIMDLE
 40
0.0
  9
$DIMEXE
 40
0.08
  9
$DIMTP
 40
0.0
  9
$DIMTM
 40
0.0
  9
$DIMTXT
 40
0.09
  9
$DIMCEN
 40
-0.06
  9
$DIMTSZ
 40
0.0
  9
$DIMTOL
 70
     0
  9
$DIMLIM
 70
     0
  9
$DIMTIH
 70
     1
  9
$DIMTOH
 70
     1
  9
$DIMSE1
 70
     0
  9
$DIMSE2
 70
     0
  9
$DIMTAD
 70
     0
  9
$DIMZIN
 70
     0
  9
$DIMBLK
  1

  9
$DIMASO
 70
     0
  9
$DIMSHO
 70
     0
  9
$DIMPOST
  1

  9
$DIMAPOST
  1

  9
$DIMALT
 70
     0
  9
$DIMALTD
 70
     2
  9
$DIMALTF
 40
25.4
  9
$DIMLFAC
 40
1.0
  9
$DIMTOFL
 70
     0
  9
$DIMTVP
 40
0.0
  9
$DIMTIX
 70
     0
  9
$DIMSOXD
 70
     0
  9
$DIMSAH
 70
     0
  9
$DIMBLK1
  1

  9
$DIMBLK2
  1

  9
$DIMSTYLE
  2
Standard
  9
$DIMCLRD
 70
     0
  9
$DIMCLRE
 70
     0
  9
$DIMCLRT
 70
     0
  9
$DIMTFAC
 40
1.0
  9
$DIMGAP
 40
0.09
  9
$DIMJUST
 70
     0
  9
$DIMSD1
 70
     0
  9
$DIMSD2
 70
     0
  9
$DIMTOLJ
 70
     1
  9
$DIMTZIN
 70
     0
  9
$DIMALTZ
 70
     0
  9
$DIMALTTZ
 70
     0
  9
$DIMUPT
 70
     0
  9
$DIMDEC
 70
     4
  9
$DIMTDEC
 70
     4
  9
$DIMALTU
 70
     2
  9
$DIMALTTD
 70
     2
  9
$DIMTXSTY
  7
STANDARD
  9
$DIMAUNIT
 70
     0
  9
$DIMADEC
 70
     0
  9
$DIMALTRND
 40
0.0
  9
$DIMAZIN
 70
     0
  9
$DIMDSEP
 70
    46
  9
$DIMATFIT
 70
     3
  9
$DIMFRAC
 70
     0
  9
$DIMLDRBLK
  1

  9
$DIMLUNIT
 70
     2
  9
$DIMLWD
 70
    -2
  9
$DIMLWE
 70
    -2
  9
$DIMTMOVE
 70
     2
  9
$LUNITS
 70
     2
  9
$LUPREC
 70
     4
  9
$SKETCHINC
 40
0.1
  9
$FILLETRAD
 40
2.1875
  9
$AUNITS
 70
     0
  9
$AUPREC
 70
     0
  9
$MENU
  1
simpson
  9
$ELEVATION
 40
0.0
  9
$PELEVATION
 40
0.0
  9
$THICKNESS
 40
0.0
  9
$LIMCHECK
 70
     0
  9
$CHAMFERA
 40
0.0
  9
$CHAMFERB
 40
0.0
  9
$CHAMFERC
 40
0.0
  9
$CHAMFERD
 40
0.0
  9
$SKPOLY
 70
     0
  9
$TDCREATE
 40
2450709.693507639
  9
$TDUCREATE
 40
2450710.026840972
  9
$TDUPDATE
 40
2454160.682698635
  9
$TDUUPDATE
 40
2454161.016031968
  9
$TDINDWG
 40
0.2387322685
  9
$TDUSRTIMER
 40
0.2387322685
  9
$USRTIMER
 70
     1
  9
$ANGBASE
 50
0.0
  9
$ANGDIR
 70
     0
  9
$PDMODE
 70
     0
  9
$PDSIZE
 40
0.0
  9
$PLINEWID
 40
0.0
  9
$SPLFRAME
 70
     0
  9
$SPLINETYPE
 70
     6
  9
$SPLINESEGS
 70
     8
  9
$HANDSEED
  5
E6
  9
$SURFTAB1
 70
     6
  9
$SURFTAB2
 70
     6
  9
$SURFTYPE
 70
     6
  9
$SURFU
 70
     6
  9
$SURFV
 70
     6
  9
$UCSBASE
  2

  9
$UCSNAME
  2

  9
$UCSORG
 10
0.0
 20
0.0
 30
0.0
  9
$UCSXDIR
 10
1.0
 20
0.0
 30
0.0
  9
$UCSYDIR
 10
0.0
 20
1.0
 30
0.0
  9
$UCSORTHOREF
  2

  9
$UCSORTHOVIEW
 70
     0
  9
$UCSORGTOP
 10
0.0
 20
0.0
 30
0.0
  9
$UCSORGBOTTOM
 10
0.0
 20
0.0
 30
0.0
  9
$UCSORGLEFT
 10
0.0
 20
0.0
 30
0.0
  9
$UCSORGRIGHT
 10
0.0
 20
0.0
 30
0.0
  9
$UCSORGFRONT
 10
0.0
 20
0.0
 30
0.0
  9
$UCSORGBACK
 10
0.0
 20
0.0
 30
0.0
  9
$PUCSBASE
  2

  9
$PUCSNAME
  2

  9
$PUCSORG
 10
0.0
 20
0.0
 30
0.0
  9
$PUCSXDIR
 10
1.0
 20
0.0
 30
0.0
  9
$PUCSYDIR
 10
0.0
 20
1.0
 30
0.0
  9
$PUCSORTHOREF
  2

  9
$PUCSORTHOVIEW
 70
     0
  9
$PUCSORGTOP
 10
0.0
 20
0.0
 30
0.0
  9
$PUCSORGBOTTOM
 10
0.0
 20
0.0
 30
0.0
  9
$PUCSORGLEFT
 10
0.0
 20
0.0
 30
0.0
  9
$PUCSORGRIGHT
 10
0.0
 20
0.0
 30
0.0
  9
$PUCSORGFRONT
 10
0.0
 20
0.0
 30
0.0
  9
$PUCSORGBACK
 10
0.0
 20
0.0
 30
0.0
  9
$USERI1
 70
     0
  9
$USERI2
 70
     0
  9
$USERI3
 70
     0
  9
$USERI4
 70
     0
  9
$USERI5
 70
     0
  9
$USERR1
 40
0.0
  9
$USERR2
 40
0.0
  9
$USERR3
 40
0.0
  9
$USERR4
 40
0.0
  9
$USERR5
 40
0.0
  9
$WORLDVIEW
 70
     1
  9
$SHADEDGE
 70
     3
  9
$SHADEDIF
 70
    70
  9
$TILEMODE
 70
     1
  9
$MAXACTVP
 70
    16
  9
$PINSBASE
 10
0.0
 20
0.0
 30
0.0
  9
$PLIMCHECK
 70
     0
  9
$PEXTMIN
 10
1.000000000000000E+20
 20
1.000000000000000E+20
 30
1.000000000000000E+20
  9
$PEXTMAX
 10
-1.000000000000000E+20
 20
-1.000000000000000E+20
 30
-1.000000000000000E+20
  9
$PLIMMIN
 10
0.0
 20
0.0
  9
$PLIMMAX
 10
12.0
 20
9.0
  9
$UNITMODE
 70
     0
  9
$VISRETAIN
 70
     0
  9
$PLINEGEN
 70
     0
  9
$PSLTSCALE
 70
     0
  9
$TREEDEPTH
 70
  3020
  9
$CMLSTYLE
  2
Standard
  9
$CMLJUST
 70
     0
  9
$CMLSCALE
 40
1.0
  9
$PROXYGRAPHICS
 70
     1
  9
$MEASUREMENT
 70
     0
  9
$CELWEIGHT
370
    -1
  9
$ENDCAPS
280
     0
  9
$JOINSTYLE
280
     0
  9
$LWDISPLAY
290
     0
  9
$INSUNITS
 70
     0
  9
$HYPERLINKBASE
  1

  9
$STYLESHEET
  1

  9
$XEDIT
290
     1
  9
$CEPSNTYPE
380
     0
  9
$PSTYLEMODE
290
     1
  9
$FINGERPRINTGUID
  2
{D70926AB-8A4C-4E61-B674-8F497F30E9A7}
  9
$VERSIONGUID
  2
{8C8B1259-FA2A-4208-838E-49C76E0B71E8}
  9
$EXTNAMES
290
     1
  9
$PSVPSCALE
 40
0.0
  9
$OLESTARTUP
290
     0
  0
ENDSEC
  0
SECTION
  2
CLASSES
  0
CLASS
  1
ACDBDICTIONARYWDFLT
  2
AcDbDictionaryWithDefault
  3
AutoCAD 2000
 90
        0
280
     0
281
     0
  0
CLASS
  1
ACDBPLACEHOLDER
  2
AcDbPlaceHolder
  3
ObjectDBX Classes
 90
        0
280
     0
281
     0
  0
CLASS
  1
LAYOUT
  2
AcDbLayout
  3
ObjectDBX Classes
 90
        0
280
     0
281
     0
  0
CLASS
  1
DICTIONARYVAR
  2
AcDbDictionaryVar
  3
AutoCAD 2000
 90
        0
280
     0
281
     0
  0
CLASS
  1
LONG_TRANSACTION
  2
AcDbLongTransaction
  3
ObjectDBX Classes
 90
   -65536
280
     1
281
     0
  0
CLASS
  1
LWPOLYLINE
  2
AcDbPolyline
  3
AutoCAD 2000
 90
        0
280
     0
281
     1
  0
CLASS
  1
HATCH
  2
AcDbHatch
  3
AutoCAD 2000
 90
        0
280
     0
281
     1
  0
CLASS
  1
XRECORD
  2
AcDbXrecord
  3
AutoCAD 2000
 90
        0
280
     0
281
     0
  0
CLASS
  1
LONG_TRANSACTION
  2
AcDbLongTransaction
  3
ObjectDBX Classes
 90
   -65536
280
     1
281
     0
  0
CLASS
  1
LWPOLYLINE
  2
AcDbPolyline
  3
AutoCAD 2000
 90
        0
280
     0
281
     1
  0
CLASS
  1
HATCH
  2
AcDbHatch
  3
AutoCAD 2000
 90
        0
280
     0
281
     1
  0
CLASS
  1
XRECORD
  2
AcDbXrecord
  3
AutoCAD 2000
 90
        0
280
     0
281
     0
  0
CLASS
  1
LONG_TRANSACTION
  2
AcDbLongTransaction
  3
ObjectDBX Classes
 90
   -65536
280
     1
281
     0
  0
CLASS
  1
LWPOLYLINE
  2
AcDbPolyline
  3
AutoCAD 2000
 90
        0
280
     0
281
     1
  0
CLASS
  1
HATCH
  2
AcDbHatch
  3
AutoCAD 2000
 90
        0
280
     0
281
     1
  0
CLASS
  1
XRECORD
  2
AcDbXrecord
  3
AutoCAD 2000
 90
        0
280
     0
281
     0
  0
CLASS
  1
TABLESTYLE
  2
AcDbTableStyle
  3
ObjectDBX Classes
 90
     2047
280
     1
281
     0
  0
ENDSEC
  0
SECTION
  2
TABLES
  0
TABLE
  2
VPORT
  5
1D
330
0
100
AcDbSymbolTable
 70
     2
  0
VPORT
  5
D9
330
1D
100
AcDbSymbolTableRecord
100
AcDbViewportTableRecord
  2
*Active
 70
     0
 10
0.0
 20
0.0
 11
1.0
 21
1.0
 12
8.840789816855441
 22
13.85352278559518
 13
0.0
 23
0.0
 14
0.063
 24
0.063
 15
0.25
 25
0.25
 16
0.0
 26
0.0
 36
1.0
 17
0.0
 27
0.0
 37
0.0
 40
28.50775563837518
 41
1.814583333333333
 42
50.0
 43
0.0
 44
0.0
 50
0.0
 51
0.0
 71
     0
 72
   100
 73
     1
 74
     0
 75
     0
 76
     0
 77
     0
 78
     0
281
     0
 65
     1
110
0.0
120
0.0
130
0.0
111
1.0
121
0.0
131
0.0
112
0.0
122
1.0
132
0.0
 79
     0
146
0.0
  0
ENDTAB
  0
TABLE
  2
LTYPE
  5
18
330
0
100
AcDbSymbolTable
 70
     1
  0
LTYPE
  5
19
330
18
100
AcDbSymbolTableRecord
100
AcDbLinetypeTableRecord
  2
ByBlock
 70
     0
  3

 72
    65
 73
     0
 40
0.0
  0
LTYPE
  5
1A
330
18
100
AcDbSymbolTableRecord
100
AcDbLinetypeTableRecord
  2
ByLayer
 70
     0
  3

 72
    65
 73
     0
 40
0.0
  0
LTYPE
  5
A
330
18
100
AcDbSymbolTableRecord
100
AcDbLinetypeTableRecord
  2
CONTINUOUS
 70
     0
  3
Solid line
 72
    65
 73
     0
 40
0.0
  0
ENDTAB
  0
TABLE
  2
LAYER
  5
14
330
0
100
AcDbSymbolTable
 70
     1
  0
LAYER
  5
6
330
14
100
AcDbSymbolTableRecord
100
AcDbLayerTableRecord
  2
0
 70
     0
 62
     7
  6
CONTINUOUS
370
    -3
390
7
  0
ENDTAB
  0
TABLE
  2
STYLE
  5
15
330
0
100
AcDbSymbolTable
 70
     1
  0
STYLE
  5
16
330
15
100
AcDbSymbolTableRecord
100
AcDbTextStyleTableRecord
  2
STANDARD
 70
     0
 40
0.0
 41
1.0
 50
0.0
 71
     0
 42
0.225
  3
TXT
  4

  0
ENDTAB
  0
TABLE
  2
VIEW
  5
1B
330
0
100
AcDbSymbolTable
 70
     0
  0
ENDTAB
  0
TABLE
  2
UCS
  5
1C
330
0
100
AcDbSymbolTable
 70
     0
  0
ENDTAB
  0
TABLE
  2
APPID
  5
1F
330
0
100
AcDbSymbolTable
 70
     1
  0
APPID
  5
20
330
1F
100
AcDbSymbolTableRecord
100
AcDbRegAppTableRecord
  2
ACAD
 70
     0
  0
ENDTAB
  0
TABLE
  2
DIMSTYLE
  5
21
330
0
100
AcDbSymbolTable
 70
     1
100
AcDbDimStyleTable
  0
DIMSTYLE
105
22
330
21
100
AcDbSymbolTableRecord
100
AcDbDimStyleTableRecord
  2
Standard
 70
     0
  3

  4

340
16
  0
ENDTAB
  0
TABLE
  2
BLOCK_RECORD
  5
1
330
0
100
AcDbSymbolTable
 70
     0
  0
BLOCK_RECORD
  5
2
330
1
100
AcDbSymbolTableRecord
100
AcDbBlockTableRecord
  2
*Model_Space
340
C
  0
BLOCK_RECORD
  5
E
330
1
100
AcDbSymbolTableRecord
100
AcDbBlockTableRecord
  2
*Paper_Space
340
13
  0
ENDTAB
  0
ENDSEC
  0
SECTION
  2
BLOCKS
  0
BLOCK
  5
5
330
2
100
AcDbEntity
  8
0
100
AcDbBlockBegin
  2
*Model_Space
 70
     0
 10
0.0
 20
0.0
 30
0.0
  3
*Model_Space
  1

  4

  0
ENDBLK
  5
B
330
2
100
AcDbEntity
  8
0
100
AcDbBlockEnd
  0
BLOCK
  5
11
330
E
100
AcDbEntity
 67
     1
  8
0
100
AcDbBlockBegin
  2
*Paper_Space
 70
     0
 10
0.0
 20
0.0
 30
0.0
  3
*Paper_Space
  1

  4

  0
ENDBLK
  5
12
330
E
100
AcDbEntity
 67
     1
  8
0
100
AcDbBlockEnd
  0
ENDSEC
  0
SECTION
  2
ENTITIES
  0
LINE
  5
29
330
2
100
AcDbEntity
  8
0
100
AcDbLine
 10
0.3492329100926686
 20
11.14549519845822
 30
0.0
 11
1.060541498273889
 21
6.883390936433415
 31
0.0
  0
LINE
  5
2A
330
2
100
AcDbEntity
  8
0
100
AcDbLine
 10
-0.2792097646345528
 20
11.14549519845822
 30
0.0
 11
0.4351072266262808
 21
6.748674204603278
 31
0.0
  0
ARC
  5
2B
330
2
100
AcDbEntity
  8
0
100
AcDbCircle
 10
2.601404562054491
 20
7.052503275820362
 30
0.0
 40
2.1875
100
AcDbArc
 50
187.9838107612361
 51
246.2621942103754
  0
ARC
  5
2C
330
2
100
AcDbEntity
  8
0
100
AcDbCircle
 10
2.614481959786815
 20
7.046716660289121
 30
0.0
 40
1.5625
100
AcDbArc
 50
186.0
 51
246.0
  0
ARC
  5
2D
330
2
100
AcDbEntity
  8
0
100
AcDbCircle
 10
1.604751108344072
 20
1.70558236673531
 30
0.0
 40
1.5625
100
AcDbArc
 50
95.99999999999999
 51
276.0
  0
ARC
  5
2E
330
2
100
AcDbEntity
  8
0
100
AcDbCircle
 10
1.34342995017494
 20
4.191887105155992
 30
0.0
 40
0.9375
100
AcDbArc
 50
276.0
 51
66.26219421037544
  0
ARC
  5
2F
330
2
100
AcDbEntity
  8
0
100
AcDbCircle
 10
1.34342995017494
 20
4.191887105155992
 30
0.0
 40
1.5625
100
AcDbArc
 50
276.0
 51
66.00000000000001
  0
LINE
  5
30
330
2
100
AcDbEntity
  8
0
100
AcDbLine
 10
1.702746542657497
 20
0.7732180898275551
 30
0.0
 11
1.9516533456381
 21
0.7993792490072558
 31
0.0
  0
ARC
  5
31
330
2
100
AcDbEntity
  8
0
100
AcDbCircle
 10
1.604751108344072
 20
1.70558236673531
 30
0.0
 40
0.9375
100
AcDbArc
 50
95.99999999999999
 51
276.0
  0
LINE
  5
32
330
2
100
AcDbEntity
  8
0
100
AcDbLine
 10
1.951377016499567
 20
0.8020083451405746
 30
0.0
 11
2.016707306041848
 21
0.1804321605354033
 31
0.0
  0
LINE
  5
33
330
2
100
AcDbEntity
  8
0
100
AcDbLine
 10
1.768076832199782
 20
0.1516419052223839
 30
0.0
 11
2.016983635180381
 21
0.1778030644020845
 31
0.0
  0
LINE
  5
34
330
2
100
AcDbEntity
  8
0
100
AcDbLine
 10
2.016707306041848
 20
0.1804321605354033
 30
0.0
 11
2.016983635180381
 21
0.1778030644020845
 31
0.0
  0
LINE
  5
35
330
2
100
AcDbEntity
  8
0
100
AcDbLine
 10
-0.2470462284764796
 20
15.9265328956625
 30
0.0
 11
0.2894993267209891
 21
15.98889711038984
 31
0.0
  0
LINE
  5
36
330
2
100
AcDbEntity
  8
0
100
AcDbLine
 10
0.3422821018539359
 20
11.20799519845822
 30
0.0
 11
0.3337265491222539
 21
16.21972067559116
 31
0.0
  0
LINE
  5
37
330
2
100
AcDbEntity
  8
0
100
AcDbLine
 10
-0.2869553888313146
 20
11.20799519845822
 30
0.0
 11
-0.2912734508777461
 21
16.21972067559116
 31
0.0
  0
LINE
  5
38
330
2
100
AcDbEntity
  8
0
100
AcDbLine
 10
-0.2514678981460641
 20
11.20799519845822
 30
0.0
 11
0.3422821018539359
 21
11.20799519845822
 31
0.0
  0
LINE
  5
39
330
2
100
AcDbEntity
  8
0
100
AcDbLine
 10
-0.2514678981460641
 20
11.14549519845822
 30
0.0
 11
0.3492329100926579
 21
11.14549519845822
 31
0.0
  0
LINE
  5
3A
330
2
100
AcDbEntity
  8
0
100
AcDbLine
 10
-0.2827178981460641
 20
11.20799519845822
 30
0.0
 11
-0.2514678981460641
 21
11.20799519845822
 31
0.0
  0
LINE
  5
3B
330
2
100
AcDbEntity
  8
0
100
AcDbLine
 10
-0.2792097646345386
 20
11.14549519845822
 30
0.0
 11
-0.2514678981460641
 21
11.14549519845822
 31
0.0
  0
ARC
  5
3C
330
2
100
AcDbEntity
  8
0
100
AcDbCircle
 10
-0.2827178981460641
 20
11.17674519845822
 30
0.0
 40
0.03125
100
AcDbArc
 50
0.0
 51
90.0
  0
ARC
  5
3D
330
2
100
AcDbEntity
  8
0
100
AcDbCircle
 10
-0.2827172742555568
 20
11.17654773259408
 30
0.0
 40
0.03125
100
AcDbArc
 50
276.4444756747145
 51
0.3620491490063159
  0
ARC
  5
3E
330
2
100
AcDbEntity
  8
0
100
AcDbCircle
 10
0.3422821018539359
 20
11.17674519845822
 30
0.0
 40
0.03125
100
AcDbArc
 50
89.99999999999999
 51
180.0
  0
ARC
  5
3F
330
2
100
AcDbEntity
  8
0
100
AcDbCircle
 10
0.3422722387719261
 20
11.17596012180893
 30
0.0
 40
0.03125
100
AcDbArc
 50
178.5604380308048
 51
282.8701046498812
  0
ARC
  5
40
330
2
100
AcDbEntity
  8
0
100
AcDbCircle
 10
-0.2412734508777454
 20
13.87686726329166
 30
0.0
 40
0.05
100
AcDbArc
 50
96.6299012779091
 51
180.0
  0
LINE
  5
41
330
2
100
AcDbEntity
  8
0
100
AcDbLine
 10
-0.2912734508777461
 20
13.92139223991034
 30
0.0
 11
-0.2912734508777461
 21
13.87686726329166
 31
0.0
  0
ARC
  5
42
330
2
100
AcDbEntity
  8
0
100
AcDbCircle
 10
0.2837265491222532
 20
13.92650671881272
 30
0.0
 40
0.05
100
AcDbArc
 50
276.6299012779099
 51
0.0
  0
ARC
  5
43
330
2
100
AcDbEntity
  8
0
100
AcDbCircle
 10
0.2837265491222532
 20
12.92650671881272
 30
0.0
 40
0.05
100
AcDbArc
 50
276.6299012779099
 51
0.0
  0
LINE
  5
44
330
2
100
AcDbEntity
  8
0
100
AcDbLine
 10
-0.2470462284764796
 20
12.81447687171455
 30
0.0
 11
0.2894993267209891
 21
12.87684108644188
 31
0.0
  0
LINE
  5
45
330
2
100
AcDbEntity
  8
0
100
AcDbLine
 10
-0.2470462284764796
 20
12.68947687171455
 30
0.0
 11
0.2894993267209891
 21
12.75184108644188
 31
0.0
  0
LINE
  5
46
330
2
100
AcDbEntity
  8
0
100
AcDbLine
 10
-0.2470462284764796
 20
12.56447687171455
 30
0.0
 11
0.2894993267209891
 21
12.62684108644188
 31
0.0
  0
LINE
  5
47
330
2
100
AcDbEntity
  8
0
100
AcDbLine
 10
-0.2912734508777461
 20
12.80933621596238
 30
0.0
 11
-0.2912734508777461
 21
12.7648112393437
 31
0.0
  0
ARC
  5
48
330
2
100
AcDbEntity
  8
0
100
AcDbCircle
 10
-0.2412734508777454
 20
12.7648112393437
 30
0.0
 40
0.05
100
AcDbArc
 50
96.6299012779091
 51
180.0
  0
LINE
  5
49
330
2
100
AcDbEntity
  8
0
100
AcDbLine
 10
-0.2912734508777461
 20
12.68433621596238
 30
0.0
 11
-0.2912734508777461
 21
12.6398112393437
 31
0.0
  0
ARC
  5
4A
330
2
100
AcDbEntity
  8
0
100
AcDbCircle
 10
-0.2412734508777454
 20
12.6398112393437
 30
0.0
 40
0.05
100
AcDbArc
 50
96.6299012779091
 51
180.0
  0
ARC
  5
4B
330
2
100
AcDbEntity
  8
0
100
AcDbCircle
 10
-0.2412734508777454
 20
12.5148112393437
 30
0.0
 40
0.05
100
AcDbArc
 50
96.6299012779091
 51
180.0
  0
LINE
  5
4C
330
2
100
AcDbEntity
  8
0
100
AcDbLine
 10
-0.2912734508777461
 20
12.55933621596238
 30
0.0
 11
-0.2912734508777461
 21
12.5148112393437
 31
0.0
  0
ARC
  5
4D
330
2
100
AcDbEntity
  8
0
100
AcDbCircle
 10
0.2837265491222532
 20
12.80150671881272
 30
0.0
 40
0.05
100
AcDbArc
 50
276.6299012779099
 51
0.0
  0
ARC
  5
4E
330
2
100
AcDbEntity
  8
0
100
AcDbCircle
 10
0.2837265491222532
 20
12.67650671881272
 30
0.0
 40
0.05
100
AcDbArc
 50
276.6299012779099
 51
0.0
  0
LINE
  5
4F
330
2
100
AcDbEntity
  8
0
100
AcDbLine
 10
-0.2470462284764796
 20
13.81447687171455
 30
0.0
 11
0.2894993267209891
 21
13.87684108644188
 31
0.0
  0
LINE
  5
50
330
2
100
AcDbEntity
  8
0
100
AcDbLine
 10
-0.2470462284764796
 20
13.68947687171455
 30
0.0
 11
0.2894993267209891
 21
13.75184108644188
 31
0.0
  0
LINE
  5
51
330
2
100
AcDbEntity
  8
0
100
AcDbLine
 10
-0.2470462284764796
 20
13.56447687171455
 30
0.0
 11
0.2894993267209891
 21
13.62684108644188
 31
0.0
  0
LINE
  5
52
330
2
100
AcDbEntity
  8
0
100
AcDbLine
 10
-0.2470462284764796
 20
13.43947687171455
 30
0.0
 11
0.2894993267209891
 21
13.50184108644188
 31
0.0
  0
LINE
  5
53
330
2
100
AcDbEntity
  8
0
100
AcDbLine
 10
-0.2470462284764796
 20
13.31447687171455
 30
0.0
 11
0.2894993267209891
 21
13.37684108644188
 31
0.0
  0
LINE
  5
54
330
2
100
AcDbEntity
  8
0
100
AcDbLine
 10
-0.2470462284764796
 20
13.18947687171455
 30
0.0
 11
0.2894993267209891
 21
13.25184108644188
 31
0.0
  0
LINE
  5
55
330
2
100
AcDbEntity
  8
0
100
AcDbLine
 10
-0.2470462284764796
 20
13.06447687171455
 30
0.0
 11
0.2894993267209891
 21
13.12684108644188
 31
0.0
  0
LINE
  5
56
330
2
100
AcDbEntity
  8
0
100
AcDbLine
 10
-0.2470462284764796
 20
12.93947687171455
 30
0.0
 11
0.2894993267209891
 21
13.00184108644188
 31
0.0
  0
LINE
  5
57
330
2
100
AcDbEntity
  8
0
100
AcDbLine
 10
-0.2912734508777461
 20
13.43433621596238
 30
0.0
 11
-0.2912734508777461
 21
13.3898112393437
 31
0.0
  0
ARC
  5
58
330
2
100
AcDbEntity
  8
0
100
AcDbCircle
 10
-0.2412734508777454
 20
13.3898112393437
 30
0.0
 40
0.05
100
AcDbArc
 50
96.6299012779091
 51
180.0
  0
LINE
  5
59
330
2
100
AcDbEntity
  8
0
100
AcDbLine
 10
-0.2912734508777461
 20
13.30933621596238
 30
0.0
 11
-0.2912734508777461
 21
13.2648112393437
 31
0.0
  0
ARC
  5
5A
330
2
100
AcDbEntity
  8
0
100
AcDbCircle
 10
-0.2412734508777454
 20
13.2648112393437
 30
0.0
 40
0.05
100
AcDbArc
 50
96.6299012779091
 51
180.0
  0
LINE
  5
5B
330
2
100
AcDbEntity
  8
0
100
AcDbLine
 10
-0.2912734508777461
 20
13.18433621596238
 30
0.0
 11
-0.2912734508777461
 21
13.1398112393437
 31
0.0
  0
ARC
  5
5C
330
2
100
AcDbEntity
  8
0
100
AcDbCircle
 10
-0.2412734508777454
 20
13.1398112393437
 30
0.0
 40
0.05
100
AcDbArc
 50
96.6299012779091
 51
180.0
  0
LINE
  5
5D
330
2
100
AcDbEntity
  8
0
100
AcDbLine
 10
-0.2912734508777461
 20
13.05933621596238
 30
0.0
 11
-0.2912734508777461
 21
13.0148112393437
 31
0.0
  0
ARC
  5
5E
330
2
100
AcDbEntity
  8
0
100
AcDbCircle
 10
-0.2412734508777454
 20
13.0148112393437
 30
0.0
 40
0.05
100
AcDbArc
 50
96.6299012779091
 51
180.0
  0
LINE
  5
5F
330
2
100
AcDbEntity
  8
0
100
AcDbLine
 10
-0.2912734508777461
 20
12.93433621596238
 30
0.0
 11
-0.2912734508777461
 21
12.8898112393437
 31
0.0
  0
ARC
  5
60
330
2
100
AcDbEntity
  8
0
100
AcDbCircle
 10
-0.2412734508777454
 20
12.8898112393437
 30
0.0
 40
0.05
100
AcDbArc
 50
96.6299012779091
 51
180.0
  0
ARC
  5
61
330
2
100
AcDbEntity
  8
0
100
AcDbCircle
 10
-0.2412734508777454
 20
13.7648112393437
 30
0.0
 40
0.05
100
AcDbArc
 50
96.6299012779091
 51
180.0
  0
LINE
  5
62
330
2
100
AcDbEntity
  8
0
100
AcDbLine
 10
-0.2912734508777461
 20
13.80933621596238
 30
0.0
 11
-0.2912734508777461
 21
13.7648112393437
 31
0.0
  0
LINE
  5
63
330
2
100
AcDbEntity
  8
0
100
AcDbLine
 10
-0.2912734508777461
 20
13.68433621596238
 30
0.0
 11
-0.2912734508777461
 21
13.6398112393437
 31
0.0
  0
ARC
  5
64
330
2
100
AcDbEntity
  8
0
100
AcDbCircle
 10
-0.2412734508777454
 20
13.6398112393437
 30
0.0
 40
0.05
100
AcDbArc
 50
96.6299012779091
 51
180.0
  0
LINE
  5
65
330
2
100
AcDbEntity
  8
0
100
AcDbLine
 10
-0.2912734508777461
 20
13.55933621596238
 30
0.0
 11
-0.2912734508777461
 21
13.5148112393437
 31
0.0
  0
ARC
  5
66
330
2
100
AcDbEntity
  8
0
100
AcDbCircle
 10
-0.2412734508777454
 20
13.5148112393437
 30
0.0
 40
0.05
100
AcDbArc
 50
96.6299012779091
 51
180.0
  0
ARC
  5
67
330
2
100
AcDbEntity
  8
0
100
AcDbCircle
 10
0.2837265491222532
 20
13.42650671881272
 30
0.0
 40
0.05
100
AcDbArc
 50
276.6299012779099
 51
0.0
  0
ARC
  5
68
330
2
100
AcDbEntity
  8
0
100
AcDbCircle
 10
0.2837265491222532
 20
13.30150671881272
 30
0.0
 40
0.05
100
AcDbArc
 50
276.6299012779099
 51
0.0
  0
ARC
  5
69
330
2
100
AcDbEntity
  8
0
100
AcDbCircle
 10
0.2837265491222532
 20
13.17650671881272
 30
0.0
 40
0.05
100
AcDbArc
 50
276.6299012779099
 51
0.0
  0
ARC
  5
6A
330
2
100
AcDbEntity
  8
0
100
AcDbCircle
 10
0.2837265491222532
 20
13.05150671881272
 30
0.0
 40
0.05
100
AcDbArc
 50
276.6299012779099
 51
0.0
  0
ARC
  5
6B
330
2
100
AcDbEntity
  8
0
100
AcDbCircle
 10
0.2837265491222532
 20
13.80150671881272
 30
0.0
 40
0.05
100
AcDbArc
 50
276.6299012779099
 51
0.0
  0
ARC
  5
6C
330
2
100
AcDbEntity
  8
0
100
AcDbCircle
 10
0.2837265491222532
 20
13.67650671881272
 30
0.0
 40
0.05
100
AcDbArc
 50
276.6299012779099
 51
0.0
  0
ARC
  5
6D
330
2
100
AcDbEntity
  8
0
100
AcDbCircle
 10
0.2837265491222532
 20
13.55150671881272
 30
0.0
 40
0.05
100
AcDbArc
 50
276.6299012779099
 51
0.0
  0
LINE
  5
6E
330
2
100
AcDbEntity
  8
0
100
AcDbLine
 10
-0.2470462284764796
 20
14.9265328956625
 30
0.0
 11
0.2894993267209891
 21
14.98889711038984
 31
0.0
  0
LINE
  5
6F
330
2
100
AcDbEntity
  8
0
100
AcDbLine
 10
-0.2912734508777461
 20
14.97414871828548
 30
0.0
 11
-0.2912734508777461
 21
14.9296237416668
 31
0.0
  0
LINE
  5
70
330
2
100
AcDbEntity
  8
0
100
AcDbLine
 10
-0.2470462284764796
 20
14.8015328956625
 30
0.0
 11
0.2894993267209891
 21
14.86389711038984
 31
0.0
  0
LINE
  5
71
330
2
100
AcDbEntity
  8
0
100
AcDbLine
 10
-0.2470462284764796
 20
14.6765328956625
 30
0.0
 11
0.2894993267209891
 21
14.73889711038984
 31
0.0
  0
LINE
  5
72
330
2
100
AcDbEntity
  8
0
100
AcDbLine
 10
-0.2470462284764796
 20
14.5515328956625
 30
0.0
 11
0.2894993267209891
 21
14.61389711038984
 31
0.0
  0
LINE
  5
73
330
2
100
AcDbEntity
  8
0
100
AcDbLine
 10
-0.2470462284764796
 20
13.9265328956625
 30
0.0
 11
0.2894993267209891
 21
13.98889711038984
 31
0.0
  0
LINE
  5
74
330
2
100
AcDbEntity
  8
0
100
AcDbLine
 10
-0.2470462284764796
 20
14.0515328956625
 30
0.0
 11
0.2894993267209891
 21
14.11389711038984
 31
0.0
  0
LINE
  5
75
330
2
100
AcDbEntity
  8
0
100
AcDbLine
 10
-0.2470462284764796
 20
14.1765328956625
 30
0.0
 11
0.2894993267209891
 21
14.23889711038984
 31
0.0
  0
LINE
  5
76
330
2
100
AcDbEntity
  8
0
100
AcDbLine
 10
-0.2470462284764796
 20
14.3015328956625
 30
0.0
 11
0.2894993267209891
 21
14.36389711038984
 31
0.0
  0
LINE
  5
77
330
2
100
AcDbEntity
  8
0
100
AcDbLine
 10
-0.2470462284764796
 20
14.4265328956625
 30
0.0
 11
0.2894993267209891
 21
14.48889711038984
 31
0.0
  0
ARC
  5
78
330
2
100
AcDbEntity
  8
0
100
AcDbCircle
 10
-0.2412734508777454
 20
14.37686726329166
 30
0.0
 40
0.05
100
AcDbArc
 50
96.6299012779091
 51
180.0
  0
ARC
  5
79
330
2
100
AcDbEntity
  8
0
100
AcDbCircle
 10
-0.2412734508777454
 20
14.00186726329166
 30
0.0
 40
0.05
100
AcDbArc
 50
96.6299012779091
 51
180.0
  0
LINE
  5
7A
330
2
100
AcDbEntity
  8
0
100
AcDbLine
 10
-0.2912734508777461
 20
14.04639223991034
 30
0.0
 11
-0.2912734508777461
 21
14.00186726329166
 31
0.0
  0
ARC
  5
7B
330
2
100
AcDbEntity
  8
0
100
AcDbCircle
 10
-0.2412734508777454
 20
14.12686726329166
 30
0.0
 40
0.05
100
AcDbArc
 50
96.6299012779091
 51
180.0
  0
LINE
  5
7C
330
2
100
AcDbEntity
  8
0
100
AcDbLine
 10
-0.2912734508777461
 20
14.17139223991034
 30
0.0
 11
-0.2912734508777461
 21
14.12686726329166
 31
0.0
  0
ARC
  5
7D
330
2
100
AcDbEntity
  8
0
100
AcDbCircle
 10
-0.2412734508777454
 20
14.25186726329166
 30
0.0
 40
0.05
100
AcDbArc
 50
96.6299012779091
 51
180.0
  0
LINE
  5
7E
330
2
100
AcDbEntity
  8
0
100
AcDbLine
 10
-0.2912734508777461
 20
14.29639223991034
 30
0.0
 11
-0.2912734508777461
 21
14.25186726329166
 31
0.0
  0
LINE
  5
7F
330
2
100
AcDbEntity
  8
0
100
AcDbLine
 10
-0.2912734508777461
 20
14.42139223991034
 30
0.0
 11
-0.2912734508777461
 21
14.37686726329166
 31
0.0
  0
ARC
  5
80
330
2
100
AcDbEntity
  8
0
100
AcDbCircle
 10
-0.2412734508777454
 20
14.87686726329166
 30
0.0
 40
0.05
100
AcDbArc
 50
96.6299012779091
 51
180.0
  0
ARC
  5
81
330
2
100
AcDbEntity
  8
0
100
AcDbCircle
 10
-0.2412734508777454
 20
14.75186726329166
 30
0.0
 40
0.05
100
AcDbArc
 50
96.6299012779091
 51
180.0
  0
ARC
  5
82
330
2
100
AcDbEntity
  8
0
100
AcDbCircle
 10
-0.2412734508777454
 20
14.62686726329166
 30
0.0
 40
0.05
100
AcDbArc
 50
96.6299012779091
 51
180.0
  0
ARC
  5
83
330
2
100
AcDbEntity
  8
0
100
AcDbCircle
 10
-0.2412734508777454
 20
14.50186726329166
 30
0.0
 40
0.05
100
AcDbArc
 50
96.6299012779091
 51
180.0
  0
LINE
  5
84
330
2
100
AcDbEntity
  8
0
100
AcDbLine
 10
-0.2912734508777461
 20
14.84914871828548
 30
0.0
 11
-0.2912734508777461
 21
14.8046237416668
 31
0.0
  0
LINE
  5
85
330
2
100
AcDbEntity
  8
0
100
AcDbLine
 10
-0.2912734508777461
 20
14.72414871828548
 30
0.0
 11
-0.2912734508777461
 21
14.6796237416668
 31
0.0
  0
LINE
  5
86
330
2
100
AcDbEntity
  8
0
100
AcDbLine
 10
-0.2912734508777461
 20
14.59914871828548
 30
0.0
 11
-0.2912734508777461
 21
14.5546237416668
 31
0.0
  0
ARC
  5
87
330
2
100
AcDbEntity
  8
0
100
AcDbCircle
 10
0.2837265491222532
 20
14.03856274276068
 30
0.0
 40
0.05
100
AcDbArc
 50
276.6299012779099
 51
0.0
  0
ARC
  5
88
330
2
100
AcDbEntity
  8
0
100
AcDbCircle
 10
0.2837265491222532
 20
14.16356274276068
 30
0.0
 40
0.05
100
AcDbArc
 50
276.6299012779099
 51
0.0
  0
ARC
  5
89
330
2
100
AcDbEntity
  8
0
100
AcDbCircle
 10
0.2837265491222532
 20
14.28856274276068
 30
0.0
 40
0.05
100
AcDbArc
 50
276.6299012779099
 51
0.0
  0
ARC
  5
8A
330
2
100
AcDbEntity
  8
0
100
AcDbCircle
 10
0.2837265491222532
 20
14.41356274276068
 30
0.0
 40
0.05
100
AcDbArc
 50
276.6299012779099
 51
0.0
  0
ARC
  5
8B
330
2
100
AcDbEntity
  8
0
100
AcDbCircle
 10
0.2837265491222532
 20
14.91356274276068
 30
0.0
 40
0.05
100
AcDbArc
 50
276.6299012779099
 51
0.0
  0
ARC
  5
8C
330
2
100
AcDbEntity
  8
0
100
AcDbCircle
 10
0.2837265491222532
 20
14.78856274276068
 30
0.0
 40
0.05
100
AcDbArc
 50
276.6299012779099
 51
0.0
  0
ARC
  5
8D
330
2
100
AcDbEntity
  8
0
100
AcDbCircle
 10
0.2837265491222532
 20
14.66356274276068
 30
0.0
 40
0.05
100
AcDbArc
 50
276.6299012779099
 51
0.0
  0
ARC
  5
8E
330
2
100
AcDbEntity
  8
0
100
AcDbCircle
 10
0.2837265491222532
 20
14.53856274276068
 30
0.0
 40
0.05
100
AcDbArc
 50
276.6299012779099
 51
0.0
  0
LINE
  5
8F
330
2
100
AcDbEntity
  8
0
100
AcDbLine
 10
-0.2470462284764796
 20
15.8015328956625
 30
0.0
 11
0.2894993267209891
 21
15.86389711038984
 31
0.0
  0
LINE
  5
90
330
2
100
AcDbEntity
  8
0
100
AcDbLine
 10
-0.2470462284764796
 20
15.6765328956625
 30
0.0
 11
0.2894993267209891
 21
15.73889711038984
 31
0.0
  0
LINE
  5
91
330
2
100
AcDbEntity
  8
0
100
AcDbLine
 10
-0.2470462284764796
 20
15.5515328956625
 30
0.0
 11
0.2894993267209891
 21
15.61389711038984
 31
0.0
  0
LINE
  5
92
330
2
100
AcDbEntity
  8
0
100
AcDbLine
 10
-0.2470462284764796
 20
15.4265328956625
 30
0.0
 11
0.2894993267209891
 21
15.48889711038984
 31
0.0
  0
LINE
  5
93
330
2
100
AcDbEntity
  8
0
100
AcDbLine
 10
-0.2470462284764796
 20
15.3015328956625
 30
0.0
 11
0.2894993267209891
 21
15.36389711038984
 31
0.0
  0
LINE
  5
94
330
2
100
AcDbEntity
  8
0
100
AcDbLine
 10
-0.2470462284764796
 20
15.1765328956625
 30
0.0
 11
0.2894993267209891
 21
15.23889711038984
 31
0.0
  0
LINE
  5
95
330
2
100
AcDbEntity
  8
0
100
AcDbLine
 10
-0.2470462284764796
 20
15.0515328956625
 30
0.0
 11
0.2894993267209891
 21
15.11389711038984
 31
0.0
  0
ARC
  5
96
330
2
100
AcDbEntity
  8
0
100
AcDbCircle
 10
-0.2412734508777454
 20
15.37686726329166
 30
0.0
 40
0.05
100
AcDbArc
 50
96.6299012779091
 51
180.0
  0
ARC
  5
97
330
2
100
AcDbEntity
  8
0
100
AcDbCircle
 10
-0.2412734508777454
 20
15.25186726329166
 30
0.0
 40
0.05
100
AcDbArc
 50
96.6299012779091
 51
180.0
  0
ARC
  5
98
330
2
100
AcDbEntity
  8
0
100
AcDbCircle
 10
-0.2412734508777454
 20
15.12686726329166
 30
0.0
 40
0.05
100
AcDbArc
 50
96.6299012779091
 51
180.0
  0
ARC
  5
99
330
2
100
AcDbEntity
  8
0
100
AcDbCircle
 10
-0.2412734508777454
 20
15.00186726329166
 30
0.0
 40
0.05
100
AcDbArc
 50
96.6299012779091
 51
180.0
  0
ARC
  5
9A
330
2
100
AcDbEntity
  8
0
100
AcDbCircle
 10
-0.2412734508777454
 20
15.87686726329166
 30
0.0
 40
0.05
100
AcDbArc
 50
96.6299012779091
 51
180.0
  0
ARC
  5
9B
330
2
100
AcDbEntity
  8
0
100
AcDbCircle
 10
-0.2412734508777454
 20
15.75186726329166
 30
0.0
 40
0.05
100
AcDbArc
 50
96.6299012779091
 51
180.0
  0
ARC
  5
9C
330
2
100
AcDbEntity
  8
0
100
AcDbCircle
 10
-0.2412734508777454
 20
15.62686726329166
 30
0.0
 40
0.05
100
AcDbArc
 50
96.6299012779091
 51
180.0
  0
ARC
  5
9D
330
2
100
AcDbEntity
  8
0
100
AcDbCircle
 10
-0.2412734508777454
 20
15.50186726329166
 30
0.0
 40
0.05
100
AcDbArc
 50
96.6299012779091
 51
180.0
  0
ARC
  5
9E
330
2
100
AcDbEntity
  8
0
100
AcDbCircle
 10
0.2837265491222532
 20
15.41356274276068
 30
0.0
 40
0.05
100
AcDbArc
 50
276.6299012779099
 51
0.0
  0
ARC
  5
9F
330
2
100
AcDbEntity
  8
0
100
AcDbCircle
 10
0.2837265491222532
 20
15.28856274276068
 30
0.0
 40
0.05
100
AcDbArc
 50
276.6299012779099
 51
0.0
  0
ARC
  5
A0
330
2
100
AcDbEntity
  8
0
100
AcDbCircle
 10
0.2837265491222532
 20
15.16356274276068
 30
0.0
 40
0.05
100
AcDbArc
 50
276.6299012779099
 51
0.0
  0
ARC
  5
A1
330
2
100
AcDbEntity
  8
0
100
AcDbCircle
 10
0.2837265491222532
 20
15.03856274276068
 30
0.0
 40
0.05
100
AcDbArc
 50
276.6299012779099
 51
0.0
  0
ARC
  5
A2
330
2
100
AcDbEntity
  8
0
100
AcDbCircle
 10
0.2837265491222532
 20
15.91356274276068
 30
0.0
 40
0.05
100
AcDbArc
 50
276.6299012779099
 51
0.0
  0
ARC
  5
A3
330
2
100
AcDbEntity
  8
0
100
AcDbCircle
 10
0.2837265491222532
 20
15.78856274276068
 30
0.0
 40
0.05
100
AcDbArc
 50
276.6299012779099
 51
0.0
  0
ARC
  5
A4
330
2
100
AcDbEntity
  8
0
100
AcDbCircle
 10
0.2837265491222532
 20
15.66356274276068
 30
0.0
 40
0.05
100
AcDbArc
 50
276.6299012779099
 51
0.0
  0
ARC
  5
A5
330
2
100
AcDbEntity
  8
0
100
AcDbCircle
 10
0.2837265491222532
 20
15.53856274276068
 30
0.0
 40
0.05
100
AcDbArc
 50
276.6299012779099
 51
0.0
  0
LINE
  5
A6
330
2
100
AcDbEntity
  8
0
100
AcDbLine
 10
0.1384352499895716
 20
19.84476965313333
 30
0.0
 11
2.71569792608422
 21
19.84479016938741
 31
0.0
  0
LINE
  5
A7
330
2
100
AcDbEntity
  8
0
100
AcDbLine
 10
0.1384397277609093
 20
19.28226965316897
 30
0.0
 11
2.71569792608422
 21
19.28229016938741
 31
0.0
  0
LINE
  5
A8
330
2
100
AcDbEntity
  8
0
100
AcDbLine
 10
-0.2470462284764796
 20
16.1765328956625
 30
0.0
 11
0.1245163969951957
 21
16.21972067559116
 31
0.0
  0
LINE
  5
A9
330
2
100
AcDbEntity
  8
0
100
AcDbLine
 10
-0.2470462284764796
 20
16.0515328956625
 30
0.0
 11
0.2894993267209891
 21
16.11389711038984
 31
0.0
  0
LINE
  5
AA
330
2
100
AcDbEntity
  8
0
100
AcDbLine
 10
-0.2912734508777461
 20
16.21972067559116
 30
0.0
 11
0.3337265491222539
 21
16.21972067559116
 31
0.0
  0
ARC
  5
AB
330
2
100
AcDbEntity
  8
0
100
AcDbCircle
 10
-0.2412734508777454
 20
16.12686726329166
 30
0.0
 40
0.05
100
AcDbArc
 50
96.6299012779091
 51
180.0
  0
ARC
  5
AC
330
2
100
AcDbEntity
  8
0
100
AcDbCircle
 10
-0.2412734508777454
 20
16.00186726329166
 30
0.0
 40
0.05
100
AcDbArc
 50
96.6299012779091
 51
180.0
  0
ARC
  5
AD
330
2
100
AcDbEntity
  8
0
100
AcDbCircle
 10
0.2837265491222532
 20
16.16356274276068
 30
0.0
 40
0.05
100
AcDbArc
 50
276.6299012779099
 51
0.0
  0
ARC
  5
AE
330
2
100
AcDbEntity
  8
0
100
AcDbCircle
 10
0.2837265491222532
 20
16.03856274276068
 30
0.0
 40
0.05
100
AcDbArc
 50
276.6299012779099
 51
0.0
  0
SOLID
  5
AF
330
2
100
AcDbEntity
  8
0
100
AcDbTrace
 10
-0.0493662267245458
 20
19.57906550021922
 30
0.0
 11
-0.1066721178286603
 21
19.5641636957133
 31
0.0
 12
-0.1066733633625088
 22
19.57884369460748
 32
0.0
 13
-0.1066733633625088
 23
19.57884369460748
 33
0.0
  0
LINE
  5
B0
330
2
100
AcDbEntity
  8
0
100
AcDbLine
 10
-0.0493662267245458
 20
19.57906550021922
 30
0.0
 11
-0.1066721178286603
 21
19.5641636957133
 31
0.0
  0
LINE
  5
B1
330
2
100
AcDbEntity
  8
0
100
AcDbLine
 10
-0.0493662267245458
 20
19.57906550021922
 30
0.0
 11
-0.1066721178286603
 21
19.59396730472514
 31
0.0
  0
SOLID
  5
B2
330
2
100
AcDbEntity
  8
0
100
AcDbTrace
 10
-0.0493662267245458
 20
19.57906550021922
 30
0.0
 11
-0.1066721178286603
 21
19.59396730472514
 31
0.0
 12
-0.1066733633625088
 22
19.57928730583097
 32
0.0
 13
-0.1066733633625088
 23
19.57928730583097
 33
0.0
  0
CIRCLE
  5
B3
330
2
100
AcDbEntity
  8
0
100
AcDbCircle
 10
0.0213475234463285
 20
19.56351872105854
 30
0.0
 40
0.28125
  0
LWPOLYLINE
  5
B4
330
2
100
AcDbEntity
  8
0
100
AcDbPolyline
 90
        2
 70
     0
 43
0.0018225
 10
-0.2002513737120388
 20
19.57889646979875
 10
-0.0493662267245014
 20
19.57906550021922
  0
LWPOLYLINE
  5
B5
330
2
100
AcDbEntity
  8
0
100
AcDbPolyline
 90
        2
 70
     0
 43
0.0091125
 10
0.2001521687816137
 20
19.67520454245073
 10
-0.0856811508314763
 20
19.67529383864416
  0
CIRCLE
  5
B6
330
2
100
AcDbEntity
  8
0
100
AcDbCircle
 10
0.0213475234463285
 20
19.56351872105854
 30
0.0
 40
0.3125
  0
LWPOLYLINE
  5
B7
330
2
100
AcDbEntity
  8
0
100
AcDbPolyline
 90
        3
 70
     0
 43
0.0018225
 10
-0.1346346621044887
 20
19.66077053853847
 10
-0.2159663077798406
 20
19.57943889286312
 10
-0.1363714712824127
 20
19.49984405636569
  0
LINE
  5
B8
330
2
100
AcDbEntity
  8
0
100
AcDbLine
 10
-0.1066721178286567
 20
19.5641636957133
 30
0.0
 11
-0.106673363362507
 21
19.57884369460748
 31
0.0
  0
LINE
  5
B9
330
2
100
AcDbEntity
  8
0
100
AcDbLine
 10
-0.1066721178286567
 20
19.59396730472514
 30
0.0
 11
-0.106673363362507
 21
19.57928730583097
 31
0.0
  0
TEXT
  5
BA
330
2
100
AcDbEntity
  8
0
100
AcDbText
 10
-0.03591690889718
 20
19.43819833471055
 30
0.0
 40
0.091125
  1
14
 50
315.0
100
AcDbText
  0
LWPOLYLINE
  5
BB
330
2
100
AcDbEntity
  8
0
100
AcDbPolyline
 90
        2
 70
     0
 43
0.0091125
 10
0.0059287418759304
 20
19.78588946624987
 10
0.1668499802664307
 20
19.62496822785938
  0
LWPOLYLINE
  5
BC
330
2
100
AcDbEntity
  8
0
100
AcDbPolyline
 90
        2
 70
     0
 43
0.0091125
 10
-0.0541151112440126
 20
19.72584561312993
 10
0.1068061271464877
 20
19.56492437473944
  0
ARC
  5
BD
330
2
100
AcDbEntity
  8
0
100
AcDbCircle
 10
2.71569792608422
 20
19.56354016938741
 30
0.0
 40
0.28125
100
AcDbArc
 50
270.0
 51
90.0
  0
ENDSEC
  0
SECTION
  2
OBJECTS
  0
DICTIONARY
  5
9
330
0
100
AcDbDictionary
281
     1
  3
ACAD_COLOR
350
C8
  3
ACAD_GROUP
350
24
  3
ACAD_LAYOUT
350
D
  3
ACAD_MATERIAL
350
C7
  3
ACAD_MLINESTYLE
350
25
  3
ACAD_PLOTSETTINGS
350
26
  3
ACAD_PLOTSTYLENAME
350
8
  3
ACAD_TABLESTYLE
350
C9
  3
ACDBHEADERROUNDTRIPXREC
350
DF
  3
AcDbVariableDictionary
350
BF
  0
DICTIONARY
  5
C8
102
{ACAD_REACTORS
330
9
102
}
330
9
100
AcDbDictionary
281
     1
  0
DICTIONARY
  5
24
102
{ACAD_REACTORS
330
9
102
}
330
9
100
AcDbDictionary
281
     1
  0
DICTIONARY
  5
D
102
{ACAD_REACTORS
330
9
102
}
330
9
100
AcDbDictionary
281
     1
  3
Layout1
350
13
  3
Model
350
C
  0
DICTIONARY
  5
C7
102
{ACAD_REACTORS
330
9
102
}
330
9
100
AcDbDictionary
281
     1
  0
DICTIONARY
  5
25
102
{ACAD_REACTORS
330
9
102
}
330
9
100
AcDbDictionary
281
     1
  3
Standard
350
28
  0
DICTIONARY
  5
26
102
{ACAD_REACTORS
330
9
102
}
330
9
100
AcDbDictionary
281
     1
  0
ACDBDICTIONARYWDFLT
  5
8
102
{ACAD_REACTORS
330
9
102
}
330
9
100
AcDbDictionary
281
     1
  3
Normal
350
7
100
AcDbDictionaryWithDefault
340
7
  0
DICTIONARY
  5
C9
102
{ACAD_REACTORS
330
9
102
}
330
9
100
AcDbDictionary
281
     1
  3
Standard
350
CA
  0
DICTIONARY
  5
DF
102
{ACAD_REACTORS
330
9
102
}
330
9
100
AcDbDictionary
281
     1
  3
COLORDICT
350
E0
  3
MATERIALDICT
350
E1
  0
DICTIONARY
  5
BF
102
{ACAD_REACTORS
330
9
102
}
330
9
100
AcDbDictionary
281
     1
  3
CTABLESTYLE
350
D3
  3
DIMASSOC
350
C1
  3
HIDETEXT
350
C0
  0
LAYOUT
  5
13
102
{ACAD_REACTORS
330
D
102
}
102
{ACAD_XDICTIONARY
360
E2
102
}
330
D
100
AcDbPlotSettings
  1

  2
Client\ssd-helder#\hp psc 2100 series [UPD:PCL4]
  4

  6

 40
0.0
 41
0.0
 42
0.0
 43
0.0
 44
0.0
 45
0.0
 46
0.0
 47
0.0
 48
0.0
 49
0.0
140
0.0
141
0.0
142
1.0
143
1.0
 70
   688
 72
     0
 73
     0
 74
     5
  7

 75
    16
147
1.0
148
0.0
149
0.0
100
AcDbLayout
  1
Layout1
 70
     0
 71
     1
 10
0.0
 20
0.0
 11
12.0
 21
9.0
 12
0.0
 22
0.0
 32
0.0
 14
1.000000000000000E+20
 24
1.000000000000000E+20
 34
1.000000000000000E+20
 15
-1.000000000000000E+20
 25
-1.000000000000000E+20
 35
-1.000000000000000E+20
146
0.0
 13
0.0
 23
0.0
 33
0.0
 16
1.0
 26
0.0
 36
0.0
 17
0.0
 27
1.0
 37
0.0
 76
     0
330
E
  0
LAYOUT
  5
C
102
{ACAD_REACTORS
330
D
102
}
102
{ACAD_XDICTIONARY
360
E4
102
}
330
D
100
AcDbPlotSettings
  1

  2
HP LaserJet 2100 Series PS
  4
Letter
  6

 40
5.365749835968018
 41
5.365735054016113
 42
3.175003051757813
 43
3.17498779296875
 44
210.4813232421875
 45
273.9813232421875
 46
0.0
 47
0.0
 48
0.0
 49
0.0
140
0.0
141
0.0
142
1.0
143
2.515591587704834
 70
 28336
 72
     0
 73
     0
 74
     2
  7

 75
     0
147
0.3975208077843734
148
0.0
149
0.0
100
AcDbLayout
  1
Model
 70
     1
 71
     0
 10
0.0
 20
0.0
 11
12.0
 21
9.0
 12
0.0
 22
0.0
 32
0.0
 14
0.0
 24
0.0
 34
0.0
 15
0.0
 25
0.0
 35
0.0
146
0.0
 13
0.0
 23
0.0
 33
0.0
 16
1.0
 26
0.0
 36
0.0
 17
0.0
 27
1.0
 37
0.0
 76
     0
330
2
  0
MLINESTYLE
  5
28
102
{ACAD_REACTORS
330
25
102
}
330
25
100
AcDbMlineStyle
  2
STANDARD
 70
     0
  3

 62
   256
 51
90.0
 52
90.0
 71
     2
 49
0.5
 62
   256
  6
BYLAYER
 49
-0.5
 62
   256
  6
BYLAYER
  0
ACDBPLACEHOLDER
  5
7
102
{ACAD_REACTORS
330
8
102
}
330
8
  0
ACAD_PROXY_OBJECT
  5
CA
102
{ACAD_REACTORS
330
C9
102
}
330
C9
100
AcDbProxyObject
 90
      499
 91
      516
 95
   983063
 70
     0
 93
     1841
310
4214DD185B99185C9928B81E85EB51B8AE3F2E07A17AD46E2B8FC02B5E8DC0F42B1CFD028000000C1008070000C3001FDFF8000000C1003FBFF000000182007F7FE00000030400FEFFC00000060801FDFF8000000C1003FBFF00000018200000000000000681FA0B0000001820100E000186003FBFF000000182007F7FE000
310
00030400FEFFC00000060801FDFF8000000C1003FBFF000000182007F7FE000000304000AD7A3703D0AC73F4160000003040201C00030C007F7FE00000030400FEFFC00000060801FDFF8000000C1003FBFF000000182007F7FE00000030400FEFFC000000608000
340
16
340
16
340
16
 94
        0
  0
XRECORD
  5
E0
102
{ACAD_REACTORS
330
DF
102
}
330
DF
100
AcDbXrecord
340
C8
  0
XRECORD
  5
E1
102
{ACAD_REACTORS
330
DF
102
}
330
DF
100
AcDbXrecord
340
C7
  0
DICTIONARYVAR
  5
D3
102
{ACAD_REACTORS
330
BF
102
}
330
BF
100
DictionaryVariables
280
     0
  1
STANDARD
  0
DICTIONARYVAR
  5
C1
102
{ACAD_REACTORS
330
BF
102
}
330
BF
100
DictionaryVariables
280
     0
  1
2
  0
DICTIONARYVAR
  5
C0
102
{ACAD_REACTORS
330
BF
102
}
330
BF
100
DictionaryVariables
280
     0
  1
1
  0
DICTIONARY
  5
E2
330
13
100
AcDbDictionary
280
     1
281
     1
  3
ACAD_XREC_ROUNDTRIP
360
E3
  0
DICTIONARY
  5
E4
330
C
100
AcDbDictionary
280
     1
281
     1
  3
ACAD_XREC_ROUNDTRIP
360
E5
  0
XRECORD
  5
E3
102
{ACAD_REACTORS
330
E2
102
}
330
E2
100
AcDbXrecord
102
SHADEPLOT
 70
     0
102
SHADEPLOTRESLEVEL
 70
     2
102
SHADEPLOTCUSTOMDPI
 70
   300
  0
XRECORD
  5
E5
102
{ACAD_REACTORS
330
E4
102
}
330
E4
100
AcDbXrecord
102
SHADEPLOT
 70
     0
102
SHADEPLOTRESLEVEL
 70
     2
102
SHADEPLOTCUSTOMDPI
 70
   300
  0
ENDSEC
  0
EOF
