  0
SECTION
  2
HEADER
  9
$ACADVER
  1
AC1015
  9
$ACADMAINTVER
 70
     6
  9
$DWGCODEPAGE
  3
ANSI_1252
  9
$INSBASE
 10
0.0
 20
0.0
 30
0.0
  9
$EXTMIN
 10
-2.408668078116294
 20
-0.1894868830354093
 30
0.0
  9
$EXTMAX
 10
8.468328041106105
 20
21.6747579523357
 30
0.0
  9
$LIMMIN
 10
0.0
 20
0.0
  9
$LIMMAX
 10
20.0
 20
26.25
  9
$ORTHOMODE
 70
     1
  9
$REGENMODE
 70
     1
  9
$FILLMODE
 70
     1
  9
$QTEXTMODE
 70
     0
  9
$MIRRTEXT
 70
     0
  9
$LTSCALE
 40
0.5
  9
$ATTMODE
 70
     1
  9
$TEXTSIZE
 40
0.225
  9
$TRACEWID
 40
0.05
  9
$TEXTSTYLE
  7
STANDARD
  9
$CLAYER
  8
0
  9
$CELTYPE
  6
ByLayer
  9
$CECOLOR
 62
   256
  9
$CELTSCALE
 40
1.0
  9
$DISPSILH
 70
     0
  9
$DIMSCALE
 40
2.5
  9
$DIMASZ
 40
0.125
  9
$DIMEXO
 40
0.062
  9
$DIMDLI
 40
0.375
  9
$DIMRND
 40
0.0
  9
$DIMDLE
 40
0.0
  9
$DIMEXE
 40
0.08
  9
$DIMTP
 40
0.0
  9
$DIMTM
 40
0.0
  9
$DIMTXT
 40
0.09
  9
$DIMCEN
 40
-0.06
  9
$DIMTSZ
 40
0.0
  9
$DIMTOL
 70
     0
  9
$DIMLIM
 70
     0
  9
$DIMTIH
 70
     1
  9
$DIMTOH
 70
     1
  9
$DIMSE1
 70
     0
  9
$DIMSE2
 70
     0
  9
$DIMTAD
 70
     0
  9
$DIMZIN
 70
     0
  9
$DIMBLK
  1

  9
$DIMASO
 70
     0
  9
$DIMSHO
 70
     0
  9
$DIMPOST
  1

  9
$DIMAPOST
  1

  9
$DIMALT
 70
     0
  9
$DIMALTD
 70
     2
  9
$DIMALTF
 40
25.4
  9
$DIMLFAC
 40
1.0
  9
$DIMTOFL
 70
     0
  9
$DIMTVP
 40
0.0
  9
$DIMTIX
 70
     0
  9
$DIMSOXD
 70
     0
  9
$DIMSAH
 70
     0
  9
$DIMBLK1
  1

  9
$DIMBLK2
  1

  9
$DIMSTYLE
  2
Standard
  9
$DIMCLRD
 70
     0
  9
$DIMCLRE
 70
     0
  9
$DIMCLRT
 70
     0
  9
$DIMTFAC
 40
1.0
  9
$DIMGAP
 40
0.09
  9
$DIMJUST
 70
     0
  9
$DIMSD1
 70
     0
  9
$DIMSD2
 70
     0
  9
$DIMTOLJ
 70
     1
  9
$DIMTZIN
 70
     0
  9
$DIMALTZ
 70
     0
  9
$DIMALTTZ
 70
     0
  9
$DIMUPT
 70
     0
  9
$DIMDEC
 70
     4
  9
$DIMTDEC
 70
     4
  9
$DIMALTU
 70
     2
  9
$DIMALTTD
 70
     2
  9
$DIMTXSTY
  7
STANDARD
  9
$DIMAUNIT
 70
     0
  9
$DIMADEC
 70
     0
  9
$DIMALTRND
 40
0.0
  9
$DIMAZIN
 70
     0
  9
$DIMDSEP
 70
    46
  9
$DIMATFIT
 70
     3
  9
$DIMFRAC
 70
     0
  9
$DIMLDRBLK
  1

  9
$DIMLUNIT
 70
     2
  9
$DIMLWD
 70
    -2
  9
$DIMLWE
 70
    -2
  9
$DIMTMOVE
 70
     2
  9
$LUNITS
 70
     2
  9
$LUPREC
 70
     4
  9
$SKETCHINC
 40
0.1
  9
$FILLETRAD
 40
2.1875
  9
$AUNITS
 70
     0
  9
$AUPREC
 70
     0
  9
$MENU
  1
simpson
  9
$ELEVATION
 40
0.0
  9
$PELEVATION
 40
0.0
  9
$THICKNESS
 40
0.0
  9
$LIMCHECK
 70
     0
  9
$CHAMFERA
 40
0.0
  9
$CHAMFERB
 40
0.0
  9
$CHAMFERC
 40
0.0
  9
$CHAMFERD
 40
0.0
  9
$SKPOLY
 70
     0
  9
$TDCREATE
 40
2450709.693507639
  9
$TDUCREATE
 40
2450710.026840972
  9
$TDUPDATE
 40
2454160.683620405
  9
$TDUUPDATE
 40
2454161.016953738
  9
$TDINDWG
 40
0.1927328125
  9
$TDUSRTIMER
 40
0.1927328125
  9
$USRTIMER
 70
     1
  9
$ANGBASE
 50
0.0
  9
$ANGDIR
 70
     0
  9
$PDMODE
 70
     0
  9
$PDSIZE
 40
0.0
  9
$PLINEWID
 40
0.0
  9
$SPLFRAME
 70
     0
  9
$SPLINETYPE
 70
     6
  9
$SPLINESEGS
 70
     8
  9
$HANDSEED
  5
EA
  9
$SURFTAB1
 70
     6
  9
$SURFTAB2
 70
     6
  9
$SURFTYPE
 70
     6
  9
$SURFU
 70
     6
  9
$SURFV
 70
     6
  9
$UCSBASE
  2

  9
$UCSNAME
  2

  9
$UCSORG
 10
0.0
 20
0.0
 30
0.0
  9
$UCSXDIR
 10
1.0
 20
0.0
 30
0.0
  9
$UCSYDIR
 10
0.0
 20
1.0
 30
0.0
  9
$UCSORTHOREF
  2

  9
$UCSORTHOVIEW
 70
     0
  9
$UCSORGTOP
 10
0.0
 20
0.0
 30
0.0
  9
$UCSORGBOTTOM
 10
0.0
 20
0.0
 30
0.0
  9
$UCSORGLEFT
 10
0.0
 20
0.0
 30
0.0
  9
$UCSORGRIGHT
 10
0.0
 20
0.0
 30
0.0
  9
$UCSORGFRONT
 10
0.0
 20
0.0
 30
0.0
  9
$UCSORGBACK
 10
0.0
 20
0.0
 30
0.0
  9
$PUCSBASE
  2

  9
$PUCSNAME
  2

  9
$PUCSORG
 10
0.0
 20
0.0
 30
0.0
  9
$PUCSXDIR
 10
1.0
 20
0.0
 30
0.0
  9
$PUCSYDIR
 10
0.0
 20
1.0
 30
0.0
  9
$PUCSORTHOREF
  2

  9
$PUCSORTHOVIEW
 70
     0
  9
$PUCSORGTOP
 10
0.0
 20
0.0
 30
0.0
  9
$PUCSORGBOTTOM
 10
0.0
 20
0.0
 30
0.0
  9
$PUCSORGLEFT
 10
0.0
 20
0.0
 30
0.0
  9
$PUCSORGRIGHT
 10
0.0
 20
0.0
 30
0.0
  9
$PUCSORGFRONT
 10
0.0
 20
0.0
 30
0.0
  9
$PUCSORGBACK
 10
0.0
 20
0.0
 30
0.0
  9
$USERI1
 70
     0
  9
$USERI2
 70
     0
  9
$USERI3
 70
     0
  9
$USERI4
 70
     0
  9
$USERI5
 70
     0
  9
$USERR1
 40
0.0
  9
$USERR2
 40
0.0
  9
$USERR3
 40
0.0
  9
$USERR4
 40
0.0
  9
$USERR5
 40
0.0
  9
$WORLDVIEW
 70
     1
  9
$SHADEDGE
 70
     3
  9
$SHADEDIF
 70
    70
  9
$TILEMODE
 70
     1
  9
$MAXACTVP
 70
    16
  9
$PINSBASE
 10
0.0
 20
0.0
 30
0.0
  9
$PLIMCHECK
 70
     0
  9
$PEXTMIN
 10
1.000000000000000E+20
 20
1.000000000000000E+20
 30
1.000000000000000E+20
  9
$PEXTMAX
 10
-1.000000000000000E+20
 20
-1.000000000000000E+20
 30
-1.000000000000000E+20
  9
$PLIMMIN
 10
0.0
 20
0.0
  9
$PLIMMAX
 10
12.0
 20
9.0
  9
$UNITMODE
 70
     0
  9
$VISRETAIN
 70
     0
  9
$PLINEGEN
 70
     0
  9
$PSLTSCALE
 70
     0
  9
$TREEDEPTH
 70
  3020
  9
$CMLSTYLE
  2
Standard
  9
$CMLJUST
 70
     0
  9
$CMLSCALE
 40
1.0
  9
$PROXYGRAPHICS
 70
     1
  9
$MEASUREMENT
 70
     0
  9
$CELWEIGHT
370
    -1
  9
$ENDCAPS
280
     0
  9
$JOINSTYLE
280
     0
  9
$LWDISPLAY
290
     0
  9
$INSUNITS
 70
     0
  9
$HYPERLINKBASE
  1

  9
$STYLESHEET
  1

  9
$XEDIT
290
     1
  9
$CEPSNTYPE
380
     0
  9
$PSTYLEMODE
290
     1
  9
$FINGERPRINTGUID
  2
{D70926AB-8A4C-4E61-B674-8F497F30E9A7}
  9
$VERSIONGUID
  2
{B0316189-C0BA-4591-8B7F-66B4BBAD84A5}
  9
$EXTNAMES
290
     1
  9
$PSVPSCALE
 40
0.0
  9
$OLESTARTUP
290
     0
  0
ENDSEC
  0
SECTION
  2
CLASSES
  0
CLASS
  1
ACDBDICTIONARYWDFLT
  2
AcDbDictionaryWithDefault
  3
AutoCAD 2000
 90
        0
280
     0
281
     0
  0
CLASS
  1
ACDBPLACEHOLDER
  2
AcDbPlaceHolder
  3
ObjectDBX Classes
 90
        0
280
     0
281
     0
  0
CLASS
  1
LAYOUT
  2
AcDbLayout
  3
ObjectDBX Classes
 90
        0
280
     0
281
     0
  0
CLASS
  1
DICTIONARYVAR
  2
AcDbDictionaryVar
  3
AutoCAD 2000
 90
        0
280
     0
281
     0
  0
CLASS
  1
LONG_TRANSACTION
  2
AcDbLongTransaction
  3
ObjectDBX Classes
 90
   -65536
280
     1
281
     0
  0
CLASS
  1
LWPOLYLINE
  2
AcDbPolyline
  3
AutoCAD 2000
 90
        0
280
     0
281
     1
  0
CLASS
  1
HATCH
  2
AcDbHatch
  3
AutoCAD 2000
 90
        0
280
     0
281
     1
  0
CLASS
  1
XRECORD
  2
AcDbXrecord
  3
AutoCAD 2000
 90
        0
280
     0
281
     0
  0
CLASS
  1
LONG_TRANSACTION
  2
AcDbLongTransaction
  3
ObjectDBX Classes
 90
   -65536
280
     1
281
     0
  0
CLASS
  1
LWPOLYLINE
  2
AcDbPolyline
  3
AutoCAD 2000
 90
        0
280
     0
281
     1
  0
CLASS
  1
HATCH
  2
AcDbHatch
  3
AutoCAD 2000
 90
        0
280
     0
281
     1
  0
CLASS
  1
XRECORD
  2
AcDbXrecord
  3
AutoCAD 2000
 90
        0
280
     0
281
     0
  0
CLASS
  1
TABLESTYLE
  2
AcDbTableStyle
  3
ObjectDBX Classes
 90
     2047
280
     1
281
     0
  0
ENDSEC
  0
SECTION
  2
TABLES
  0
TABLE
  2
VPORT
  5
1D
330
0
100
AcDbSymbolTable
 70
     2
  0
VPORT
  5
DD
330
1D
100
AcDbSymbolTableRecord
100
AcDbViewportTableRecord
  2
*Active
 70
     0
 10
0.0
 20
0.0
 11
1.0
 21
1.0
 12
8.438666463922907
 22
12.84387313942564
 13
0.0
 23
0.0
 14
0.063
 24
0.063
 15
0.25
 25
0.25
 16
0.0
 26
0.0
 36
1.0
 17
0.0
 27
0.0
 37
0.0
 40
28.50775562510033
 41
1.814583333333333
 42
50.0
 43
0.0
 44
0.0
 50
0.0
 51
0.0
 71
     0
 72
   100
 73
     1
 74
     0
 75
     0
 76
     0
 77
     0
 78
     0
281
     0
 65
     1
110
0.0
120
0.0
130
0.0
111
1.0
121
0.0
131
0.0
112
0.0
122
1.0
132
0.0
 79
     0
146
0.0
  0
ENDTAB
  0
TABLE
  2
LTYPE
  5
18
330
0
100
AcDbSymbolTable
 70
     1
  0
LTYPE
  5
19
330
18
100
AcDbSymbolTableRecord
100
AcDbLinetypeTableRecord
  2
ByBlock
 70
     0
  3

 72
    65
 73
     0
 40
0.0
  0
LTYPE
  5
1A
330
18
100
AcDbSymbolTableRecord
100
AcDbLinetypeTableRecord
  2
ByLayer
 70
     0
  3

 72
    65
 73
     0
 40
0.0
  0
LTYPE
  5
A
330
18
100
AcDbSymbolTableRecord
100
AcDbLinetypeTableRecord
  2
CONTINUOUS
 70
     0
  3
Solid line
 72
    65
 73
     0
 40
0.0
  0
ENDTAB
  0
TABLE
  2
LAYER
  5
14
330
0
100
AcDbSymbolTable
 70
     1
  0
LAYER
  5
6
330
14
100
AcDbSymbolTableRecord
100
AcDbLayerTableRecord
  2
0
 70
     0
 62
     7
  6
CONTINUOUS
370
    -3
390
7
  0
ENDTAB
  0
TABLE
  2
STYLE
  5
15
330
0
100
AcDbSymbolTable
 70
     1
  0
STYLE
  5
16
330
15
100
AcDbSymbolTableRecord
100
AcDbTextStyleTableRecord
  2
STANDARD
 70
     0
 40
0.0
 41
1.0
 50
0.0
 71
     0
 42
0.225
  3
TXT
  4

  0
ENDTAB
  0
TABLE
  2
VIEW
  5
1B
330
0
100
AcDbSymbolTable
 70
     0
  0
ENDTAB
  0
TABLE
  2
UCS
  5
1C
330
0
100
AcDbSymbolTable
 70
     0
  0
ENDTAB
  0
TABLE
  2
APPID
  5
1F
330
0
100
AcDbSymbolTable
 70
     1
  0
APPID
  5
20
330
1F
100
AcDbSymbolTableRecord
100
AcDbRegAppTableRecord
  2
ACAD
 70
     0
  0
ENDTAB
  0
TABLE
  2
DIMSTYLE
  5
21
330
0
100
AcDbSymbolTable
 70
     1
100
AcDbDimStyleTable
  0
DIMSTYLE
105
28
330
21
100
AcDbSymbolTableRecord
100
AcDbDimStyleTableRecord
  2
Standard
 70
     0
  3

  4

340
16
  0
ENDTAB
  0
TABLE
  2
BLOCK_RECORD
  5
1
330
0
100
AcDbSymbolTable
 70
     0
  0
BLOCK_RECORD
  5
2
330
1
100
AcDbSymbolTableRecord
100
AcDbBlockTableRecord
  2
*Model_Space
340
C
  0
BLOCK_RECORD
  5
E
330
1
100
AcDbSymbolTableRecord
100
AcDbBlockTableRecord
  2
*Paper_Space
340
13
  0
ENDTAB
  0
ENDSEC
  0
SECTION
  2
BLOCKS
  0
BLOCK
  5
5
330
2
100
AcDbEntity
  8
0
100
AcDbBlockBegin
  2
*Model_Space
 70
     0
 10
0.0
 20
0.0
 30
0.0
  3
*Model_Space
  1

  4

  0
ENDBLK
  5
B
330
2
100
AcDbEntity
  8
0
100
AcDbBlockEnd
  0
BLOCK
  5
11
330
E
100
AcDbEntity
 67
     1
  8
0
100
AcDbBlockBegin
  2
*Paper_Space
 70
     0
 10
0.0
 20
0.0
 30
0.0
  3
*Paper_Space
  1

  4

  0
ENDBLK
  5
12
330
E
100
AcDbEntity
 67
     1
  8
0
100
AcDbBlockEnd
  0
ENDSEC
  0
SECTION
  2
ENTITIES
  0
LINE
  5
29
330
2
100
AcDbEntity
  8
0
100
AcDbLine
 10
0.8117062562766186
 20
11.76666592163444
 30
0.0
 11
1.535125890107064
 21
6.70558787203133
 31
0.0
  0
LINE
  5
2A
330
2
100
AcDbEntity
  8
0
100
AcDbLine
 10
0.1901300716714491
 20
11.70133563209216
 30
0.0
 11
0.9096916184594566
 21
6.570871140201193
 31
0.0
  0
ARC
  5
2B
330
2
100
AcDbEntity
  8
0
100
AcDbCircle
 10
3.075988953887666
 20
6.874700211418277
 30
0.0
 40
2.1875
100
AcDbArc
 50
187.9838107612361
 51
246.2621942103754
  0
ARC
  5
2C
330
2
100
AcDbEntity
  8
0
100
AcDbCircle
 10
3.089066351619991
 20
6.868913595887037
 30
0.0
 40
1.5625
100
AcDbArc
 50
186.0
 51
246.0
  0
ARC
  5
2D
330
2
100
AcDbEntity
  8
0
100
AcDbCircle
 10
2.079335500177248
 20
1.527779302333226
 30
0.0
 40
1.5625
100
AcDbArc
 50
95.99999999999999
 51
276.0
  0
ARC
  5
2E
330
2
100
AcDbEntity
  8
0
100
AcDbCircle
 10
2.079335500177248
 20
1.527779302333226
 30
0.0
 40
0.9375
100
AcDbArc
 50
95.99999999999999
 51
276.0
  0
ARC
  5
2F
330
2
100
AcDbEntity
  8
0
100
AcDbCircle
 10
1.818014342008116
 20
4.014084040753907
 30
0.0
 40
0.9375
100
AcDbArc
 50
276.0
 51
66.26219421037544
  0
ARC
  5
30
330
2
100
AcDbEntity
  8
0
100
AcDbCircle
 10
1.818014342008116
 20
4.014084040753907
 30
0.0
 40
1.5625
100
AcDbArc
 50
276.0
 51
66.00000000000001
  0
LINE
  5
31
330
2
100
AcDbEntity
  8
0
100
AcDbLine
 10
2.425961408332743
 20
0.6242052807384901
 30
0.0
 11
2.491291697875024
 21
0.0026290961333189
 31
0.0
  0
LINE
  5
32
330
2
100
AcDbEntity
  8
0
100
AcDbLine
 10
2.242661224032958
 20
-0.0261611591797006
 30
0.0
 11
2.491568027013557
 21
0.0
 31
0.0
  0
LINE
  5
33
330
2
100
AcDbEntity
  8
0
100
AcDbLine
 10
2.491291697875024
 20
0.0026290961333189
 30
0.0
 11
2.491568027013557
 21
0.0
 31
0.0
  0
LINE
  5
34
330
2
100
AcDbEntity
  8
0
100
AcDbLine
 10
2.177330934490673
 20
0.5954150254254707
 30
0.0
 11
2.426237737471276
 21
0.6215761846051713
 31
0.0
  0
ARC
  5
35
330
2
100
AcDbEntity
  8
0
100
AcDbCircle
 10
0.6673541471308848
 20
15.76549079557582
 30
0.0
 40
0.05
100
AcDbArc
 50
276.6299012779099
 51
0.0
  0
ARC
  5
36
330
2
100
AcDbEntity
  8
0
100
AcDbCircle
 10
0.1423541471308862
 20
15.72879531610681
 30
0.0
 40
0.05
100
AcDbArc
 50
96.6299012779091
 51
180.0
  0
LINE
  5
37
330
2
100
AcDbEntity
  8
0
100
AcDbLine
 10
0.0923541471308855
 20
15.77332029272548
 30
0.0
 11
0.0923541471308855
 21
15.72879531610681
 31
0.0
  0
LINE
  5
38
330
2
100
AcDbEntity
  8
0
100
AcDbLine
 10
0.7173541471308855
 20
15.52843477162787
 30
0.0
 11
0.7173541471308855
 21
17.8216487284063
 31
0.0
  0
LINE
  5
39
330
2
100
AcDbEntity
  8
0
100
AcDbLine
 10
0.0923541471308855
 20
15.41126426877752
 30
0.0
 11
0.0923541471308855
 21
17.8216487284063
 31
0.0
  0
LINE
  5
3A
330
2
100
AcDbEntity
  8
0
100
AcDbLine
 10
0.0923541471308855
 20
12.66073375223692
 30
0.0
 11
0.0923541471308855
 21
15.36673929215885
 31
0.0
  0
LINE
  5
3B
330
2
100
AcDbEntity
  8
0
100
AcDbLine
 10
0.7173541471308855
 20
12.66073375223692
 30
0.0
 11
0.7173541471308855
 21
15.52843457457444
 31
0.0
  0
LINE
  5
3C
330
2
100
AcDbEntity
  8
0
100
AcDbLine
 10
0.1236041471308855
 20
12.66073375223692
 30
0.0
 11
0.7173541471308855
 21
12.66073375223692
 31
0.0
  0
LINE
  5
3D
330
2
100
AcDbEntity
  8
0
100
AcDbLine
 10
0.1236041471308855
 20
12.59823375223692
 30
0.0
 11
0.7243049553696075
 21
12.59823375223692
 31
0.0
  0
LINE
  5
3E
330
2
100
AcDbEntity
  8
0
100
AcDbLine
 10
0.1901300716714491
 20
11.70133563209216
 30
0.0
 11
0.095862280642411
 21
12.59823375223692
 31
0.0
  0
LINE
  5
3F
330
2
100
AcDbEntity
  8
0
100
AcDbLine
 10
0.0923541471308855
 20
12.66073375223692
 30
0.0
 11
0.1236041471308855
 21
12.66073375223692
 31
0.0
  0
LINE
  5
40
330
2
100
AcDbEntity
  8
0
100
AcDbLine
 10
0.095862280642411
 20
12.59823375223692
 30
0.0
 11
0.1236041471308855
 21
12.59823375223692
 31
0.0
  0
ARC
  5
41
330
2
100
AcDbEntity
  8
0
100
AcDbCircle
 10
0.0923541471308855
 20
12.62948375223692
 30
0.0
 40
0.03125
100
AcDbArc
 50
0.0
 51
90.0
  0
ARC
  5
42
330
2
100
AcDbEntity
  8
0
100
AcDbCircle
 10
0.0923547710213928
 20
12.62928628637278
 30
0.0
 40
0.03125
100
AcDbArc
 50
276.4444756747145
 51
0.3620491490063159
  0
LINE
  5
43
330
2
100
AcDbEntity
  8
0
100
AcDbLine
 10
0.8117062562766186
 20
11.76666592163444
 30
0.0
 11
0.7243049553696075
 21
12.59823375223692
 31
0.0
  0
ARC
  5
44
330
2
100
AcDbEntity
  8
0
100
AcDbCircle
 10
0.7173541471308855
 20
12.62948375223692
 30
0.0
 40
0.03125
100
AcDbArc
 50
89.99999999999999
 51
180.0
  0
ARC
  5
45
330
2
100
AcDbEntity
  8
0
100
AcDbCircle
 10
0.7173442840488757
 20
12.62869867558763
 30
0.0
 40
0.03125
100
AcDbArc
 50
178.5604380308048
 51
282.8701046498812
  0
ARC
  5
46
330
2
100
AcDbEntity
  8
0
100
AcDbCircle
 10
0.6673541471308848
 20
14.77843477162787
 30
0.0
 40
0.05
100
AcDbArc
 50
276.6299012779099
 51
0.0
  0
LINE
  5
47
330
2
100
AcDbEntity
  8
0
100
AcDbLine
 10
0.1365813695321521
 20
14.66640492452969
 30
0.0
 11
0.6731269247296208
 21
14.72876913925702
 31
0.0
  0
LINE
  5
48
330
2
100
AcDbEntity
  8
0
100
AcDbLine
 10
0.1365813695321521
 20
14.54140492452969
 30
0.0
 11
0.6731269247296208
 21
14.60376913925702
 31
0.0
  0
LINE
  5
49
330
2
100
AcDbEntity
  8
0
100
AcDbLine
 10
0.1365813695321521
 20
14.41640492452969
 30
0.0
 11
0.6731269247296208
 21
14.47876913925702
 31
0.0
  0
LINE
  5
4A
330
2
100
AcDbEntity
  8
0
100
AcDbLine
 10
0.1365813695321521
 20
14.29140492452969
 30
0.0
 11
0.6731269247296208
 21
14.35376913925702
 31
0.0
  0
LINE
  5
4B
330
2
100
AcDbEntity
  8
0
100
AcDbLine
 10
0.1365813695321521
 20
14.16640492452969
 30
0.0
 11
0.6731269247296208
 21
14.22876913925702
 31
0.0
  0
ARC
  5
4C
330
2
100
AcDbEntity
  8
0
100
AcDbCircle
 10
0.1423541471308862
 20
14.11673929215885
 30
0.0
 40
0.05
100
AcDbArc
 50
96.6299012779091
 51
180.0
  0
LINE
  5
4D
330
2
100
AcDbEntity
  8
0
100
AcDbLine
 10
0.0923541471308855
 20
14.16126426877752
 30
0.0
 11
0.0923541471308855
 21
14.11673929215885
 31
0.0
  0
LINE
  5
4E
330
2
100
AcDbEntity
  8
0
100
AcDbLine
 10
0.0923541471308855
 20
14.66126426877752
 30
0.0
 11
0.0923541471308855
 21
14.61673929215885
 31
0.0
  0
ARC
  5
4F
330
2
100
AcDbEntity
  8
0
100
AcDbCircle
 10
0.1423541471308862
 20
14.61673929215885
 30
0.0
 40
0.05
100
AcDbArc
 50
96.6299012779091
 51
180.0
  0
LINE
  5
50
330
2
100
AcDbEntity
  8
0
100
AcDbLine
 10
0.0923541471308855
 20
14.53626426877752
 30
0.0
 11
0.0923541471308855
 21
14.49173929215885
 31
0.0
  0
ARC
  5
51
330
2
100
AcDbEntity
  8
0
100
AcDbCircle
 10
0.1423541471308862
 20
14.49173929215885
 30
0.0
 40
0.05
100
AcDbArc
 50
96.6299012779091
 51
180.0
  0
LINE
  5
52
330
2
100
AcDbEntity
  8
0
100
AcDbLine
 10
0.0923541471308855
 20
14.41126426877752
 30
0.0
 11
0.0923541471308855
 21
14.36673929215885
 31
0.0
  0
ARC
  5
53
330
2
100
AcDbEntity
  8
0
100
AcDbCircle
 10
0.1423541471308862
 20
14.36673929215885
 30
0.0
 40
0.05
100
AcDbArc
 50
96.6299012779091
 51
180.0
  0
LINE
  5
54
330
2
100
AcDbEntity
  8
0
100
AcDbLine
 10
0.0923541471308855
 20
14.28626426877752
 30
0.0
 11
0.0923541471308855
 21
14.24173929215885
 31
0.0
  0
ARC
  5
55
330
2
100
AcDbEntity
  8
0
100
AcDbCircle
 10
0.1423541471308862
 20
14.24173929215885
 30
0.0
 40
0.05
100
AcDbArc
 50
96.6299012779091
 51
180.0
  0
ARC
  5
56
330
2
100
AcDbEntity
  8
0
100
AcDbCircle
 10
0.6673541471308848
 20
14.65343477162787
 30
0.0
 40
0.05
100
AcDbArc
 50
276.6299012779099
 51
0.0
  0
ARC
  5
57
330
2
100
AcDbEntity
  8
0
100
AcDbCircle
 10
0.6673541471308848
 20
14.52843477162787
 30
0.0
 40
0.05
100
AcDbArc
 50
276.6299012779099
 51
0.0
  0
ARC
  5
58
330
2
100
AcDbEntity
  8
0
100
AcDbCircle
 10
0.6673541471308848
 20
14.40343477162787
 30
0.0
 40
0.05
100
AcDbArc
 50
276.6299012779099
 51
0.0
  0
ARC
  5
59
330
2
100
AcDbEntity
  8
0
100
AcDbCircle
 10
0.6673541471308848
 20
14.27843477162787
 30
0.0
 40
0.05
100
AcDbArc
 50
276.6299012779099
 51
0.0
  0
LINE
  5
5A
330
2
100
AcDbEntity
  8
0
100
AcDbLine
 10
0.1365813695321521
 20
15.52846094847765
 30
0.0
 11
0.6731269247296208
 21
15.59082516320498
 31
0.0
  0
LINE
  5
5B
330
2
100
AcDbEntity
  8
0
100
AcDbLine
 10
0.1365813695321521
 20
15.65346094847765
 30
0.0
 11
0.6731269247296208
 21
15.71582516320498
 31
0.0
  0
LINE
  5
5C
330
2
100
AcDbEntity
  8
0
100
AcDbLine
 10
0.1365813695321521
 20
15.41640492452969
 30
0.0
 11
0.6731269247296208
 21
15.47876913925702
 31
0.0
  0
LINE
  5
5D
330
2
100
AcDbEntity
  8
0
100
AcDbLine
 10
0.1365813695321521
 20
15.29140492452969
 30
0.0
 11
0.6731269247296208
 21
15.35376913925702
 31
0.0
  0
LINE
  5
5E
330
2
100
AcDbEntity
  8
0
100
AcDbLine
 10
0.1365813695321521
 20
15.16640492452969
 30
0.0
 11
0.6731269247296208
 21
15.22876913925702
 31
0.0
  0
LINE
  5
5F
330
2
100
AcDbEntity
  8
0
100
AcDbLine
 10
0.1365813695321521
 20
15.04140492452969
 30
0.0
 11
0.6731269247296208
 21
15.10376913925702
 31
0.0
  0
LINE
  5
60
330
2
100
AcDbEntity
  8
0
100
AcDbLine
 10
0.1365813695321521
 20
14.91640492452969
 30
0.0
 11
0.6731269247296208
 21
14.97876913925702
 31
0.0
  0
LINE
  5
61
330
2
100
AcDbEntity
  8
0
100
AcDbLine
 10
0.1365813695321521
 20
14.79140492452969
 30
0.0
 11
0.6731269247296208
 21
14.85376913925702
 31
0.0
  0
LINE
  5
62
330
2
100
AcDbEntity
  8
0
100
AcDbLine
 10
0.0923541471308855
 20
15.28626426877752
 30
0.0
 11
0.0923541471308855
 21
15.24173929215885
 31
0.0
  0
ARC
  5
63
330
2
100
AcDbEntity
  8
0
100
AcDbCircle
 10
0.1423541471308862
 20
15.24173929215885
 30
0.0
 40
0.05
100
AcDbArc
 50
96.6299012779091
 51
180.0
  0
LINE
  5
64
330
2
100
AcDbEntity
  8
0
100
AcDbLine
 10
0.0923541471308855
 20
15.16126426877752
 30
0.0
 11
0.0923541471308855
 21
15.11673929215885
 31
0.0
  0
ARC
  5
65
330
2
100
AcDbEntity
  8
0
100
AcDbCircle
 10
0.1423541471308862
 20
15.11673929215885
 30
0.0
 40
0.05
100
AcDbArc
 50
96.6299012779091
 51
180.0
  0
LINE
  5
66
330
2
100
AcDbEntity
  8
0
100
AcDbLine
 10
0.0923541471308855
 20
15.03626426877752
 30
0.0
 11
0.0923541471308855
 21
14.99173929215885
 31
0.0
  0
ARC
  5
67
330
2
100
AcDbEntity
  8
0
100
AcDbCircle
 10
0.1423541471308862
 20
14.99173929215885
 30
0.0
 40
0.05
100
AcDbArc
 50
96.6299012779091
 51
180.0
  0
LINE
  5
68
330
2
100
AcDbEntity
  8
0
100
AcDbLine
 10
0.0923541471308855
 20
14.91126426877752
 30
0.0
 11
0.0923541471308855
 21
14.86673929215885
 31
0.0
  0
ARC
  5
69
330
2
100
AcDbEntity
  8
0
100
AcDbCircle
 10
0.1423541471308862
 20
14.86673929215885
 30
0.0
 40
0.05
100
AcDbArc
 50
96.6299012779091
 51
180.0
  0
LINE
  5
6A
330
2
100
AcDbEntity
  8
0
100
AcDbLine
 10
0.0923541471308855
 20
14.78626426877752
 30
0.0
 11
0.0923541471308855
 21
14.74173929215885
 31
0.0
  0
ARC
  5
6B
330
2
100
AcDbEntity
  8
0
100
AcDbCircle
 10
0.1423541471308862
 20
14.74173929215885
 30
0.0
 40
0.05
100
AcDbArc
 50
96.6299012779091
 51
180.0
  0
ARC
  5
6C
330
2
100
AcDbEntity
  8
0
100
AcDbCircle
 10
0.1423541471308862
 20
15.47879531610681
 30
0.0
 40
0.05
100
AcDbArc
 50
96.6299012779091
 51
180.0
  0
LINE
  5
6D
330
2
100
AcDbEntity
  8
0
100
AcDbLine
 10
0.0923541471308855
 20
15.52332029272548
 30
0.0
 11
0.0923541471308855
 21
15.47879531610681
 31
0.0
  0
ARC
  5
6E
330
2
100
AcDbEntity
  8
0
100
AcDbCircle
 10
0.1423541471308862
 20
15.60379531610681
 30
0.0
 40
0.05
100
AcDbArc
 50
96.6299012779091
 51
180.0
  0
LINE
  5
6F
330
2
100
AcDbEntity
  8
0
100
AcDbLine
 10
0.0923541471308855
 20
15.64832029272548
 30
0.0
 11
0.0923541471308855
 21
15.60379531610681
 31
0.0
  0
ARC
  5
70
330
2
100
AcDbEntity
  8
0
100
AcDbCircle
 10
0.1423541471308862
 20
15.36673929215885
 30
0.0
 40
0.05
100
AcDbArc
 50
96.6299012779091
 51
180.0
  0
LINE
  5
71
330
2
100
AcDbEntity
  8
0
100
AcDbLine
 10
0.0923541471308855
 20
15.41126426877752
 30
0.0
 11
0.0923541471308855
 21
15.36673929215885
 31
0.0
  0
ARC
  5
72
330
2
100
AcDbEntity
  8
0
100
AcDbCircle
 10
0.6673541471308848
 20
15.27843477162787
 30
0.0
 40
0.05
100
AcDbArc
 50
276.6299012779099
 51
0.0
  0
ARC
  5
73
330
2
100
AcDbEntity
  8
0
100
AcDbCircle
 10
0.6673541471308848
 20
15.15343477162787
 30
0.0
 40
0.05
100
AcDbArc
 50
276.6299012779099
 51
0.0
  0
ARC
  5
74
330
2
100
AcDbEntity
  8
0
100
AcDbCircle
 10
0.6673541471308848
 20
15.02843477162787
 30
0.0
 40
0.05
100
AcDbArc
 50
276.6299012779099
 51
0.0
  0
ARC
  5
75
330
2
100
AcDbEntity
  8
0
100
AcDbCircle
 10
0.6673541471308848
 20
14.90343477162787
 30
0.0
 40
0.05
100
AcDbArc
 50
276.6299012779099
 51
0.0
  0
ARC
  5
76
330
2
100
AcDbEntity
  8
0
100
AcDbCircle
 10
0.6673541471308848
 20
15.64049079557582
 30
0.0
 40
0.05
100
AcDbArc
 50
276.6299012779099
 51
0.0
  0
ARC
  5
77
330
2
100
AcDbEntity
  8
0
100
AcDbCircle
 10
0.6673541471308848
 20
15.52843477162787
 30
0.0
 40
0.05
100
AcDbArc
 50
276.6299012779099
 51
0.0
  0
ARC
  5
78
330
2
100
AcDbEntity
  8
0
100
AcDbCircle
 10
0.6673541471308848
 20
15.40343477162787
 30
0.0
 40
0.05
100
AcDbArc
 50
276.6299012779099
 51
0.0
  0
LINE
  5
79
330
2
100
AcDbEntity
  8
0
100
AcDbLine
 10
0.5220628479982032
 20
19.7817760864108
 30
0.0
 11
3.099325524092851
 21
19.78179660266488
 31
0.0
  0
LINE
  5
7A
330
2
100
AcDbEntity
  8
0
100
AcDbLine
 10
0.522067325769541
 20
19.21927608644644
 30
0.0
 11
3.099325524092851
 21
19.21929660266488
 31
0.0
  0
LINE
  5
7B
330
2
100
AcDbEntity
  8
0
100
AcDbLine
 10
0.1365813695321521
 20
17.77846094847765
 30
0.0
 11
0.5081439950038273
 21
17.8216487284063
 31
0.0
  0
ARC
  5
7C
330
2
100
AcDbEntity
  8
0
100
AcDbCircle
 10
0.1423541471308862
 20
16.72879531610681
 30
0.0
 40
0.05
100
AcDbArc
 50
96.6299012779091
 51
180.0
  0
LINE
  5
7D
330
2
100
AcDbEntity
  8
0
100
AcDbLine
 10
0.1365813695321521
 20
16.77846094847765
 30
0.0
 11
0.6731269247296208
 21
16.84082516320498
 31
0.0
  0
LINE
  5
7E
330
2
100
AcDbEntity
  8
0
100
AcDbLine
 10
0.1365813695321521
 20
16.65346094847765
 30
0.0
 11
0.6731269247296208
 21
16.71582516320498
 31
0.0
  0
LINE
  5
7F
330
2
100
AcDbEntity
  8
0
100
AcDbLine
 10
0.1365813695321521
 20
16.52846094847765
 30
0.0
 11
0.6731269247296208
 21
16.59082516320498
 31
0.0
  0
LINE
  5
80
330
2
100
AcDbEntity
  8
0
100
AcDbLine
 10
0.1365813695321521
 20
16.40346094847765
 30
0.0
 11
0.6731269247296208
 21
16.46582516320498
 31
0.0
  0
LINE
  5
81
330
2
100
AcDbEntity
  8
0
100
AcDbLine
 10
0.1365813695321521
 20
16.27846094847765
 30
0.0
 11
0.6731269247296208
 21
16.34082516320498
 31
0.0
  0
LINE
  5
82
330
2
100
AcDbEntity
  8
0
100
AcDbLine
 10
0.1365813695321521
 20
16.15346094847765
 30
0.0
 11
0.6731269247296208
 21
16.21582516320498
 31
0.0
  0
LINE
  5
83
330
2
100
AcDbEntity
  8
0
100
AcDbLine
 10
0.1365813695321521
 20
15.77846094847765
 30
0.0
 11
0.6731269247296208
 21
15.84082516320498
 31
0.0
  0
LINE
  5
84
330
2
100
AcDbEntity
  8
0
100
AcDbLine
 10
0.1365813695321521
 20
15.90346094847765
 30
0.0
 11
0.6731269247296208
 21
15.96582516320498
 31
0.0
  0
LINE
  5
85
330
2
100
AcDbEntity
  8
0
100
AcDbLine
 10
0.1365813695321521
 20
16.02846094847765
 30
0.0
 11
0.6731269247296208
 21
16.09082516320498
 31
0.0
  0
ARC
  5
86
330
2
100
AcDbEntity
  8
0
100
AcDbCircle
 10
0.1423541471308862
 20
16.22879531610681
 30
0.0
 40
0.05
100
AcDbArc
 50
96.6299012779091
 51
180.0
  0
ARC
  5
87
330
2
100
AcDbEntity
  8
0
100
AcDbCircle
 10
0.1423541471308862
 20
16.10379531610681
 30
0.0
 40
0.05
100
AcDbArc
 50
96.6299012779091
 51
180.0
  0
LINE
  5
88
330
2
100
AcDbEntity
  8
0
100
AcDbLine
 10
0.0923541471308855
 20
16.20107677110062
 30
0.0
 11
0.0923541471308855
 21
16.15655179448195
 31
0.0
  0
ARC
  5
89
330
2
100
AcDbEntity
  8
0
100
AcDbCircle
 10
0.1423541471308862
 20
15.85379531610681
 30
0.0
 40
0.05
100
AcDbArc
 50
96.6299012779091
 51
180.0
  0
LINE
  5
8A
330
2
100
AcDbEntity
  8
0
100
AcDbLine
 10
0.0923541471308855
 20
15.89832029272548
 30
0.0
 11
0.0923541471308855
 21
15.85379531610681
 31
0.0
  0
LINE
  5
8B
330
2
100
AcDbEntity
  8
0
100
AcDbLine
 10
0.0923541471308855
 20
16.02332029272548
 30
0.0
 11
0.0923541471308855
 21
15.97879531610681
 31
0.0
  0
ARC
  5
8C
330
2
100
AcDbEntity
  8
0
100
AcDbCircle
 10
0.1423541471308862
 20
15.97879531610681
 30
0.0
 40
0.05
100
AcDbArc
 50
96.6299012779091
 51
180.0
  0
ARC
  5
8D
330
2
100
AcDbEntity
  8
0
100
AcDbCircle
 10
0.1423541471308862
 20
16.60379531610681
 30
0.0
 40
0.05
100
AcDbArc
 50
96.6299012779091
 51
180.0
  0
ARC
  5
8E
330
2
100
AcDbEntity
  8
0
100
AcDbCircle
 10
0.1423541471308862
 20
16.47879531610681
 30
0.0
 40
0.05
100
AcDbArc
 50
96.6299012779091
 51
180.0
  0
ARC
  5
8F
330
2
100
AcDbEntity
  8
0
100
AcDbCircle
 10
0.1423541471308862
 20
16.35379531610681
 30
0.0
 40
0.05
100
AcDbArc
 50
96.6299012779091
 51
180.0
  0
LINE
  5
90
330
2
100
AcDbEntity
  8
0
100
AcDbLine
 10
0.0923541471308855
 20
16.57607677110062
 30
0.0
 11
0.0923541471308855
 21
16.53155179448195
 31
0.0
  0
LINE
  5
91
330
2
100
AcDbEntity
  8
0
100
AcDbLine
 10
0.0923541471308855
 20
16.45107677110062
 30
0.0
 11
0.0923541471308855
 21
16.40655179448195
 31
0.0
  0
LINE
  5
92
330
2
100
AcDbEntity
  8
0
100
AcDbLine
 10
0.0923541471308855
 20
16.32607677110062
 30
0.0
 11
0.0923541471308855
 21
16.28155179448195
 31
0.0
  0
ARC
  5
93
330
2
100
AcDbEntity
  8
0
100
AcDbCircle
 10
0.6673541471308848
 20
16.26549079557582
 30
0.0
 40
0.05
100
AcDbArc
 50
276.6299012779099
 51
0.0
  0
ARC
  5
94
330
2
100
AcDbEntity
  8
0
100
AcDbCircle
 10
0.6673541471308848
 20
15.89049079557582
 30
0.0
 40
0.05
100
AcDbArc
 50
276.6299012779099
 51
0.0
  0
ARC
  5
95
330
2
100
AcDbEntity
  8
0
100
AcDbCircle
 10
0.6673541471308848
 20
16.01549079557582
 30
0.0
 40
0.05
100
AcDbArc
 50
276.6299012779099
 51
0.0
  0
ARC
  5
96
330
2
100
AcDbEntity
  8
0
100
AcDbCircle
 10
0.6673541471308848
 20
16.14049079557582
 30
0.0
 40
0.05
100
AcDbArc
 50
276.6299012779099
 51
0.0
  0
ARC
  5
97
330
2
100
AcDbEntity
  8
0
100
AcDbCircle
 10
0.6673541471308848
 20
16.76549079557582
 30
0.0
 40
0.05
100
AcDbArc
 50
276.6299012779099
 51
0.0
  0
ARC
  5
98
330
2
100
AcDbEntity
  8
0
100
AcDbCircle
 10
0.6673541471308848
 20
16.64049079557582
 30
0.0
 40
0.05
100
AcDbArc
 50
276.6299012779099
 51
0.0
  0
ARC
  5
99
330
2
100
AcDbEntity
  8
0
100
AcDbCircle
 10
0.6673541471308848
 20
16.51549079557582
 30
0.0
 40
0.05
100
AcDbArc
 50
276.6299012779099
 51
0.0
  0
ARC
  5
9A
330
2
100
AcDbEntity
  8
0
100
AcDbCircle
 10
0.6673541471308848
 20
16.39049079557582
 30
0.0
 40
0.05
100
AcDbArc
 50
276.6299012779099
 51
0.0
  0
LINE
  5
9B
330
2
100
AcDbEntity
  8
0
100
AcDbLine
 10
0.1365813695321521
 20
17.65346094847765
 30
0.0
 11
0.6731269247296208
 21
17.71582516320498
 31
0.0
  0
LINE
  5
9C
330
2
100
AcDbEntity
  8
0
100
AcDbLine
 10
0.1365813695321521
 20
17.52846094847765
 30
0.0
 11
0.6731269247296208
 21
17.59082516320498
 31
0.0
  0
LINE
  5
9D
330
2
100
AcDbEntity
  8
0
100
AcDbLine
 10
0.1365813695321521
 20
17.40346094847765
 30
0.0
 11
0.6731269247296208
 21
17.46582516320498
 31
0.0
  0
LINE
  5
9E
330
2
100
AcDbEntity
  8
0
100
AcDbLine
 10
0.1365813695321521
 20
17.27846094847765
 30
0.0
 11
0.6731269247296208
 21
17.34082516320498
 31
0.0
  0
LINE
  5
9F
330
2
100
AcDbEntity
  8
0
100
AcDbLine
 10
0.1365813695321521
 20
17.15346094847765
 30
0.0
 11
0.6731269247296208
 21
17.21582516320498
 31
0.0
  0
LINE
  5
A0
330
2
100
AcDbEntity
  8
0
100
AcDbLine
 10
0.1365813695321521
 20
17.02846094847765
 30
0.0
 11
0.6731269247296208
 21
17.09082516320498
 31
0.0
  0
LINE
  5
A1
330
2
100
AcDbEntity
  8
0
100
AcDbLine
 10
0.1365813695321521
 20
16.90346094847765
 30
0.0
 11
0.6731269247296208
 21
16.96582516320498
 31
0.0
  0
ARC
  5
A2
330
2
100
AcDbEntity
  8
0
100
AcDbCircle
 10
0.1423541471308862
 20
17.22879531610681
 30
0.0
 40
0.05
100
AcDbArc
 50
96.6299012779091
 51
180.0
  0
ARC
  5
A3
330
2
100
AcDbEntity
  8
0
100
AcDbCircle
 10
0.1423541471308862
 20
17.10379531610681
 30
0.0
 40
0.05
100
AcDbArc
 50
96.6299012779091
 51
180.0
  0
ARC
  5
A4
330
2
100
AcDbEntity
  8
0
100
AcDbCircle
 10
0.1423541471308862
 20
16.97879531610681
 30
0.0
 40
0.05
100
AcDbArc
 50
96.6299012779091
 51
180.0
  0
ARC
  5
A5
330
2
100
AcDbEntity
  8
0
100
AcDbCircle
 10
0.1423541471308862
 20
16.85379531610681
 30
0.0
 40
0.05
100
AcDbArc
 50
96.6299012779091
 51
180.0
  0
ARC
  5
A6
330
2
100
AcDbEntity
  8
0
100
AcDbCircle
 10
0.1423541471308862
 20
17.72879531610681
 30
0.0
 40
0.05
100
AcDbArc
 50
96.6299012779091
 51
180.0
  0
ARC
  5
A7
330
2
100
AcDbEntity
  8
0
100
AcDbCircle
 10
0.1423541471308862
 20
17.60379531610681
 30
0.0
 40
0.05
100
AcDbArc
 50
96.6299012779091
 51
180.0
  0
ARC
  5
A8
330
2
100
AcDbEntity
  8
0
100
AcDbCircle
 10
0.1423541471308862
 20
17.47879531610681
 30
0.0
 40
0.05
100
AcDbArc
 50
96.6299012779091
 51
180.0
  0
ARC
  5
A9
330
2
100
AcDbEntity
  8
0
100
AcDbCircle
 10
0.1423541471308862
 20
17.35379531610681
 30
0.0
 40
0.05
100
AcDbArc
 50
96.6299012779091
 51
180.0
  0
ARC
  5
AA
330
2
100
AcDbEntity
  8
0
100
AcDbCircle
 10
0.6673541471308848
 20
17.26549079557582
 30
0.0
 40
0.05
100
AcDbArc
 50
276.6299012779099
 51
0.0
  0
ARC
  5
AB
330
2
100
AcDbEntity
  8
0
100
AcDbCircle
 10
0.6673541471308848
 20
17.14049079557582
 30
0.0
 40
0.05
100
AcDbArc
 50
276.6299012779099
 51
0.0
  0
ARC
  5
AC
330
2
100
AcDbEntity
  8
0
100
AcDbCircle
 10
0.6673541471308848
 20
17.01549079557582
 30
0.0
 40
0.05
100
AcDbArc
 50
276.6299012779099
 51
0.0
  0
ARC
  5
AD
330
2
100
AcDbEntity
  8
0
100
AcDbCircle
 10
0.6673541471308848
 20
16.89049079557582
 30
0.0
 40
0.05
100
AcDbArc
 50
276.6299012779099
 51
0.0
  0
ARC
  5
AE
330
2
100
AcDbEntity
  8
0
100
AcDbCircle
 10
0.6673541471308848
 20
17.76549079557582
 30
0.0
 40
0.05
100
AcDbArc
 50
276.6299012779099
 51
0.0
  0
ARC
  5
AF
330
2
100
AcDbEntity
  8
0
100
AcDbCircle
 10
0.6673541471308848
 20
17.64049079557582
 30
0.0
 40
0.05
100
AcDbArc
 50
276.6299012779099
 51
0.0
  0
ARC
  5
B0
330
2
100
AcDbEntity
  8
0
100
AcDbCircle
 10
0.6673541471308848
 20
17.51549079557582
 30
0.0
 40
0.05
100
AcDbArc
 50
276.6299012779099
 51
0.0
  0
ARC
  5
B1
330
2
100
AcDbEntity
  8
0
100
AcDbCircle
 10
0.6673541471308848
 20
17.39049079557582
 30
0.0
 40
0.05
100
AcDbArc
 50
276.6299012779099
 51
0.0
  0
LINE
  5
B2
330
2
100
AcDbEntity
  8
0
100
AcDbLine
 10
0.0923541471308855
 20
17.8216487284063
 30
0.0
 11
0.7173541471308855
 21
17.8216487284063
 31
0.0
  0
CIRCLE
  5
B3
330
2
100
AcDbEntity
  8
0
100
AcDbCircle
 10
0.4049751214549602
 20
19.50052515433601
 30
0.0
 40
0.28125
  0
LWPOLYLINE
  5
B4
330
2
100
AcDbEntity
  8
0
100
AcDbPolyline
 90
        2
 70
     0
 43
0.0018225
 10
0.1833762242965928
 20
19.51590290307622
 10
0.3342613712841303
 20
19.51607193349669
  0
CIRCLE
  5
B5
330
2
100
AcDbEntity
  8
0
100
AcDbCircle
 10
0.4049751214549602
 20
19.50052515433601
 30
0.0
 40
0.3125
  0
LWPOLYLINE
  5
B6
330
2
100
AcDbEntity
  8
0
100
AcDbPolyline
 90
        3
 70
     0
 43
0.0018225
 10
0.248992935904143
 20
19.59777697181594
 10
0.1676612902287911
 20
19.51644532614059
 10
0.247256126726219
 20
19.43685048964316
  0
TEXT
  5
B7
330
2
100
AcDbEntity
  8
0
100
AcDbText
 10
0.3477106891114516
 20
19.37520476798802
 30
0.0
 40
0.091125
  1
16
 50
315.0
100
AcDbText
  0
LWPOLYLINE
  5
B8
330
2
100
AcDbEntity
  8
0
100
AcDbPolyline
 90
        2
 70
     0
 43
0.0091125
 10
0.5837797667902454
 20
19.6122109757282
 10
0.2979464471771554
 20
19.61230027192163
  0
LINE
  5
B9
330
2
100
AcDbEntity
  8
0
100
AcDbLine
 10
0.276955480179975
 20
19.50117012899078
 30
0.0
 11
0.2769542346461247
 21
19.51585012788495
 31
0.0
  0
LINE
  5
BA
330
2
100
AcDbEntity
  8
0
100
AcDbLine
 10
0.276955480179975
 20
19.53097373800261
 30
0.0
 11
0.2769542346461247
 21
19.51629373910844
 31
0.0
  0
SOLID
  5
BB
330
2
100
AcDbEntity
  8
0
100
AcDbTrace
 10
0.3342613712840858
 20
19.51607193349669
 30
0.0
 11
0.2769554801799714
 21
19.50117012899078
 31
0.0
 12
0.2769542346461229
 22
19.51585012788495
 32
0.0
 13
0.2769542346461229
 23
19.51585012788495
 33
0.0
  0
LINE
  5
BC
330
2
100
AcDbEntity
  8
0
100
AcDbLine
 10
0.3342613712840858
 20
19.51607193349669
 30
0.0
 11
0.2769554801799714
 21
19.50117012899078
 31
0.0
  0
LINE
  5
BD
330
2
100
AcDbEntity
  8
0
100
AcDbLine
 10
0.3342613712840858
 20
19.51607193349669
 30
0.0
 11
0.2769554801799714
 21
19.53097373800261
 31
0.0
  0
SOLID
  5
BE
330
2
100
AcDbEntity
  8
0
100
AcDbTrace
 10
0.3342613712840858
 20
19.51607193349669
 30
0.0
 11
0.2769554801799714
 21
19.53097373800261
 31
0.0
 12
0.2769542346461229
 22
19.51629373910844
 32
0.0
 13
0.2769542346461229
 23
19.51629373910844
 33
0.0
  0
LWPOLYLINE
  5
BF
330
2
100
AcDbEntity
  8
0
100
AcDbPolyline
 90
        2
 70
     0
 43
0.0091125
 10
0.3895563398845621
 20
19.72289589952734
 10
0.5504775782750624
 20
19.56197466113685
  0
LWPOLYLINE
  5
C0
330
2
100
AcDbEntity
  8
0
100
AcDbPolyline
 90
        2
 70
     0
 43
0.0091125
 10
0.3295124867646191
 20
19.66285204640741
 10
0.4904337251551194
 20
19.50193080801691
  0
ARC
  5
C1
330
2
100
AcDbEntity
  8
0
100
AcDbCircle
 10
3.099325524092851
 20
19.50054660266488
 30
0.0
 40
0.28125
100
AcDbArc
 50
270.0
 51
90.0
  0
ENDSEC
  0
SECTION
  2
OBJECTS
  0
DICTIONARY
  5
9
330
0
100
AcDbDictionary
281
     1
  3
ACAD_COLOR
350
CC
  3
ACAD_GROUP
350
23
  3
ACAD_LAYOUT
350
D
  3
ACAD_MATERIAL
350
CB
  3
ACAD_MLINESTYLE
350
24
  3
ACAD_PLOTSETTINGS
350
25
  3
ACAD_PLOTSTYLENAME
350
8
  3
ACAD_TABLESTYLE
350
CD
  3
ACDBHEADERROUNDTRIPXREC
350
E3
  3
AcDbVariableDictionary
350
C3
  0
DICTIONARY
  5
CC
102
{ACAD_REACTORS
330
9
102
}
330
9
100
AcDbDictionary
281
     1
  0
DICTIONARY
  5
23
102
{ACAD_REACTORS
330
9
102
}
330
9
100
AcDbDictionary
281
     1
  0
DICTIONARY
  5
D
102
{ACAD_REACTORS
330
9
102
}
330
9
100
AcDbDictionary
281
     1
  3
Layout1
350
13
  3
Model
350
C
  0
DICTIONARY
  5
CB
102
{ACAD_REACTORS
330
9
102
}
330
9
100
AcDbDictionary
281
     1
  0
DICTIONARY
  5
24
102
{ACAD_REACTORS
330
9
102
}
330
9
100
AcDbDictionary
281
     1
  3
Standard
350
27
  0
DICTIONARY
  5
25
102
{ACAD_REACTORS
330
9
102
}
330
9
100
AcDbDictionary
281
     1
  0
ACDBDICTIONARYWDFLT
  5
8
102
{ACAD_REACTORS
330
9
102
}
330
9
100
AcDbDictionary
281
     1
  3
Normal
350
7
100
AcDbDictionaryWithDefault
340
7
  0
DICTIONARY
  5
CD
102
{ACAD_REACTORS
330
9
102
}
330
9
100
AcDbDictionary
281
     1
  3
Standard
350
CE
  0
DICTIONARY
  5
E3
102
{ACAD_REACTORS
330
9
102
}
330
9
100
AcDbDictionary
281
     1
  3
COLORDICT
350
E4
  3
MATERIALDICT
350
E5
  0
DICTIONARY
  5
C3
102
{ACAD_REACTORS
330
9
102
}
330
9
100
AcDbDictionary
281
     1
  3
CTABLESTYLE
350
D7
  3
DIMASSOC
350
C5
  3
HIDETEXT
350
C4
  0
LAYOUT
  5
13
102
{ACAD_REACTORS
330
D
102
}
102
{ACAD_XDICTIONARY
360
E6
102
}
330
D
100
AcDbPlotSettings
  1

  2
Client\ssd-helder#\hp psc 2100 series [UPD:PCL4]
  4

  6

 40
0.0
 41
0.0
 42
0.0
 43
0.0
 44
0.0
 45
0.0
 46
0.0
 47
0.0
 48
0.0
 49
0.0
140
0.0
141
0.0
142
1.0
143
1.0
 70
   688
 72
     0
 73
     0
 74
     5
  7

 75
    16
147
1.0
148
0.0
149
0.0
100
AcDbLayout
  1
Layout1
 70
     0
 71
     1
 10
0.0
 20
0.0
 11
12.0
 21
9.0
 12
0.0
 22
0.0
 32
0.0
 14
1.000000000000000E+20
 24
1.000000000000000E+20
 34
1.000000000000000E+20
 15
-1.000000000000000E+20
 25
-1.000000000000000E+20
 35
-1.000000000000000E+20
146
0.0
 13
0.0
 23
0.0
 33
0.0
 16
1.0
 26
0.0
 36
0.0
 17
0.0
 27
1.0
 37
0.0
 76
     0
330
E
  0
LAYOUT
  5
C
102
{ACAD_REACTORS
330
D
102
}
102
{ACAD_XDICTIONARY
360
E8
102
}
330
D
100
AcDbPlotSettings
  1

  2
HP LaserJet 2100 Series PS
  4
Letter
  6

 40
5.365749835968018
 41
5.408073902130127
 42
5.132904052734375
 43
5.090576171875
 44
215.8999938964844
 45
279.3999938964844
 46
0.0
 47
0.0
 48
0.0
 49
0.0
140
0.0
141
0.0
142
1.0
143
2.479533908317576
 70
 28336
 72
     0
 73
     0
 74
     2
  7

 75
     0
147
0.4033016030333396
148
0.0
149
0.0
100
AcDbLayout
  1
Model
 70
     1
 71
     0
 10
0.0
 20
0.0
 11
12.0
 21
9.0
 12
0.0
 22
0.0
 32
0.0
 14
0.0
 24
0.0
 34
0.0
 15
0.0
 25
0.0
 35
0.0
146
0.0
 13
0.0
 23
0.0
 33
0.0
 16
1.0
 26
0.0
 36
0.0
 17
0.0
 27
1.0
 37
0.0
 76
     0
330
2
  0
MLINESTYLE
  5
27
102
{ACAD_REACTORS
330
24
102
}
330
24
100
AcDbMlineStyle
  2
STANDARD
 70
     0
  3

 62
   256
 51
90.0
 52
90.0
 71
     2
 49
0.5
 62
   256
  6
BYLAYER
 49
-0.5
 62
   256
  6
BYLAYER
  0
ACDBPLACEHOLDER
  5
7
102
{ACAD_REACTORS
330
8
102
}
330
8
  0
ACAD_PROXY_OBJECT
  5
CE
102
{ACAD_REACTORS
330
CD
102
}
330
CD
100
AcDbProxyObject
 90
      499
 91
      512
 95
   983063
 70
     0
 93
     1841
310
4214DD185B99185C9928B81E85EB51B8AE3F2E07A17AD46E2B8FC02B5E8DC0F42B1CFD028000000C1008070000C3001FDFF8000000C1003FBFF000000182007F7FE00000030400FEFFC00000060801FDFF8000000C1003FBFF00000018200000000000000681FA0B0000001820100E000186003FBFF000000182007F7FE000
310
00030400FEFFC00000060801FDFF8000000C1003FBFF000000182007F7FE000000304000AD7A3703D0AC73F4160000003040201C00030C007F7FE00000030400FEFFC00000060801FDFF8000000C1003FBFF000000182007F7FE00000030400FEFFC000000608000
340
16
340
16
340
16
 94
        0
  0
XRECORD
  5
E4
102
{ACAD_REACTORS
330
E3
102
}
330
E3
100
AcDbXrecord
340
CC
  0
XRECORD
  5
E5
102
{ACAD_REACTORS
330
E3
102
}
330
E3
100
AcDbXrecord
340
CB
  0
DICTIONARYVAR
  5
D7
102
{ACAD_REACTORS
330
C3
102
}
330
C3
100
DictionaryVariables
280
     0
  1
STANDARD
  0
DICTIONARYVAR
  5
C5
102
{ACAD_REACTORS
330
C3
102
}
330
C3
100
DictionaryVariables
280
     0
  1
2
  0
DICTIONARYVAR
  5
C4
102
{ACAD_REACTORS
330
C3
102
}
330
C3
100
DictionaryVariables
280
     0
  1
1
  0
DICTIONARY
  5
E6
330
13
100
AcDbDictionary
280
     1
281
     1
  3
ACAD_XREC_ROUNDTRIP
360
E7
  0
DICTIONARY
  5
E8
330
C
100
AcDbDictionary
280
     1
281
     1
  3
ACAD_XREC_ROUNDTRIP
360
E9
  0
XRECORD
  5
E7
102
{ACAD_REACTORS
330
E6
102
}
330
E6
100
AcDbXrecord
102
SHADEPLOT
 70
     0
102
SHADEPLOTRESLEVEL
 70
     2
102
SHADEPLOTCUSTOMDPI
 70
   300
  0
XRECORD
  5
E9
102
{ACAD_REACTORS
330
E8
102
}
330
E8
100
AcDbXrecord
102
SHADEPLOT
 70
     0
102
SHADEPLOTRESLEVEL
 70
     2
102
SHADEPLOTCUSTOMDPI
 70
   300
  0
ENDSEC
  0
EOF
