  0
SECTION
  2
HEADER
  9
$ACADVER
  1
AC1015
  9
$ACADMAINTVER
 70
     6
  9
$DWGCODEPAGE
  3
ANSI_1252
  9
$INSBASE
 10
0.0
 20
0.0
 30
0.0
  9
$EXTMIN
 10
-2.408668078233611
 20
-0.1894868833686343
 30
0.0
  9
$EXTMAX
 10
4.874182945332416
 20
24.56458456095371
 30
0.0
  9
$LIMMIN
 10
0.0
 20
0.0
  9
$LIMMAX
 10
24.0
 20
31.5
  9
$ORTHOMODE
 70
     0
  9
$REGENMODE
 70
     1
  9
$FILLMODE
 70
     1
  9
$QTEXTMODE
 70
     0
  9
$MIRRTEXT
 70
     0
  9
$LTSCALE
 40
0.5
  9
$ATTMODE
 70
     1
  9
$TEXTSIZE
 40
0.27
  9
$TRACEWID
 40
0.05
  9
$TEXTSTYLE
  7
STANDARD
  9
$CLAYER
  8
0
  9
$CELTYPE
  6
ByLayer
  9
$CECOLOR
 62
   256
  9
$CELTSCALE
 40
1.0
  9
$DISPSILH
 70
     0
  9
$DIMSCALE
 40
3.0
  9
$DIMASZ
 40
0.125
  9
$DIMEXO
 40
0.062
  9
$DIMDLI
 40
0.375
  9
$DIMRND
 40
0.0
  9
$DIMDLE
 40
0.0
  9
$DIMEXE
 40
0.08
  9
$DIMTP
 40
0.0
  9
$DIMTM
 40
0.0
  9
$DIMTXT
 40
0.09
  9
$DIMCEN
 40
-0.06
  9
$DIMTSZ
 40
0.0
  9
$DIMTOL
 70
     0
  9
$DIMLIM
 70
     0
  9
$DIMTIH
 70
     1
  9
$DIMTOH
 70
     1
  9
$DIMSE1
 70
     0
  9
$DIMSE2
 70
     0
  9
$DIMTAD
 70
     0
  9
$DIMZIN
 70
     0
  9
$DIMBLK
  1

  9
$DIMASO
 70
     0
  9
$DIMSHO
 70
     0
  9
$DIMPOST
  1

  9
$DIMAPOST
  1

  9
$DIMALT
 70
     0
  9
$DIMALTD
 70
     2
  9
$DIMALTF
 40
25.4
  9
$DIMLFAC
 40
1.0
  9
$DIMTOFL
 70
     0
  9
$DIMTVP
 40
0.0
  9
$DIMTIX
 70
     0
  9
$DIMSOXD
 70
     0
  9
$DIMSAH
 70
     0
  9
$DIMBLK1
  1

  9
$DIMBLK2
  1

  9
$DIMSTYLE
  2
Standard
  9
$DIMCLRD
 70
     0
  9
$DIMCLRE
 70
     0
  9
$DIMCLRT
 70
     0
  9
$DIMTFAC
 40
1.0
  9
$DIMGAP
 40
0.09
  9
$DIMJUST
 70
     0
  9
$DIMSD1
 70
     0
  9
$DIMSD2
 70
     0
  9
$DIMTOLJ
 70
     1
  9
$DIMTZIN
 70
     0
  9
$DIMALTZ
 70
     0
  9
$DIMALTTZ
 70
     0
  9
$DIMUPT
 70
     0
  9
$DIMDEC
 70
     4
  9
$DIMTDEC
 70
     4
  9
$DIMALTU
 70
     2
  9
$DIMALTTD
 70
     2
  9
$DIMTXSTY
  7
STANDARD
  9
$DIMAUNIT
 70
     0
  9
$DIMADEC
 70
     0
  9
$DIMALTRND
 40
0.0
  9
$DIMAZIN
 70
     0
  9
$DIMDSEP
 70
    46
  9
$DIMATFIT
 70
     3
  9
$DIMFRAC
 70
     0
  9
$DIMLDRBLK
  1

  9
$DIMLUNIT
 70
     2
  9
$DIMLWD
 70
    -2
  9
$DIMLWE
 70
    -2
  9
$DIMTMOVE
 70
     2
  9
$LUNITS
 70
     2
  9
$LUPREC
 70
     4
  9
$SKETCHINC
 40
0.1
  9
$FILLETRAD
 40
2.1875
  9
$AUNITS
 70
     0
  9
$AUPREC
 70
     0
  9
$MENU
  1
simpson
  9
$ELEVATION
 40
0.0
  9
$PELEVATION
 40
0.0
  9
$THICKNESS
 40
0.0
  9
$LIMCHECK
 70
     0
  9
$CHAMFERA
 40
0.0
  9
$CHAMFERB
 40
0.0
  9
$CHAMFERC
 40
0.0
  9
$CHAMFERD
 40
0.0
  9
$SKPOLY
 70
     0
  9
$TDCREATE
 40
2450745.867882755
  9
$TDUCREATE
 40
2450746.201216088
  9
$TDUPDATE
 40
2454160.684134375
  9
$TDUUPDATE
 40
2454161.017467708
  9
$TDINDWG
 40
0.0652199537
  9
$TDUSRTIMER
 40
0.0652199537
  9
$USRTIMER
 70
     1
  9
$ANGBASE
 50
0.0
  9
$ANGDIR
 70
     0
  9
$PDMODE
 70
     0
  9
$PDSIZE
 40
0.0
  9
$PLINEWID
 40
0.0
  9
$SPLFRAME
 70
     0
  9
$SPLINETYPE
 70
     6
  9
$SPLINESEGS
 70
     8
  9
$HANDSEED
  5
DE
  9
$SURFTAB1
 70
     6
  9
$SURFTAB2
 70
     6
  9
$SURFTYPE
 70
     6
  9
$SURFU
 70
     6
  9
$SURFV
 70
     6
  9
$UCSBASE
  2

  9
$UCSNAME
  2

  9
$UCSORG
 10
0.0
 20
0.0
 30
0.0
  9
$UCSXDIR
 10
1.0
 20
0.0
 30
0.0
  9
$UCSYDIR
 10
0.0
 20
1.0
 30
0.0
  9
$UCSORTHOREF
  2

  9
$UCSORTHOVIEW
 70
     0
  9
$UCSORGTOP
 10
0.0
 20
0.0
 30
0.0
  9
$UCSORGBOTTOM
 10
0.0
 20
0.0
 30
0.0
  9
$UCSORGLEFT
 10
0.0
 20
0.0
 30
0.0
  9
$UCSORGRIGHT
 10
0.0
 20
0.0
 30
0.0
  9
$UCSORGFRONT
 10
0.0
 20
0.0
 30
0.0
  9
$UCSORGBACK
 10
0.0
 20
0.0
 30
0.0
  9
$PUCSBASE
  2

  9
$PUCSNAME
  2

  9
$PUCSORG
 10
0.0
 20
0.0
 30
0.0
  9
$PUCSXDIR
 10
1.0
 20
0.0
 30
0.0
  9
$PUCSYDIR
 10
0.0
 20
1.0
 30
0.0
  9
$PUCSORTHOREF
  2

  9
$PUCSORTHOVIEW
 70
     0
  9
$PUCSORGTOP
 10
0.0
 20
0.0
 30
0.0
  9
$PUCSORGBOTTOM
 10
0.0
 20
0.0
 30
0.0
  9
$PUCSORGLEFT
 10
0.0
 20
0.0
 30
0.0
  9
$PUCSORGRIGHT
 10
0.0
 20
0.0
 30
0.0
  9
$PUCSORGFRONT
 10
0.0
 20
0.0
 30
0.0
  9
$PUCSORGBACK
 10
0.0
 20
0.0
 30
0.0
  9
$USERI1
 70
     0
  9
$USERI2
 70
     0
  9
$USERI3
 70
     0
  9
$USERI4
 70
     0
  9
$USERI5
 70
     0
  9
$USERR1
 40
0.0
  9
$USERR2
 40
0.0
  9
$USERR3
 40
0.0
  9
$USERR4
 40
0.0
  9
$USERR5
 40
0.0
  9
$WORLDVIEW
 70
     1
  9
$SHADEDGE
 70
     3
  9
$SHADEDIF
 70
    70
  9
$TILEMODE
 70
     1
  9
$MAXACTVP
 70
    16
  9
$PINSBASE
 10
0.0
 20
0.0
 30
0.0
  9
$PLIMCHECK
 70
     0
  9
$PEXTMIN
 10
1.000000000000000E+20
 20
1.000000000000000E+20
 30
1.000000000000000E+20
  9
$PEXTMAX
 10
-1.000000000000000E+20
 20
-1.000000000000000E+20
 30
-1.000000000000000E+20
  9
$PLIMMIN
 10
0.0
 20
0.0
  9
$PLIMMAX
 10
12.0
 20
9.0
  9
$UNITMODE
 70
     0
  9
$VISRETAIN
 70
     0
  9
$PLINEGEN
 70
     0
  9
$PSLTSCALE
 70
     0
  9
$TREEDEPTH
 70
  3020
  9
$CMLSTYLE
  2
Standard
  9
$CMLJUST
 70
     0
  9
$CMLSCALE
 40
1.0
  9
$PROXYGRAPHICS
 70
     1
  9
$MEASUREMENT
 70
     0
  9
$CELWEIGHT
370
    -1
  9
$ENDCAPS
280
     0
  9
$JOINSTYLE
280
     0
  9
$LWDISPLAY
290
     0
  9
$INSUNITS
 70
     0
  9
$HYPERLINKBASE
  1

  9
$STYLESHEET
  1

  9
$XEDIT
290
     1
  9
$CEPSNTYPE
380
     0
  9
$PSTYLEMODE
290
     1
  9
$FINGERPRINTGUID
  2
{D562FB79-B96C-4A2E-8539-ABD59EBA1483}
  9
$VERSIONGUID
  2
{7A1DBDEF-8B68-4C2A-957B-9849CEBAAC41}
  9
$EXTNAMES
290
     1
  9
$PSVPSCALE
 40
0.0
  9
$OLESTARTUP
290
     0
  0
ENDSEC
  0
SECTION
  2
CLASSES
  0
CLASS
  1
ACDBDICTIONARYWDFLT
  2
AcDbDictionaryWithDefault
  3
AutoCAD 2000
 90
        0
280
     0
281
     0
  0
CLASS
  1
ACDBPLACEHOLDER
  2
AcDbPlaceHolder
  3
ObjectDBX Classes
 90
        0
280
     0
281
     0
  0
CLASS
  1
LAYOUT
  2
AcDbLayout
  3
ObjectDBX Classes
 90
        0
280
     0
281
     0
  0
CLASS
  1
DICTIONARYVAR
  2
AcDbDictionaryVar
  3
AutoCAD 2000
 90
        0
280
     0
281
     0
  0
CLASS
  1
LONG_TRANSACTION
  2
AcDbLongTransaction
  3
ObjectDBX Classes
 90
   -65536
280
     1
281
     0
  0
CLASS
  1
LWPOLYLINE
  2
AcDbPolyline
  3
AutoCAD 2000
 90
        0
280
     0
281
     1
  0
CLASS
  1
HATCH
  2
AcDbHatch
  3
AutoCAD 2000
 90
        0
280
     0
281
     1
  0
CLASS
  1
XRECORD
  2
AcDbXrecord
  3
AutoCAD 2000
 90
        0
280
     0
281
     0
  0
CLASS
  1
LONG_TRANSACTION
  2
AcDbLongTransaction
  3
ObjectDBX Classes
 90
   -65536
280
     1
281
     0
  0
CLASS
  1
LWPOLYLINE
  2
AcDbPolyline
  3
AutoCAD 2000
 90
        0
280
     0
281
     1
  0
CLASS
  1
HATCH
  2
AcDbHatch
  3
AutoCAD 2000
 90
        0
280
     0
281
     1
  0
CLASS
  1
XRECORD
  2
AcDbXrecord
  3
AutoCAD 2000
 90
        0
280
     0
281
     0
  0
CLASS
  1
TABLESTYLE
  2
AcDbTableStyle
  3
ObjectDBX Classes
 90
     2047
280
     1
281
     0
  0
ENDSEC
  0
SECTION
  2
TABLES
  0
TABLE
  2
VPORT
  5
1D
330
0
100
AcDbSymbolTable
 70
     2
  0
VPORT
  5
CF
330
1D
100
AcDbSymbolTableRecord
100
AcDbViewportTableRecord
  2
*Active
 70
     0
 10
0.0
 20
0.0
 11
1.0
 21
1.0
 12
10.79479983122414
 22
16.64225503145293
 13
0.0
 23
0.0
 14
0.063
 24
0.063
 15
0.25
 25
0.25
 16
0.0
 26
0.0
 36
1.0
 17
0.0
 27
0.0
 37
0.0
 40
34.1678491054262
 41
1.814583333333333
 42
50.0
 43
0.0
 44
0.0
 50
0.0
 51
0.0
 71
     0
 72
   100
 73
     1
 74
     0
 75
     0
 76
     0
 77
     0
 78
     0
281
     0
 65
     1
110
0.0
120
0.0
130
0.0
111
1.0
121
0.0
131
0.0
112
0.0
122
1.0
132
0.0
 79
     0
146
0.0
  0
ENDTAB
  0
TABLE
  2
LTYPE
  5
18
330
0
100
AcDbSymbolTable
 70
     1
  0
LTYPE
  5
19
330
18
100
AcDbSymbolTableRecord
100
AcDbLinetypeTableRecord
  2
ByBlock
 70
     0
  3

 72
    65
 73
     0
 40
0.0
  0
LTYPE
  5
1A
330
18
100
AcDbSymbolTableRecord
100
AcDbLinetypeTableRecord
  2
ByLayer
 70
     0
  3

 72
    65
 73
     0
 40
0.0
  0
LTYPE
  5
A
330
18
100
AcDbSymbolTableRecord
100
AcDbLinetypeTableRecord
  2
CONTINUOUS
 70
     0
  3
Solid line
 72
    65
 73
     0
 40
0.0
  0
ENDTAB
  0
TABLE
  2
LAYER
  5
14
330
0
100
AcDbSymbolTable
 70
     2
  0
LAYER
  5
6
330
14
100
AcDbSymbolTableRecord
100
AcDbLayerTableRecord
  2
0
 70
     0
 62
     7
  6
CONTINUOUS
370
    -3
390
7
  0
ENDTAB
  0
TABLE
  2
STYLE
  5
15
330
0
100
AcDbSymbolTable
 70
     1
  0
STYLE
  5
16
330
15
100
AcDbSymbolTableRecord
100
AcDbTextStyleTableRecord
  2
STANDARD
 70
     0
 40
0.0
 41
1.0
 50
0.0
 71
     0
 42
0.27
  3
TXT
  4

  0
ENDTAB
  0
TABLE
  2
VIEW
  5
1B
330
0
100
AcDbSymbolTable
 70
     0
  0
ENDTAB
  0
TABLE
  2
UCS
  5
1C
330
0
100
AcDbSymbolTable
 70
     0
  0
ENDTAB
  0
TABLE
  2
APPID
  5
1F
330
0
100
AcDbSymbolTable
 70
     1
  0
APPID
  5
20
330
1F
100
AcDbSymbolTableRecord
100
AcDbRegAppTableRecord
  2
ACAD
 70
     0
  0
ENDTAB
  0
TABLE
  2
DIMSTYLE
  5
21
330
0
100
AcDbSymbolTable
 70
     1
100
AcDbDimStyleTable
  0
DIMSTYLE
105
28
330
21
100
AcDbSymbolTableRecord
100
AcDbDimStyleTableRecord
  2
Standard
 70
     0
  3

  4

340
16
  0
ENDTAB
  0
TABLE
  2
BLOCK_RECORD
  5
1
330
0
100
AcDbSymbolTable
 70
     0
  0
BLOCK_RECORD
  5
2
330
1
100
AcDbSymbolTableRecord
100
AcDbBlockTableRecord
  2
*Model_Space
340
C
  0
BLOCK_RECORD
  5
E
330
1
100
AcDbSymbolTableRecord
100
AcDbBlockTableRecord
  2
*Paper_Space
340
13
  0
ENDTAB
  0
ENDSEC
  0
SECTION
  2
BLOCKS
  0
BLOCK
  5
5
330
2
100
AcDbEntity
  8
0
100
AcDbBlockBegin
  2
*Model_Space
 70
     0
 10
0.0
 20
0.0
 30
0.0
  3
*Model_Space
  1

  4

  0
ENDBLK
  5
B
330
2
100
AcDbEntity
  8
0
100
AcDbBlockEnd
  0
BLOCK
  5
11
330
E
100
AcDbEntity
 67
     1
  8
0
100
AcDbBlockBegin
  2
*Paper_Space
 70
     0
 10
0.0
 20
0.0
 30
0.0
  3
*Paper_Space
  1

  4

  0
ENDBLK
  5
12
330
E
100
AcDbEntity
 67
     1
  8
0
100
AcDbBlockEnd
  0
ENDSEC
  0
SECTION
  2
ENTITIES
  0
LINE
  5
29
330
2
100
AcDbEntity
  8
0
100
AcDbLine
 10
2.088511687677398
 20
15.766665922
 30
0.0
 11
2.811931320677397
 21
6.705587872000002
 31
0.0
  0
LINE
  5
2A
330
2
100
AcDbEntity
  8
0
100
AcDbLine
 10
1.466935502677398
 20
15.701335632
 30
0.0
 11
2.195868133221687
 21
6.687938374904001
 31
0.0
  0
LINE
  5
2B
330
2
100
AcDbEntity
  8
0
100
AcDbLine
 10
3.702766839677398
 20
0.6242052810000009
 30
0.0
 11
3.7680971286774
 21
0.0026290960000006
 31
0.0
  0
ARC
  5
2C
330
2
100
AcDbEntity
  8
0
100
AcDbCircle
 10
3.356140930677398
 20
1.527779302000001
 30
0.0
 40
1.5625
100
AcDbArc
 50
96.0
 51
276.0
  0
LINE
  5
2D
330
2
100
AcDbEntity
  8
0
100
AcDbLine
 10
3.519466654677398
 20
-0.026161158999999
 30
0.0
 11
3.768373457677399
 21
0.0
 31
0.0
  0
LINE
  5
2E
330
2
100
AcDbEntity
  8
0
100
AcDbLine
 10
3.7680971286774
 20
0.0026290960000006
 30
0.0
 11
3.768373457677399
 21
0.0
 31
0.0
  0
ARC
  5
2F
330
2
100
AcDbEntity
  8
0
100
AcDbCircle
 10
4.376249577789533
 20
6.864270465529157
 30
0.0
 40
2.1875
100
AcDbArc
 50
184.6235693771353
 51
245.7915507234027
  0
ARC
  5
30
330
2
100
AcDbEntity
  8
0
100
AcDbCircle
 10
4.365871782677399
 20
6.868913596000001
 30
0.0
 40
1.5625
100
AcDbArc
 50
186.0
 51
246.0
  0
ARC
  5
31
330
2
100
AcDbEntity
  8
0
100
AcDbCircle
 10
3.356140930677398
 20
1.527779302000001
 30
0.0
 40
0.9375
100
AcDbArc
 50
96.0
 51
276.0
  0
ARC
  5
32
330
2
100
AcDbEntity
  8
0
100
AcDbCircle
 10
3.094819772677399
 20
4.014084041000001
 30
0.0
 40
0.9375
100
AcDbArc
 50
276.0
 51
65.79155072340272
  0
ARC
  5
33
330
2
100
AcDbEntity
  8
0
100
AcDbCircle
 10
3.094819772677399
 20
4.014084041000001
 30
0.0
 40
1.5625
100
AcDbArc
 50
276.0
 51
66.0
  0
LINE
  5
34
330
2
100
AcDbEntity
  8
0
100
AcDbLine
 10
3.454136365677398
 20
0.5954150250000003
 30
0.0
 11
3.7030431686774
 21
0.6215761850000003
 31
0.0
  0
ARC
  5
35
330
2
100
AcDbEntity
  8
0
100
AcDbCircle
 10
1.944159577677398
 20
19.890490796
 30
0.0
 40
0.05
100
AcDbArc
 50
276.629901278
 51
0.0
  0
ARC
  5
36
330
2
100
AcDbEntity
  8
0
100
AcDbCircle
 10
1.419159577677398
 20
19.853795316
 30
0.0
 40
0.05
100
AcDbArc
 50
96.62990127799999
 51
180.0
  0
LINE
  5
37
330
2
100
AcDbEntity
  8
0
100
AcDbLine
 10
1.369159577677399
 20
19.898320293
 30
0.0
 11
1.369159577677399
 21
19.853795316
 31
0.0
  0
LINE
  5
38
330
2
100
AcDbEntity
  8
0
100
AcDbLine
 10
1.994159577677399
 20
19.528434772
 30
0.0
 11
1.994159577677399
 21
21.730637548
 31
0.0
  0
LINE
  5
39
330
2
100
AcDbEntity
  8
0
100
AcDbLine
 10
1.369159577677399
 20
19.411264269
 30
0.0
 11
1.369159577677399
 21
21.730637548
 31
0.0
  0
LINE
  5
3A
330
2
100
AcDbEntity
  8
0
100
AcDbLine
 10
1.369159577677399
 20
16.66259826631765
 30
0.0
 11
1.369159577677399
 21
19.366739292
 31
0.0
  0
LINE
  5
3B
330
2
100
AcDbEntity
  8
0
100
AcDbLine
 10
1.994159577677399
 20
16.66259826631765
 30
0.0
 11
1.994159577677399
 21
19.528434575
 31
0.0
  0
LINE
  5
3C
330
2
100
AcDbEntity
  8
0
100
AcDbLine
 10
1.400409577677399
 20
16.66259826631765
 30
0.0
 11
1.994159577677399
 21
16.66259826631765
 31
0.0
  0
LINE
  5
3D
330
2
100
AcDbEntity
  8
0
100
AcDbLine
 10
1.372471742875568
 20
16.60009826631765
 30
0.0
 11
2.001110385916121
 21
16.60009826631765
 31
0.0
  0
LINE
  5
3E
330
2
100
AcDbEntity
  8
0
100
AcDbLine
 10
1.466935502677398
 20
15.701335632
 30
0.0
 11
1.372471742875568
 21
16.60009826631765
 31
0.0
  0
LINE
  5
3F
330
2
100
AcDbEntity
  8
0
100
AcDbLine
 10
1.369159577677399
 20
16.66259826631765
 30
0.0
 11
1.400409577677399
 21
16.66259826631765
 31
0.0
  0
LINE
  5
40
330
2
100
AcDbEntity
  8
0
100
AcDbLine
 10
1.372667711188925
 20
16.60009826631765
 30
0.0
 11
1.400409577677399
 21
16.60009826631765
 31
0.0
  0
ARC
  5
41
330
2
100
AcDbEntity
  8
0
100
AcDbCircle
 10
1.369159577677399
 20
16.63134826631765
 30
0.0
 40
0.03125
100
AcDbArc
 50
0.0
 51
90.0
  0
ARC
  5
42
330
2
100
AcDbEntity
  8
0
100
AcDbCircle
 10
1.369160201567906
 20
16.6311508004535
 30
0.0
 40
0.03125
100
AcDbArc
 50
276.4444756747145
 51
0.3620491490063159
  0
LINE
  5
43
330
2
100
AcDbEntity
  8
0
100
AcDbLine
 10
2.088511687677398
 20
15.766665922
 30
0.0
 11
2.00091441807743
 21
16.60009826631765
 31
0.0
  0
ARC
  5
44
330
2
100
AcDbEntity
  8
0
100
AcDbCircle
 10
1.994159577677399
 20
16.63134826631765
 30
0.0
 40
0.03125
100
AcDbArc
 50
89.99999999999999
 51
180.0
  0
ARC
  5
45
330
2
100
AcDbEntity
  8
0
100
AcDbCircle
 10
1.994149714595389
 20
16.63056318966836
 30
0.0
 40
0.03125
100
AcDbArc
 50
178.5604380308048
 51
282.8701046498812
  0
LINE
  5
46
330
2
100
AcDbEntity
  8
0
100
AcDbLine
 10
1.413386800677399
 20
19.528460949
 30
0.0
 11
1.949932355677399
 21
19.590825163
 31
0.0
  0
LINE
  5
47
330
2
100
AcDbEntity
  8
0
100
AcDbLine
 10
1.413386800677399
 20
19.653460949
 30
0.0
 11
1.949932355677399
 21
19.715825163
 31
0.0
  0
LINE
  5
48
330
2
100
AcDbEntity
  8
0
100
AcDbLine
 10
1.413386800677399
 20
19.778460949
 30
0.0
 11
1.949932355677399
 21
19.840825163
 31
0.0
  0
LINE
  5
49
330
2
100
AcDbEntity
  8
0
100
AcDbLine
 10
1.413386800677399
 20
19.416404925
 30
0.0
 11
1.949932355677399
 21
19.478769139
 31
0.0
  0
LINE
  5
4A
330
2
100
AcDbEntity
  8
0
100
AcDbLine
 10
1.413386800677399
 20
19.291404925
 30
0.0
 11
1.949932355677399
 21
19.353769139
 31
0.0
  0
LINE
  5
4B
330
2
100
AcDbEntity
  8
0
100
AcDbLine
 10
1.413386800677399
 20
19.166404925
 30
0.0
 11
1.949932355677399
 21
19.228769139
 31
0.0
  0
LINE
  5
4C
330
2
100
AcDbEntity
  8
0
100
AcDbLine
 10
1.413386800677399
 20
19.041404925
 30
0.0
 11
1.949932355677399
 21
19.103769139
 31
0.0
  0
LINE
  5
4D
330
2
100
AcDbEntity
  8
0
100
AcDbLine
 10
1.413386800677399
 20
18.916404925
 30
0.0
 11
1.949932355677399
 21
18.978769139
 31
0.0
  0
LINE
  5
4E
330
2
100
AcDbEntity
  8
0
100
AcDbLine
 10
1.413386800677399
 20
18.791404925
 30
0.0
 11
1.949932355677399
 21
18.853769139
 31
0.0
  0
LINE
  5
4F
330
2
100
AcDbEntity
  8
0
100
AcDbLine
 10
1.413386800677399
 20
18.666404925
 30
0.0
 11
1.949932355677399
 21
18.728769139
 31
0.0
  0
LINE
  5
50
330
2
100
AcDbEntity
  8
0
100
AcDbLine
 10
1.413386800677399
 20
18.541404925
 30
0.0
 11
1.949932355677399
 21
18.603769139
 31
0.0
  0
LINE
  5
51
330
2
100
AcDbEntity
  8
0
100
AcDbLine
 10
1.413386800677399
 20
18.416404925
 30
0.0
 11
1.949932355677399
 21
18.478769139
 31
0.0
  0
LINE
  5
52
330
2
100
AcDbEntity
  8
0
100
AcDbLine
 10
1.413386800677399
 20
18.291404925
 30
0.0
 11
1.949932355677399
 21
18.353769139
 31
0.0
  0
LINE
  5
53
330
2
100
AcDbEntity
  8
0
100
AcDbLine
 10
1.413386800677399
 20
18.166404925
 30
0.0
 11
1.949932355677399
 21
18.228769139
 31
0.0
  0
LINE
  5
54
330
2
100
AcDbEntity
  8
0
100
AcDbLine
 10
1.369159577677399
 20
18.661264269
 30
0.0
 11
1.369159577677399
 21
18.616739292
 31
0.0
  0
ARC
  5
55
330
2
100
AcDbEntity
  8
0
100
AcDbCircle
 10
1.419159577677398
 20
18.616739292
 30
0.0
 40
0.05
100
AcDbArc
 50
96.62990127799999
 51
180.0
  0
LINE
  5
56
330
2
100
AcDbEntity
  8
0
100
AcDbLine
 10
1.369159577677399
 20
18.536264269
 30
0.0
 11
1.369159577677399
 21
18.491739292
 31
0.0
  0
ARC
  5
57
330
2
100
AcDbEntity
  8
0
100
AcDbCircle
 10
1.419159577677398
 20
18.491739292
 30
0.0
 40
0.05
100
AcDbArc
 50
96.62990127799999
 51
180.0
  0
LINE
  5
58
330
2
100
AcDbEntity
  8
0
100
AcDbLine
 10
1.369159577677399
 20
18.411264269
 30
0.0
 11
1.369159577677399
 21
18.366739292
 31
0.0
  0
ARC
  5
59
330
2
100
AcDbEntity
  8
0
100
AcDbCircle
 10
1.419159577677398
 20
18.366739292
 30
0.0
 40
0.05
100
AcDbArc
 50
96.62990127799999
 51
180.0
  0
LINE
  5
5A
330
2
100
AcDbEntity
  8
0
100
AcDbLine
 10
1.369159577677399
 20
18.286264269
 30
0.0
 11
1.369159577677399
 21
18.241739292
 31
0.0
  0
ARC
  5
5B
330
2
100
AcDbEntity
  8
0
100
AcDbCircle
 10
1.419159577677398
 20
18.241739292
 30
0.0
 40
0.05
100
AcDbArc
 50
96.62990127799999
 51
180.0
  0
ARC
  5
5C
330
2
100
AcDbEntity
  8
0
100
AcDbCircle
 10
1.419159577677398
 20
18.116739292
 30
0.0
 40
0.05
100
AcDbArc
 50
96.62990127799999
 51
180.0
  0
LINE
  5
5D
330
2
100
AcDbEntity
  8
0
100
AcDbLine
 10
1.369159577677399
 20
18.161264269
 30
0.0
 11
1.369159577677399
 21
18.116739292
 31
0.0
  0
LINE
  5
5E
330
2
100
AcDbEntity
  8
0
100
AcDbLine
 10
1.369159577677399
 20
19.286264269
 30
0.0
 11
1.369159577677399
 21
19.241739292
 31
0.0
  0
ARC
  5
5F
330
2
100
AcDbEntity
  8
0
100
AcDbCircle
 10
1.419159577677398
 20
19.241739292
 30
0.0
 40
0.05
100
AcDbArc
 50
96.62990127799999
 51
180.0
  0
LINE
  5
60
330
2
100
AcDbEntity
  8
0
100
AcDbLine
 10
1.369159577677399
 20
19.161264269
 30
0.0
 11
1.369159577677399
 21
19.116739292
 31
0.0
  0
ARC
  5
61
330
2
100
AcDbEntity
  8
0
100
AcDbCircle
 10
1.419159577677398
 20
19.116739292
 30
0.0
 40
0.05
100
AcDbArc
 50
96.62990127799999
 51
180.0
  0
LINE
  5
62
330
2
100
AcDbEntity
  8
0
100
AcDbLine
 10
1.369159577677399
 20
19.036264269
 30
0.0
 11
1.369159577677399
 21
18.991739292
 31
0.0
  0
ARC
  5
63
330
2
100
AcDbEntity
  8
0
100
AcDbCircle
 10
1.419159577677398
 20
18.991739292
 30
0.0
 40
0.05
100
AcDbArc
 50
96.62990127799999
 51
180.0
  0
LINE
  5
64
330
2
100
AcDbEntity
  8
0
100
AcDbLine
 10
1.369159577677399
 20
18.911264269
 30
0.0
 11
1.369159577677399
 21
18.866739292
 31
0.0
  0
ARC
  5
65
330
2
100
AcDbEntity
  8
0
100
AcDbCircle
 10
1.419159577677398
 20
18.866739292
 30
0.0
 40
0.05
100
AcDbArc
 50
96.62990127799999
 51
180.0
  0
LINE
  5
66
330
2
100
AcDbEntity
  8
0
100
AcDbLine
 10
1.369159577677399
 20
18.786264269
 30
0.0
 11
1.369159577677399
 21
18.741739292
 31
0.0
  0
ARC
  5
67
330
2
100
AcDbEntity
  8
0
100
AcDbCircle
 10
1.419159577677398
 20
18.741739292
 30
0.0
 40
0.05
100
AcDbArc
 50
96.62990127799999
 51
180.0
  0
ARC
  5
68
330
2
100
AcDbEntity
  8
0
100
AcDbCircle
 10
1.419159577677398
 20
19.478795316
 30
0.0
 40
0.05
100
AcDbArc
 50
96.62990127799999
 51
180.0
  0
LINE
  5
69
330
2
100
AcDbEntity
  8
0
100
AcDbLine
 10
1.369159577677399
 20
19.523320293
 30
0.0
 11
1.369159577677399
 21
19.478795316
 31
0.0
  0
ARC
  5
6A
330
2
100
AcDbEntity
  8
0
100
AcDbCircle
 10
1.419159577677398
 20
19.603795316
 30
0.0
 40
0.05
100
AcDbArc
 50
96.62990127799999
 51
180.0
  0
LINE
  5
6B
330
2
100
AcDbEntity
  8
0
100
AcDbLine
 10
1.369159577677399
 20
19.648320293
 30
0.0
 11
1.369159577677399
 21
19.603795316
 31
0.0
  0
ARC
  5
6C
330
2
100
AcDbEntity
  8
0
100
AcDbCircle
 10
1.419159577677398
 20
19.728795316
 30
0.0
 40
0.05
100
AcDbArc
 50
96.62990127799999
 51
180.0
  0
LINE
  5
6D
330
2
100
AcDbEntity
  8
0
100
AcDbLine
 10
1.369159577677399
 20
19.773320293
 30
0.0
 11
1.369159577677399
 21
19.728795316
 31
0.0
  0
ARC
  5
6E
330
2
100
AcDbEntity
  8
0
100
AcDbCircle
 10
1.419159577677398
 20
19.366739292
 30
0.0
 40
0.05
100
AcDbArc
 50
96.62990127799999
 51
180.0
  0
LINE
  5
6F
330
2
100
AcDbEntity
  8
0
100
AcDbLine
 10
1.369159577677399
 20
19.411264269
 30
0.0
 11
1.369159577677399
 21
19.366739292
 31
0.0
  0
ARC
  5
70
330
2
100
AcDbEntity
  8
0
100
AcDbCircle
 10
1.944159577677398
 20
18.653434772
 30
0.0
 40
0.05
100
AcDbArc
 50
276.629901278
 51
0.0
  0
ARC
  5
71
330
2
100
AcDbEntity
  8
0
100
AcDbCircle
 10
1.944159577677398
 20
18.528434772
 30
0.0
 40
0.05
100
AcDbArc
 50
276.629901278
 51
0.0
  0
ARC
  5
72
330
2
100
AcDbEntity
  8
0
100
AcDbCircle
 10
1.944159577677398
 20
18.403434772
 30
0.0
 40
0.05
100
AcDbArc
 50
276.629901278
 51
0.0
  0
ARC
  5
73
330
2
100
AcDbEntity
  8
0
100
AcDbCircle
 10
1.944159577677398
 20
18.278434772
 30
0.0
 40
0.05
100
AcDbArc
 50
276.629901278
 51
0.0
  0
ARC
  5
74
330
2
100
AcDbEntity
  8
0
100
AcDbCircle
 10
1.944159577677398
 20
19.278434772
 30
0.0
 40
0.05
100
AcDbArc
 50
276.629901278
 51
0.0
  0
ARC
  5
75
330
2
100
AcDbEntity
  8
0
100
AcDbCircle
 10
1.944159577677398
 20
19.153434772
 30
0.0
 40
0.05
100
AcDbArc
 50
276.629901278
 51
0.0
  0
ARC
  5
76
330
2
100
AcDbEntity
  8
0
100
AcDbCircle
 10
1.944159577677398
 20
19.028434772
 30
0.0
 40
0.05
100
AcDbArc
 50
276.629901278
 51
0.0
  0
ARC
  5
77
330
2
100
AcDbEntity
  8
0
100
AcDbCircle
 10
1.944159577677398
 20
18.903434772
 30
0.0
 40
0.05
100
AcDbArc
 50
276.629901278
 51
0.0
  0
ARC
  5
78
330
2
100
AcDbEntity
  8
0
100
AcDbCircle
 10
1.944159577677398
 20
18.778434772
 30
0.0
 40
0.05
100
AcDbArc
 50
276.629901278
 51
0.0
  0
ARC
  5
79
330
2
100
AcDbEntity
  8
0
100
AcDbCircle
 10
1.944159577677398
 20
19.515490796
 30
0.0
 40
0.05
100
AcDbArc
 50
276.629901278
 51
0.0
  0
ARC
  5
7A
330
2
100
AcDbEntity
  8
0
100
AcDbCircle
 10
1.944159577677398
 20
19.640490796
 30
0.0
 40
0.05
100
AcDbArc
 50
276.629901278
 51
0.0
  0
ARC
  5
7B
330
2
100
AcDbEntity
  8
0
100
AcDbCircle
 10
1.944159577677398
 20
19.765490796
 30
0.0
 40
0.05
100
AcDbArc
 50
276.629901278
 51
0.0
  0
ARC
  5
7C
330
2
100
AcDbEntity
  8
0
100
AcDbCircle
 10
1.944159577677398
 20
19.528434772
 30
0.0
 40
0.05
100
AcDbArc
 50
276.629901278
 51
0.0
  0
ARC
  5
7D
330
2
100
AcDbEntity
  8
0
100
AcDbCircle
 10
1.944159577677398
 20
19.403434772
 30
0.0
 40
0.05
100
AcDbArc
 50
276.629901278
 51
0.0
  0
LINE
  5
7E
330
2
100
AcDbEntity
  8
0
100
AcDbLine
 10
1.817872930791458
 20
24.53333564527771
 30
0.0
 11
4.376009980315287
 21
24.53335600928258
 31
0.0
  0
LINE
  5
7F
330
2
100
AcDbEntity
  8
0
100
AcDbLine
 10
1.817877408562792
 20
23.97083564531335
 30
0.0
 11
4.376009980315287
 21
23.97085600928258
 31
0.0
  0
LINE
  5
80
330
2
100
AcDbEntity
  8
0
100
AcDbLine
 10
1.413386800677399
 20
21.581770458
 30
0.0
 11
1.949932355677399
 21
21.644134673
 31
0.0
  0
LINE
  5
81
330
2
100
AcDbEntity
  8
0
100
AcDbLine
 10
1.413386800677399
 20
21.456770458
 30
0.0
 11
1.949932355677399
 21
21.519134673
 31
0.0
  0
LINE
  5
82
330
2
100
AcDbEntity
  8
0
100
AcDbLine
 10
1.413386800677399
 20
21.331770458
 30
0.0
 11
1.949932355677399
 21
21.394134673
 31
0.0
  0
LINE
  5
83
330
2
100
AcDbEntity
  8
0
100
AcDbLine
 10
1.413386800677399
 20
21.206770458
 30
0.0
 11
1.949932355677399
 21
21.269134673
 31
0.0
  0
LINE
  5
84
330
2
100
AcDbEntity
  8
0
100
AcDbLine
 10
1.413386800677399
 20
21.081770458
 30
0.0
 11
1.949932355677399
 21
21.144134673
 31
0.0
  0
LINE
  5
85
330
2
100
AcDbEntity
  8
0
100
AcDbLine
 10
1.413386800677399
 20
20.956770458
 30
0.0
 11
1.949932355677399
 21
21.019134673
 31
0.0
  0
LINE
  5
86
330
2
100
AcDbEntity
  8
0
100
AcDbLine
 10
1.413386800677399
 20
20.831770458
 30
0.0
 11
1.949932355677399
 21
20.894134673
 31
0.0
  0
LINE
  5
87
330
2
100
AcDbEntity
  8
0
100
AcDbLine
 10
1.413386800677399
 20
20.581217427
 30
0.0
 11
1.949932355677399
 21
20.643581642
 31
0.0
  0
LINE
  5
88
330
2
100
AcDbEntity
  8
0
100
AcDbLine
 10
1.413386800677399
 20
20.456217427
 30
0.0
 11
1.949932355677399
 21
20.518581642
 31
0.0
  0
LINE
  5
89
330
2
100
AcDbEntity
  8
0
100
AcDbLine
 10
1.413386800677399
 20
20.331217427
 30
0.0
 11
1.949932355677399
 21
20.393581642
 31
0.0
  0
LINE
  5
8A
330
2
100
AcDbEntity
  8
0
100
AcDbLine
 10
1.413386800677399
 20
20.206217427
 30
0.0
 11
1.949932355677399
 21
20.268581642
 31
0.0
  0
LINE
  5
8B
330
2
100
AcDbEntity
  8
0
100
AcDbLine
 10
1.413386800677399
 20
19.903460949
 30
0.0
 11
1.949932355677399
 21
19.965825163
 31
0.0
  0
LINE
  5
8C
330
2
100
AcDbEntity
  8
0
100
AcDbLine
 10
1.413386800677399
 20
20.028460949
 30
0.0
 11
1.949932355677399
 21
20.090825163
 31
0.0
  0
LINE
  5
8D
330
2
100
AcDbEntity
  8
0
100
AcDbLine
 10
1.369159577677399
 20
21.730637548
 30
0.0
 11
1.994159577677399
 21
21.730637548
 31
0.0
  0
LINE
  5
8E
330
2
100
AcDbEntity
  8
0
100
AcDbLine
 10
1.413386800677399
 20
20.706770458
 30
0.0
 11
1.949932355677399
 21
20.769134673
 31
0.0
  0
LINE
  5
8F
330
2
100
AcDbEntity
  8
0
100
AcDbLine
 10
1.369159577677399
 20
20.451076771
 30
0.0
 11
1.369159577677399
 21
20.406551795
 31
0.0
  0
ARC
  5
90
330
2
100
AcDbEntity
  8
0
100
AcDbCircle
 10
1.419159577677398
 20
20.406551795
 30
0.0
 40
0.05
100
AcDbArc
 50
96.62990127799999
 51
180.0
  0
LINE
  5
91
330
2
100
AcDbEntity
  8
0
100
AcDbLine
 10
1.369159577677399
 20
20.326076771
 30
0.0
 11
1.369159577677399
 21
20.281551795
 31
0.0
  0
ARC
  5
92
330
2
100
AcDbEntity
  8
0
100
AcDbCircle
 10
1.419159577677398
 20
20.281551795
 30
0.0
 40
0.05
100
AcDbArc
 50
96.62990127799999
 51
180.0
  0
LINE
  5
93
330
2
100
AcDbEntity
  8
0
100
AcDbLine
 10
1.369159577677399
 20
20.201076771
 30
0.0
 11
1.369159577677399
 21
20.156551795
 31
0.0
  0
ARC
  5
94
330
2
100
AcDbEntity
  8
0
100
AcDbCircle
 10
1.419159577677398
 20
20.156551795
 30
0.0
 40
0.05
100
AcDbArc
 50
96.62990127799999
 51
180.0
  0
LINE
  5
95
330
2
100
AcDbEntity
  8
0
100
AcDbLine
 10
1.369159577677399
 20
20.023320293
 30
0.0
 11
1.369159577677399
 21
19.978795316
 31
0.0
  0
ARC
  5
96
330
2
100
AcDbEntity
  8
0
100
AcDbCircle
 10
1.419159577677398
 20
19.978795316
 30
0.0
 40
0.05
100
AcDbArc
 50
96.62990127799999
 51
180.0
  0
ARC
  5
97
330
2
100
AcDbEntity
  8
0
100
AcDbCircle
 10
1.419159577677398
 20
21.032104826
 30
0.0
 40
0.05
100
AcDbArc
 50
96.62990127799999
 51
180.0
  0
ARC
  5
98
330
2
100
AcDbEntity
  8
0
100
AcDbCircle
 10
1.419159577677398
 20
20.907104826
 30
0.0
 40
0.05
100
AcDbArc
 50
96.62990127799999
 51
180.0
  0
ARC
  5
99
330
2
100
AcDbEntity
  8
0
100
AcDbCircle
 10
1.419159577677398
 20
20.782104826
 30
0.0
 40
0.05
100
AcDbArc
 50
96.62990127799999
 51
180.0
  0
ARC
  5
9A
330
2
100
AcDbEntity
  8
0
100
AcDbCircle
 10
1.419159577677398
 20
20.531551795
 30
0.0
 40
0.05
100
AcDbArc
 50
96.62990127799999
 51
180.0
  0
LINE
  5
9B
330
2
100
AcDbEntity
  8
0
100
AcDbLine
 10
1.369159577677399
 20
20.576076771
 30
0.0
 11
1.369159577677399
 21
20.531551795
 31
0.0
  0
ARC
  5
9C
330
2
100
AcDbEntity
  8
0
100
AcDbCircle
 10
1.419159577677398
 20
20.657104826
 30
0.0
 40
0.05
100
AcDbArc
 50
96.62990127799999
 51
180.0
  0
ARC
  5
9D
330
2
100
AcDbEntity
  8
0
100
AcDbCircle
 10
1.419159577677398
 20
21.657104826
 30
0.0
 40
0.05
100
AcDbArc
 50
96.62990127799999
 51
180.0
  0
LINE
  5
9E
330
2
100
AcDbEntity
  8
0
100
AcDbLine
 10
1.413386800677399
 20
21.706770458
 30
0.0
 11
1.618725410677399
 21
21.730637548
 31
0.0
  0
ARC
  5
9F
330
2
100
AcDbEntity
  8
0
100
AcDbCircle
 10
1.419159577677398
 20
21.532104826
 30
0.0
 40
0.05
100
AcDbArc
 50
96.62990127799999
 51
180.0
  0
ARC
  5
A0
330
2
100
AcDbEntity
  8
0
100
AcDbCircle
 10
1.419159577677398
 20
21.407104826
 30
0.0
 40
0.05
100
AcDbArc
 50
96.62990127799999
 51
180.0
  0
ARC
  5
A1
330
2
100
AcDbEntity
  8
0
100
AcDbCircle
 10
1.419159577677398
 20
21.282104826
 30
0.0
 40
0.05
100
AcDbArc
 50
96.62990127799999
 51
180.0
  0
ARC
  5
A2
330
2
100
AcDbEntity
  8
0
100
AcDbCircle
 10
1.419159577677398
 20
21.157104826
 30
0.0
 40
0.05
100
AcDbArc
 50
96.62990127799999
 51
180.0
  0
ARC
  5
A3
330
2
100
AcDbEntity
  8
0
100
AcDbCircle
 10
1.944159577677398
 20
20.443247274
 30
0.0
 40
0.05
100
AcDbArc
 50
276.629901278
 51
0.0
  0
ARC
  5
A4
330
2
100
AcDbEntity
  8
0
100
AcDbCircle
 10
1.944159577677398
 20
20.318247274
 30
0.0
 40
0.05
100
AcDbArc
 50
276.629901278
 51
0.0
  0
ARC
  5
A5
330
2
100
AcDbEntity
  8
0
100
AcDbCircle
 10
1.944159577677398
 20
20.015490796
 30
0.0
 40
0.05
100
AcDbArc
 50
276.629901278
 51
0.0
  0
ARC
  5
A6
330
2
100
AcDbEntity
  8
0
100
AcDbCircle
 10
1.944159577677398
 20
20.140490796
 30
0.0
 40
0.05
100
AcDbArc
 50
276.629901278
 51
0.0
  0
ARC
  5
A7
330
2
100
AcDbEntity
  8
0
100
AcDbCircle
 10
1.944159577677398
 20
21.068800305
 30
0.0
 40
0.05
100
AcDbArc
 50
276.629901278
 51
0.0
  0
ARC
  5
A8
330
2
100
AcDbEntity
  8
0
100
AcDbCircle
 10
1.944159577677398
 20
20.943800305
 30
0.0
 40
0.05
100
AcDbArc
 50
276.629901278
 51
0.0
  0
ARC
  5
A9
330
2
100
AcDbEntity
  8
0
100
AcDbCircle
 10
1.944159577677398
 20
20.693247274
 30
0.0
 40
0.05
100
AcDbArc
 50
276.629901278
 51
0.0
  0
ARC
  5
AA
330
2
100
AcDbEntity
  8
0
100
AcDbCircle
 10
1.944159577677398
 20
20.568247274
 30
0.0
 40
0.05
100
AcDbArc
 50
276.629901278
 51
0.0
  0
ARC
  5
AB
330
2
100
AcDbEntity
  8
0
100
AcDbCircle
 10
1.944159577677398
 20
20.818800305
 30
0.0
 40
0.05
100
AcDbArc
 50
276.629901278
 51
0.0
  0
ARC
  5
AC
330
2
100
AcDbEntity
  8
0
100
AcDbCircle
 10
1.944159577677398
 20
21.693800305
 30
0.0
 40
0.05
100
AcDbArc
 50
276.629901278
 51
0.0
  0
ARC
  5
AD
330
2
100
AcDbEntity
  8
0
100
AcDbCircle
 10
1.944159577677398
 20
21.568800305
 30
0.0
 40
0.05
100
AcDbArc
 50
276.629901278
 51
0.0
  0
ARC
  5
AE
330
2
100
AcDbEntity
  8
0
100
AcDbCircle
 10
1.944159577677398
 20
21.443800305
 30
0.0
 40
0.05
100
AcDbArc
 50
276.629901278
 51
0.0
  0
ARC
  5
AF
330
2
100
AcDbEntity
  8
0
100
AcDbCircle
 10
1.944159577677398
 20
21.318800305
 30
0.0
 40
0.05
100
AcDbArc
 50
276.629901278
 51
0.0
  0
ARC
  5
B0
330
2
100
AcDbEntity
  8
0
100
AcDbCircle
 10
1.944159577677398
 20
21.193800305
 30
0.0
 40
0.05
100
AcDbArc
 50
276.629901278
 51
0.0
  0
CIRCLE
  5
B1
330
2
100
AcDbEntity
  8
0
100
AcDbCircle
 10
1.681659577677399
 20
24.25208456095371
 30
0.0
 40
0.3125
  0
CIRCLE
  5
B2
330
2
100
AcDbEntity
  8
0
100
AcDbCircle
 10
1.681659577677399
 20
24.25208456095371
 30
0.0
 40
0.28125
  0
TEXT
  5
B3
330
2
100
AcDbEntity
  8
0
100
AcDbText
 10
1.615735894781421
 20
24.13044919866095
 30
0.0
 40
0.0820125
  1
20
 50
315.0
100
AcDbText
  0
LWPOLYLINE
  5
B4
330
2
100
AcDbEntity
  8
0
100
AcDbPolyline
 90
        3
 70
     0
 43
0.00164025
 10
1.526307583596536
 20
24.32577194510283
 10
1.453109102488719
 20
24.25257346399502
 10
1.524744455336405
 20
24.18093811114733
  0
LWPOLYLINE
  5
B5
330
2
100
AcDbEntity
  8
0
100
AcDbPolyline
 90
        2
 70
     0
 43
0.00164025
 10
1.460465288881467
 20
24.25208528323709
 10
1.603049175438523
 20
24.25172790634811
  0
LINE
  5
B6
330
2
100
AcDbEntity
  8
0
100
AcDbLine
 10
1.551473873445632
 20
24.23831628229278
 30
0.0
 11
1.551472752465166
 21
24.25152828129753
 31
0.0
  0
LINE
  5
B7
330
2
100
AcDbEntity
  8
0
100
AcDbLine
 10
1.551473873445632
 20
24.26513953040343
 30
0.0
 11
1.551472752465166
 21
24.25192753139868
 31
0.0
  0
SOLID
  5
B8
330
2
100
AcDbEntity
  8
0
100
AcDbTrace
 10
1.603049175439333
 20
24.25172790634811
 30
0.0
 11
1.551473873445632
 21
24.23831628229278
 31
0.0
 12
1.551472752465166
 22
24.25152828129753
 32
0.0
 13
1.551472752465166
 23
24.25152828129753
 33
0.0
  0
LINE
  5
B9
330
2
100
AcDbEntity
  8
0
100
AcDbLine
 10
1.603049175439333
 20
24.25172790634811
 30
0.0
 11
1.551473873445632
 21
24.23831628229278
 31
0.0
  0
LINE
  5
BA
330
2
100
AcDbEntity
  8
0
100
AcDbLine
 10
1.603049175439333
 20
24.25172790634811
 30
0.0
 11
1.551473873445632
 21
24.26513953040343
 31
0.0
  0
SOLID
  5
BB
330
2
100
AcDbEntity
  8
0
100
AcDbTrace
 10
1.603049175439333
 20
24.25172790634811
 30
0.0
 11
1.551473873445632
 21
24.26513953040343
 31
0.0
 12
1.551472752465166
 22
24.25192753139868
 32
0.0
 13
1.551472752465166
 23
24.25192753139868
 33
0.0
  0
LWPOLYLINE
  5
BC
330
2
100
AcDbEntity
  8
0
100
AcDbPolyline
 90
        2
 70
     0
 43
0.00820125
 10
1.618577937035187
 20
24.42491332494485
 10
1.763407051586636
 20
24.2800842103934
  0
LWPOLYLINE
  5
BD
330
2
100
AcDbEntity
  8
0
100
AcDbPolyline
 90
        2
 70
     0
 43
0.00820125
 10
1.843362696366922
 20
24.37970852634604
 10
1.58611270871514
 20
24.38038331456541
  0
LWPOLYLINE
  5
BE
330
2
100
AcDbEntity
  8
0
100
AcDbPolyline
 90
        2
 70
     0
 43
0.00820125
 10
1.672617404843134
 20
24.4789527927528
 10
1.817446519394583
 20
24.33412367820136
  0
ARC
  5
BF
330
2
100
AcDbEntity
  8
0
100
AcDbCircle
 10
4.376009980315287
 20
24.25210600928258
 30
0.0
 40
0.28125
100
AcDbArc
 50
270.0
 51
90.0
  0
ENDSEC
  0
SECTION
  2
OBJECTS
  0
DICTIONARY
  5
9
330
0
100
AcDbDictionary
281
     1
  3
ACAD_COLOR
350
CA
  3
ACAD_GROUP
350
23
  3
ACAD_LAYOUT
350
D
  3
ACAD_MATERIAL
350
C9
  3
ACAD_MLINESTYLE
350
24
  3
ACAD_PLOTSETTINGS
350
25
  3
ACAD_PLOTSTYLENAME
350
8
  3
ACAD_TABLESTYLE
350
CB
  3
ACDBHEADERROUNDTRIPXREC
350
D7
  3
AcDbVariableDictionary
350
C1
  0
DICTIONARY
  5
CA
102
{ACAD_REACTORS
330
9
102
}
330
9
100
AcDbDictionary
281
     1
  0
DICTIONARY
  5
23
102
{ACAD_REACTORS
330
9
102
}
330
9
100
AcDbDictionary
281
     1
  0
DICTIONARY
  5
D
102
{ACAD_REACTORS
330
9
102
}
330
9
100
AcDbDictionary
281
     1
  3
Layout1
350
13
  3
Model
350
C
  0
DICTIONARY
  5
C9
102
{ACAD_REACTORS
330
9
102
}
330
9
100
AcDbDictionary
281
     1
  0
DICTIONARY
  5
24
102
{ACAD_REACTORS
330
9
102
}
330
9
100
AcDbDictionary
281
     1
  3
Standard
350
27
  0
DICTIONARY
  5
25
102
{ACAD_REACTORS
330
9
102
}
330
9
100
AcDbDictionary
281
     1
  0
ACDBDICTIONARYWDFLT
  5
8
102
{ACAD_REACTORS
330
9
102
}
330
9
100
AcDbDictionary
281
     1
  3
Normal
350
7
100
AcDbDictionaryWithDefault
340
7
  0
DICTIONARY
  5
CB
102
{ACAD_REACTORS
330
9
102
}
330
9
100
AcDbDictionary
281
     1
  3
Standard
350
CC
  0
DICTIONARY
  5
D7
102
{ACAD_REACTORS
330
9
102
}
330
9
100
AcDbDictionary
281
     1
  3
COLORDICT
350
D8
  3
MATERIALDICT
350
D9
  0
DICTIONARY
  5
C1
102
{ACAD_REACTORS
330
9
102
}
330
9
100
AcDbDictionary
281
     1
  3
CTABLESTYLE
350
D5
  3
DIMASSOC
350
C3
  3
HIDETEXT
350
C2
  0
LAYOUT
  5
13
102
{ACAD_REACTORS
330
D
102
}
102
{ACAD_XDICTIONARY
360
DA
102
}
330
D
100
AcDbPlotSettings
  1

  2
Client\ssd-helder#\hp psc 2100 series [UPD:PCL4]
  4

  6

 40
0.0
 41
0.0
 42
0.0
 43
0.0
 44
0.0
 45
0.0
 46
0.0
 47
0.0
 48
0.0
 49
0.0
140
0.0
141
0.0
142
1.0
143
1.0
 70
   688
 72
     0
 73
     0
 74
     5
  7

 75
    16
147
1.0
148
0.0
149
0.0
100
AcDbLayout
  1
Layout1
 70
     0
 71
     1
 10
0.0
 20
0.0
 11
12.0
 21
9.0
 12
0.0
 22
0.0
 32
0.0
 14
1.000000000000000E+20
 24
1.000000000000000E+20
 34
1.000000000000000E+20
 15
-1.000000000000000E+20
 25
-1.000000000000000E+20
 35
-1.000000000000000E+20
146
0.0
 13
0.0
 23
0.0
 33
0.0
 16
1.0
 26
0.0
 36
0.0
 17
0.0
 27
1.0
 37
0.0
 76
     0
330
E
  0
LAYOUT
  5
C
102
{ACAD_REACTORS
330
D
102
}
102
{ACAD_XDICTIONARY
360
DC
102
}
330
D
100
AcDbPlotSettings
  1

  2
HP LaserJet 2100 Series PS
  4
Letter
  6

 40
5.365749835968018
 41
5.408073902130127
 42
5.132904052734375
 43
5.090576171875
 44
215.8999938964844
 45
279.3999938964844
 46
0.0
 47
0.0
 48
0.0
 49
0.0
140
0.0
141
0.0
142
1.0
143
2.975440689981091
 70
 28336
 72
     0
 73
     0
 74
     2
  7

 75
     0
147
0.3360846691944497
148
0.0
149
0.0
100
AcDbLayout
  1
Model
 70
     1
 71
     0
 10
0.0
 20
0.0
 11
12.0
 21
9.0
 12
0.0
 22
0.0
 32
0.0
 14
0.0
 24
0.0
 34
0.0
 15
0.0
 25
0.0
 35
0.0
146
0.0
 13
0.0
 23
0.0
 33
0.0
 16
1.0
 26
0.0
 36
0.0
 17
0.0
 27
1.0
 37
0.0
 76
     0
330
2
  0
MLINESTYLE
  5
27
102
{ACAD_REACTORS
330
24
102
}
330
24
100
AcDbMlineStyle
  2
STANDARD
 70
     0
  3

 62
   256
 51
90.0
 52
90.0
 71
     2
 49
0.5
 62
   256
  6
BYLAYER
 49
-0.5
 62
   256
  6
BYLAYER
  0
ACDBPLACEHOLDER
  5
7
102
{ACAD_REACTORS
330
8
102
}
330
8
  0
ACAD_PROXY_OBJECT
  5
CC
102
{ACAD_REACTORS
330
CB
102
}
330
CB
100
AcDbProxyObject
 90
      499
 91
      512
 95
   983063
 70
     0
 93
     1841
310
4214DD185B99185C9928B81E85EB51B8AE3F2E07A17AD46E2B8FC02B5E8DC0F42B1CFD028000000C1008070000C3001FDFF8000000C1003FBFF000000182007F7FE00000030400FEFFC00000060801FDFF8000000C1003FBFF00000018200000000000000681FA0B0000001820100E000186003FBFF000000182007F7FE000
310
00030400FEFFC00000060801FDFF8000000C1003FBFF000000182007F7FE000000304000AD7A3703D0AC73F4160000003040201C00030C007F7FE00000030400FEFFC00000060801FDFF8000000C1003FBFF000000182007F7FE00000030400FEFFC000000608000
340
16
340
16
340
16
 94
        0
  0
XRECORD
  5
D8
102
{ACAD_REACTORS
330
D7
102
}
330
D7
100
AcDbXrecord
340
CA
  0
XRECORD
  5
D9
102
{ACAD_REACTORS
330
D7
102
}
330
D7
100
AcDbXrecord
340
C9
  0
DICTIONARYVAR
  5
D5
102
{ACAD_REACTORS
330
C1
102
}
330
C1
100
DictionaryVariables
280
     0
  1
STANDARD
  0
DICTIONARYVAR
  5
C3
102
{ACAD_REACTORS
330
C1
102
}
330
C1
100
DictionaryVariables
280
     0
  1
2
  0
DICTIONARYVAR
  5
C2
102
{ACAD_REACTORS
330
C1
102
}
330
C1
100
DictionaryVariables
280
     0
  1
1
  0
DICTIONARY
  5
DA
330
13
100
AcDbDictionary
280
     1
281
     1
  3
ACAD_XREC_ROUNDTRIP
360
DB
  0
DICTIONARY
  5
DC
330
C
100
AcDbDictionary
280
     1
281
     1
  3
ACAD_XREC_ROUNDTRIP
360
DD
  0
XRECORD
  5
DB
102
{ACAD_REACTORS
330
DA
102
}
330
DA
100
AcDbXrecord
102
SHADEPLOT
 70
     0
102
SHADEPLOTRESLEVEL
 70
     2
102
SHADEPLOTCUSTOMDPI
 70
   300
  0
XRECORD
  5
DD
102
{ACAD_REACTORS
330
DC
102
}
330
DC
100
AcDbXrecord
102
SHADEPLOT
 70
     0
102
SHADEPLOTRESLEVEL
 70
     2
102
SHADEPLOTCUSTOMDPI
 70
   300
  0
ENDSEC
  0
EOF
