  0
SECTION
  2
HEADER
  9
$ACADVER
  1
AC1015
  9
$ACADMAINTVER
 70
     6
  9
$DWGCODEPAGE
  3
ANSI_1252
  9
$INSBASE
 10
0.0
 20
0.0
 30
0.0
  9
$EXTMIN
 10
-3.467503489584064
 20
-0.0381154696988126
 30
0.0
  9
$EXTMAX
 10
5.210213512759943
 20
29.30630266050294
 30
0.0
  9
$LIMMIN
 10
0.0
 20
0.0
  9
$LIMMAX
 10
32.0
 20
42.0
  9
$ORTHOMODE
 70
     1
  9
$REGENMODE
 70
     1
  9
$FILLMODE
 70
     1
  9
$QTEXTMODE
 70
     0
  9
$MIRRTEXT
 70
     0
  9
$LTSCALE
 40
0.5
  9
$ATTMODE
 70
     1
  9
$TEXTSIZE
 40
0.36
  9
$TRACEWID
 40
0.05
  9
$TEXTSTYLE
  7
STANDARD
  9
$CLAYER
  8
0
  9
$CELTYPE
  6
ByLayer
  9
$CECOLOR
 62
   256
  9
$CELTSCALE
 40
1.0
  9
$DISPSILH
 70
     0
  9
$DIMSCALE
 40
4.0
  9
$DIMASZ
 40
0.125
  9
$DIMEXO
 40
0.062
  9
$DIMDLI
 40
0.375
  9
$DIMRND
 40
0.0
  9
$DIMDLE
 40
0.0
  9
$DIMEXE
 40
0.08
  9
$DIMTP
 40
0.0
  9
$DIMTM
 40
0.0
  9
$DIMTXT
 40
0.09
  9
$DIMCEN
 40
-0.06
  9
$DIMTSZ
 40
0.0
  9
$DIMTOL
 70
     0
  9
$DIMLIM
 70
     0
  9
$DIMTIH
 70
     1
  9
$DIMTOH
 70
     1
  9
$DIMSE1
 70
     0
  9
$DIMSE2
 70
     0
  9
$DIMTAD
 70
     0
  9
$DIMZIN
 70
     0
  9
$DIMBLK
  1

  9
$DIMASO
 70
     0
  9
$DIMSHO
 70
     0
  9
$DIMPOST
  1

  9
$DIMAPOST
  1

  9
$DIMALT
 70
     0
  9
$DIMALTD
 70
     2
  9
$DIMALTF
 40
25.4
  9
$DIMLFAC
 40
1.0
  9
$DIMTOFL
 70
     0
  9
$DIMTVP
 40
0.0
  9
$DIMTIX
 70
     0
  9
$DIMSOXD
 70
     0
  9
$DIMSAH
 70
     0
  9
$DIMBLK1
  1

  9
$DIMBLK2
  1

  9
$DIMSTYLE
  2
Standard
  9
$DIMCLRD
 70
     0
  9
$DIMCLRE
 70
     0
  9
$DIMCLRT
 70
     0
  9
$DIMTFAC
 40
1.0
  9
$DIMGAP
 40
0.09
  9
$DIMJUST
 70
     0
  9
$DIMSD1
 70
     0
  9
$DIMSD2
 70
     0
  9
$DIMTOLJ
 70
     1
  9
$DIMTZIN
 70
     0
  9
$DIMALTZ
 70
     0
  9
$DIMALTTZ
 70
     0
  9
$DIMUPT
 70
     0
  9
$DIMDEC
 70
     4
  9
$DIMTDEC
 70
     4
  9
$DIMALTU
 70
     2
  9
$DIMALTTD
 70
     2
  9
$DIMTXSTY
  7
STANDARD
  9
$DIMAUNIT
 70
     0
  9
$DIMADEC
 70
     0
  9
$DIMALTRND
 40
0.0
  9
$DIMAZIN
 70
     0
  9
$DIMDSEP
 70
    46
  9
$DIMATFIT
 70
     3
  9
$DIMFRAC
 70
     0
  9
$DIMLDRBLK
  1

  9
$DIMLUNIT
 70
     2
  9
$DIMLWD
 70
    -2
  9
$DIMLWE
 70
    -2
  9
$DIMTMOVE
 70
     2
  9
$LUNITS
 70
     2
  9
$LUPREC
 70
     4
  9
$SKETCHINC
 40
0.1
  9
$FILLETRAD
 40
3.0625
  9
$AUNITS
 70
     0
  9
$AUPREC
 70
     0
  9
$MENU
  1
simpson
  9
$ELEVATION
 40
0.0
  9
$PELEVATION
 40
0.0
  9
$THICKNESS
 40
0.0
  9
$LIMCHECK
 70
     0
  9
$CHAMFERA
 40
0.0
  9
$CHAMFERB
 40
0.0
  9
$CHAMFERC
 40
0.0
  9
$CHAMFERD
 40
0.0
  9
$SKPOLY
 70
     0
  9
$TDCREATE
 40
2450745.903722222
  9
$TDUCREATE
 40
2450746.237055556
  9
$TDUPDATE
 40
2454160.685709178
  9
$TDUUPDATE
 40
2454161.019042512
  9
$TDINDWG
 40
0.0797060301
  9
$TDUSRTIMER
 40
0.0797060301
  9
$USRTIMER
 70
     1
  9
$ANGBASE
 50
0.0
  9
$ANGDIR
 70
     0
  9
$PDMODE
 70
     0
  9
$PDSIZE
 40
0.0
  9
$PLINEWID
 40
0.0
  9
$SPLFRAME
 70
     0
  9
$SPLINETYPE
 70
     6
  9
$SPLINESEGS
 70
     8
  9
$HANDSEED
  5
D4
  9
$SURFTAB1
 70
     6
  9
$SURFTAB2
 70
     6
  9
$SURFTYPE
 70
     6
  9
$SURFU
 70
     6
  9
$SURFV
 70
     6
  9
$UCSBASE
  2

  9
$UCSNAME
  2

  9
$UCSORG
 10
0.0
 20
0.0
 30
0.0
  9
$UCSXDIR
 10
1.0
 20
0.0
 30
0.0
  9
$UCSYDIR
 10
0.0
 20
1.0
 30
0.0
  9
$UCSORTHOREF
  2

  9
$UCSORTHOVIEW
 70
     0
  9
$UCSORGTOP
 10
0.0
 20
0.0
 30
0.0
  9
$UCSORGBOTTOM
 10
0.0
 20
0.0
 30
0.0
  9
$UCSORGLEFT
 10
0.0
 20
0.0
 30
0.0
  9
$UCSORGRIGHT
 10
0.0
 20
0.0
 30
0.0
  9
$UCSORGFRONT
 10
0.0
 20
0.0
 30
0.0
  9
$UCSORGBACK
 10
0.0
 20
0.0
 30
0.0
  9
$PUCSBASE
  2

  9
$PUCSNAME
  2

  9
$PUCSORG
 10
0.0
 20
0.0
 30
0.0
  9
$PUCSXDIR
 10
1.0
 20
0.0
 30
0.0
  9
$PUCSYDIR
 10
0.0
 20
1.0
 30
0.0
  9
$PUCSORTHOREF
  2

  9
$PUCSORTHOVIEW
 70
     0
  9
$PUCSORGTOP
 10
0.0
 20
0.0
 30
0.0
  9
$PUCSORGBOTTOM
 10
0.0
 20
0.0
 30
0.0
  9
$PUCSORGLEFT
 10
0.0
 20
0.0
 30
0.0
  9
$PUCSORGRIGHT
 10
0.0
 20
0.0
 30
0.0
  9
$PUCSORGFRONT
 10
0.0
 20
0.0
 30
0.0
  9
$PUCSORGBACK
 10
0.0
 20
0.0
 30
0.0
  9
$USERI1
 70
     0
  9
$USERI2
 70
     0
  9
$USERI3
 70
     0
  9
$USERI4
 70
     0
  9
$USERI5
 70
     0
  9
$USERR1
 40
0.0
  9
$USERR2
 40
0.0
  9
$USERR3
 40
0.0
  9
$USERR4
 40
0.0
  9
$USERR5
 40
0.0
  9
$WORLDVIEW
 70
     1
  9
$SHADEDGE
 70
     3
  9
$SHADEDIF
 70
    70
  9
$TILEMODE
 70
     1
  9
$MAXACTVP
 70
    16
  9
$PINSBASE
 10
0.0
 20
0.0
 30
0.0
  9
$PLIMCHECK
 70
     0
  9
$PEXTMIN
 10
1.000000000000000E+20
 20
1.000000000000000E+20
 30
1.000000000000000E+20
  9
$PEXTMAX
 10
-1.000000000000000E+20
 20
-1.000000000000000E+20
 30
-1.000000000000000E+20
  9
$PLIMMIN
 10
0.0
 20
0.0
  9
$PLIMMAX
 10
12.0
 20
9.0
  9
$UNITMODE
 70
     0
  9
$VISRETAIN
 70
     0
  9
$PLINEGEN
 70
     0
  9
$PSLTSCALE
 70
     0
  9
$TREEDEPTH
 70
  3020
  9
$CMLSTYLE
  2
Standard
  9
$CMLJUST
 70
     0
  9
$CMLSCALE
 40
1.0
  9
$PROXYGRAPHICS
 70
     1
  9
$MEASUREMENT
 70
     0
  9
$CELWEIGHT
370
    -1
  9
$ENDCAPS
280
     0
  9
$JOINSTYLE
280
     0
  9
$LWDISPLAY
290
     0
  9
$INSUNITS
 70
     0
  9
$HYPERLINKBASE
  1

  9
$STYLESHEET
  1

  9
$XEDIT
290
     1
  9
$CEPSNTYPE
380
     0
  9
$PSTYLEMODE
290
     1
  9
$FINGERPRINTGUID
  2
{71C0B609-20EC-47A7-8726-788FBF1B7C83}
  9
$VERSIONGUID
  2
{28C6BC31-584C-4F61-AE87-361A4385B69B}
  9
$EXTNAMES
290
     1
  9
$PSVPSCALE
 40
0.0
  9
$OLESTARTUP
290
     0
  0
ENDSEC
  0
SECTION
  2
CLASSES
  0
CLASS
  1
ACDBDICTIONARYWDFLT
  2
AcDbDictionaryWithDefault
  3
AutoCAD 2000
 90
        0
280
     0
281
     0
  0
CLASS
  1
ACDBPLACEHOLDER
  2
AcDbPlaceHolder
  3
ObjectDBX Classes
 90
        0
280
     0
281
     0
  0
CLASS
  1
LAYOUT
  2
AcDbLayout
  3
ObjectDBX Classes
 90
        0
280
     0
281
     0
  0
CLASS
  1
DICTIONARYVAR
  2
AcDbDictionaryVar
  3
AutoCAD 2000
 90
        0
280
     0
281
     0
  0
CLASS
  1
LONG_TRANSACTION
  2
AcDbLongTransaction
  3
ObjectDBX Classes
 90
   -65536
280
     1
281
     0
  0
CLASS
  1
LWPOLYLINE
  2
AcDbPolyline
  3
AutoCAD 2000
 90
        0
280
     0
281
     1
  0
CLASS
  1
HATCH
  2
AcDbHatch
  3
AutoCAD 2000
 90
        0
280
     0
281
     1
  0
CLASS
  1
XRECORD
  2
AcDbXrecord
  3
AutoCAD 2000
 90
        0
280
     0
281
     0
  0
CLASS
  1
TABLESTYLE
  2
AcDbTableStyle
  3
ObjectDBX Classes
 90
     2047
280
     1
281
     0
  0
ENDSEC
  0
SECTION
  2
TABLES
  0
TABLE
  2
VPORT
  5
1D
330
0
100
AcDbSymbolTable
 70
     2
  0
VPORT
  5
C5
330
1D
100
AcDbSymbolTableRecord
100
AcDbViewportTableRecord
  2
*Active
 70
     0
 10
0.0
 20
0.0
 11
1.0
 21
1.0
 12
23.7372877514736
 22
26.35075168054386
 13
0.0
 23
0.0
 14
0.063
 24
0.063
 15
0.25
 25
0.25
 16
0.0
 26
0.0
 36
1.0
 17
0.0
 27
0.0
 37
0.0
 40
72.52105624735192
 41
1.814583333333333
 42
50.0
 43
0.0
 44
0.0
 50
0.0
 51
0.0
 71
     0
 72
   100
 73
     1
 74
     0
 75
     0
 76
     0
 77
     0
 78
     0
281
     0
 65
     1
110
0.0
120
0.0
130
0.0
111
1.0
121
0.0
131
0.0
112
0.0
122
1.0
132
0.0
 79
     0
146
0.0
  0
ENDTAB
  0
TABLE
  2
LTYPE
  5
18
330
0
100
AcDbSymbolTable
 70
     1
  0
LTYPE
  5
19
330
18
100
AcDbSymbolTableRecord
100
AcDbLinetypeTableRecord
  2
ByBlock
 70
     0
  3

 72
    65
 73
     0
 40
0.0
  0
LTYPE
  5
1A
330
18
100
AcDbSymbolTableRecord
100
AcDbLinetypeTableRecord
  2
ByLayer
 70
     0
  3

 72
    65
 73
     0
 40
0.0
  0
LTYPE
  5
A
330
18
100
AcDbSymbolTableRecord
100
AcDbLinetypeTableRecord
  2
CONTINUOUS
 70
     0
  3
Solid line
 72
    65
 73
     0
 40
0.0
  0
ENDTAB
  0
TABLE
  2
LAYER
  5
14
330
0
100
AcDbSymbolTable
 70
     2
  0
LAYER
  5
6
330
14
100
AcDbSymbolTableRecord
100
AcDbLayerTableRecord
  2
0
 70
     0
 62
     7
  6
CONTINUOUS
370
    -3
390
7
  0
ENDTAB
  0
TABLE
  2
STYLE
  5
15
330
0
100
AcDbSymbolTable
 70
     1
  0
STYLE
  5
16
330
15
100
AcDbSymbolTableRecord
100
AcDbTextStyleTableRecord
  2
STANDARD
 70
     0
 40
0.0
 41
1.0
 50
0.0
 71
     0
 42
0.36
  3
TXT
  4

  0
ENDTAB
  0
TABLE
  2
VIEW
  5
1B
330
0
100
AcDbSymbolTable
 70
     0
  0
ENDTAB
  0
TABLE
  2
UCS
  5
1C
330
0
100
AcDbSymbolTable
 70
     0
  0
ENDTAB
  0
TABLE
  2
APPID
  5
1F
330
0
100
AcDbSymbolTable
 70
     1
  0
APPID
  5
20
330
1F
100
AcDbSymbolTableRecord
100
AcDbRegAppTableRecord
  2
ACAD
 70
     0
  0
ENDTAB
  0
TABLE
  2
DIMSTYLE
  5
21
330
0
100
AcDbSymbolTable
 70
     1
100
AcDbDimStyleTable
  0
DIMSTYLE
105
28
330
21
100
AcDbSymbolTableRecord
100
AcDbDimStyleTableRecord
  2
Standard
 70
     0
  3

  4

340
16
  0
ENDTAB
  0
TABLE
  2
BLOCK_RECORD
  5
1
330
0
100
AcDbSymbolTable
 70
     0
  0
BLOCK_RECORD
  5
2
330
1
100
AcDbSymbolTableRecord
100
AcDbBlockTableRecord
  2
*Model_Space
340
C
  0
BLOCK_RECORD
  5
E
330
1
100
AcDbSymbolTableRecord
100
AcDbBlockTableRecord
  2
*Paper_Space
340
13
  0
ENDTAB
  0
ENDSEC
  0
SECTION
  2
BLOCKS
  0
BLOCK
  5
5
330
2
100
AcDbEntity
  8
0
100
AcDbBlockBegin
  2
*Model_Space
 70
     0
 10
0.0
 20
0.0
 30
0.0
  3
*Model_Space
  1

  4

  0
ENDBLK
  5
B
330
2
100
AcDbEntity
  8
0
100
AcDbBlockEnd
  0
BLOCK
  5
11
330
E
100
AcDbEntity
 67
     1
  8
0
100
AcDbBlockBegin
  2
*Paper_Space
 70
     0
 10
0.0
 20
0.0
 30
0.0
  3
*Paper_Space
  1

  4

  0
ENDBLK
  5
12
330
E
100
AcDbEntity
 67
     1
  8
0
100
AcDbBlockEnd
  0
ENDSEC
  0
SECTION
  2
ENTITIES
  0
LINE
  5
29
330
2
100
AcDbEntity
  8
0
100
AcDbLine
 10
0.9382202406213853
 20
24.25934495011029
 30
0.0
 11
2.510859623670816
 21
8.688662135487057
 31
0.0
  0
LINE
  5
2A
330
2
100
AcDbEntity
  8
0
100
AcDbLine
 10
0.0583682443699285
 20
24.25934495011029
 30
0.0
 11
1.619506588208219
 21
8.702878752811088
 31
0.0
  0
LINE
  5
2B
330
2
100
AcDbEntity
  8
0
100
AcDbLine
 10
3.159907120798735
 20
0.8440745426303238
 30
0.0
 11
3.408537594640805
 21
0.8702066584472448
 31
0.0
  0
ARC
  5
2C
330
2
100
AcDbEntity
  8
0
100
AcDbCircle
 10
3.022713512759943
 20
2.149384530301187
 30
0.0
 40
2.1875
100
AcDbArc
 50
95.99999755090865
 51
276.0000000000001
  0
ARC
  5
2D
330
2
100
AcDbEntity
  8
0
100
AcDbCircle
 10
3.022713512759943
 20
2.149384530301187
 30
0.0
 40
1.3125
100
AcDbArc
 50
95.99999591818101
 51
276.0000000000001
  0
ARC
  5
2E
330
2
100
AcDbEntity
  8
0
100
AcDbCircle
 10
2.656863891323155
 20
5.630211164090138
 30
0.0
 40
1.3125
100
AcDbArc
 50
276.0000000000001
 51
65.97760810566514
  0
ARC
  5
2F
330
2
100
AcDbEntity
  8
0
100
AcDbCircle
 10
2.656863891323155
 20
5.630211164090138
 30
0.0
 40
2.1875
100
AcDbArc
 50
275.9999971720332
 51
65.99999999999986
  0
ARC
  5
30
330
2
100
AcDbEntity
  8
0
100
AcDbCircle
 10
3.795023234326315
 20
8.931534766209079
 30
0.0
 40
2.1875
100
AcDbArc
 50
186.0
 51
253.9756871629575
  0
ARC
  5
31
330
2
100
AcDbEntity
  8
0
100
AcDbCircle
 10
3.689814006163054
 20
8.830869076254185
 30
0.0
 40
1.1875
100
AcDbArc
 50
186.8778600358282
 51
255.2207248616732
  0
LINE
  5
32
330
2
100
AcDbEntity
  8
0
100
AcDbLine
 10
3.408537594640805
 20
0.8702066584472448
 30
0.0
 11
3.5
 21
0.0
 31
0.0
  0
LINE
  5
33
330
2
100
AcDbEntity
  8
0
100
AcDbLine
 10
3.25136952615793
 20
-0.0261321158169068
 30
0.0
 11
3.5
 21
0.0
 31
0.0
  0
LINE
  5
34
330
2
100
AcDbEntity
  8
0
100
AcDbLine
 10
3.38688747682491
 20
7.682656653475565
 30
0.0
 11
3.546600298051473
 21
7.628591852683325
 31
0.0
  0
LINE
  5
35
330
2
100
AcDbEntity
  8
0
100
AcDbLine
 10
0.9360793697657979
 20
24.32184495011029
 30
0.0
 11
0.9360793697658014
 21
27.78019750795293
 31
0.0
  0
LINE
  5
36
330
2
100
AcDbEntity
  8
0
100
AcDbLine
 10
0.0554183536542272
 20
24.32184495011029
 30
0.0
 11
0.0554183536542272
 21
27.53953111661346
 31
0.0
  0
LINE
  5
37
330
2
100
AcDbEntity
  8
0
100
AcDbLine
 10
0.0866683536542272
 20
24.32184495011029
 30
0.0
 11
0.9360793697657979
 21
24.32184495011029
 31
0.0
  0
LINE
  5
38
330
2
100
AcDbEntity
  8
0
100
AcDbLine
 10
0.0583682443699285
 20
24.25934495011029
 30
0.0
 11
0.9382202406213853
 21
24.25934495011029
 31
0.0
  0
LINE
  5
39
330
2
100
AcDbEntity
  8
0
100
AcDbLine
 10
0.0554183536542272
 20
24.32184495011029
 30
0.0
 11
0.0866683536542272
 21
24.32184495011029
 31
0.0
  0
LINE
  5
3A
330
2
100
AcDbEntity
  8
0
100
AcDbLine
 10
0.0589264871657527
 20
24.25934495011029
 30
0.0
 11
0.0866683536542272
 21
24.25934495011029
 31
0.0
  0
ARC
  5
3B
330
2
100
AcDbEntity
  8
0
100
AcDbCircle
 10
0.0554183536542272
 20
24.29059495011029
 30
0.0
 40
0.03125
100
AcDbArc
 50
0.0
 51
90.0
  0
ARC
  5
3C
330
2
100
AcDbEntity
  8
0
100
AcDbCircle
 10
0.0554189775447345
 20
24.29039748424615
 30
0.0
 40
0.03125
100
AcDbArc
 50
276.4444756747145
 51
0.3620491490063159
  0
ARC
  5
3D
330
2
100
AcDbEntity
  8
0
100
AcDbCircle
 10
0.9360793697657979
 20
24.29059495011029
 30
0.0
 40
0.03125
100
AcDbArc
 50
89.99999999999999
 51
180.0
  0
ARC
  5
3E
330
2
100
AcDbEntity
  8
0
100
AcDbCircle
 10
0.935468428573266
 20
24.28986882139123
 30
0.0
 40
0.0306476620237844
100
AcDbArc
 50
178.6423759066279
 51
275.1514481182608
  0
ARC
  5
3F
330
2
100
AcDbEntity
  8
0
100
AcDbCircle
 10
0.1804183536542272
 20
28.7879903626974
 30
0.0
 40
0.125
100
AcDbArc
 50
98.59724919965019
 51
180.0
  0
ARC
  5
40
330
2
100
AcDbEntity
  8
0
100
AcDbCircle
 10
0.8110793697658014
 20
29.01117893660841
 30
0.0
 40
0.125
100
AcDbArc
 50
278.5972491996499
 51
0.0
  0
LINE
  5
41
330
2
100
AcDbEntity
  8
0
100
AcDbLine
 10
0.0554183536542272
 20
27.53953111661346
 30
0.0
 11
0.0554183536542272
 21
29.28871744276499
 31
0.0
  0
LINE
  5
42
330
2
100
AcDbEntity
  8
0
100
AcDbLine
 10
0.9360793697658014
 20
27.78019750795293
 30
0.0
 11
0.9360793697658014
 21
29.28871744276499
 31
0.0
  0
LINE
  5
43
330
2
100
AcDbEntity
  8
0
100
AcDbLine
 10
0.161732369584195
 20
27.16312656151065
 30
0.0
 11
0.8297653538358301
 21
27.26412424562728
 31
0.0
  0
ARC
  5
44
330
2
100
AcDbEntity
  8
0
100
AcDbCircle
 10
0.8110793697658014
 20
27.38771969052447
 30
0.0
 40
0.125
100
AcDbArc
 50
278.5972491996499
 51
0.0
  0
ARC
  5
45
330
2
100
AcDbEntity
  8
0
100
AcDbCircle
 10
0.1804183536542272
 20
27.16453111661346
 30
0.0
 40
0.125
100
AcDbArc
 50
98.59724919965019
 51
180.0
  0
LINE
  5
46
330
2
100
AcDbEntity
  8
0
100
AcDbLine
 10
0.0554183536542272
 20
27.16453111661346
 30
0.0
 11
0.0554183536542272
 21
27.27205329918499
 31
0.0
  0
LINE
  5
47
330
2
100
AcDbEntity
  8
0
100
AcDbLine
 10
0.161732369584195
 20
25.78812656151065
 30
0.0
 11
0.8297653538358301
 21
25.88912424562728
 31
0.0
  0
LINE
  5
48
330
2
100
AcDbEntity
  8
0
100
AcDbLine
 10
0.161732369584195
 20
25.91312656151065
 30
0.0
 11
0.8297653538358301
 21
26.01412424562728
 31
0.0
  0
LINE
  5
49
330
2
100
AcDbEntity
  8
0
100
AcDbLine
 10
0.161732369584195
 20
26.03812656151065
 30
0.0
 11
0.8297653538358301
 21
26.13912424562728
 31
0.0
  0
LINE
  5
4A
330
2
100
AcDbEntity
  8
0
100
AcDbLine
 10
0.161732369584195
 20
26.16312656151065
 30
0.0
 11
0.8297653538358301
 21
26.26412424562728
 31
0.0
  0
LINE
  5
4B
330
2
100
AcDbEntity
  8
0
100
AcDbLine
 10
0.161732369584195
 20
26.28812656151065
 30
0.0
 11
0.8297653538358301
 21
26.38912424562728
 31
0.0
  0
LINE
  5
4C
330
2
100
AcDbEntity
  8
0
100
AcDbLine
 10
0.161732369584195
 20
26.41312656151065
 30
0.0
 11
0.8297653538358301
 21
26.51412424562728
 31
0.0
  0
LINE
  5
4D
330
2
100
AcDbEntity
  8
0
100
AcDbLine
 10
0.161732369584195
 20
26.53812656151065
 30
0.0
 11
0.8297653538358301
 21
26.63912424562728
 31
0.0
  0
LINE
  5
4E
330
2
100
AcDbEntity
  8
0
100
AcDbLine
 10
0.161732369584195
 20
26.66312656151065
 30
0.0
 11
0.8297653538358301
 21
26.76412424562728
 31
0.0
  0
LINE
  5
4F
330
2
100
AcDbEntity
  8
0
100
AcDbLine
 10
0.161732369584195
 20
26.78812656151065
 30
0.0
 11
0.8297653538358301
 21
26.88912424562728
 31
0.0
  0
LINE
  5
50
330
2
100
AcDbEntity
  8
0
100
AcDbLine
 10
0.161732369584195
 20
26.91312656151065
 30
0.0
 11
0.8297653538358301
 21
27.01412424562728
 31
0.0
  0
LINE
  5
51
330
2
100
AcDbEntity
  8
0
100
AcDbLine
 10
0.161732369584195
 20
27.03812656151065
 30
0.0
 11
0.8297653538358301
 21
27.13912424562728
 31
0.0
  0
LINE
  5
52
330
2
100
AcDbEntity
  8
0
100
AcDbLine
 10
0.9360793697657979
 20
25.78874008692543
 30
0.0
 11
0.0554183536542272
 21
25.78874008692543
 31
0.0
  0
ARC
  5
53
330
2
100
AcDbEntity
  8
0
100
AcDbCircle
 10
0.1804183536542272
 20
26.41453111661346
 30
0.0
 40
0.125
100
AcDbArc
 50
98.59724919965019
 51
180.0
  0
LINE
  5
54
330
2
100
AcDbEntity
  8
0
100
AcDbLine
 10
0.0554183536542272
 20
26.41453111661346
 30
0.0
 11
0.0554183536542272
 21
26.52205329918499
 31
0.0
  0
LINE
  5
55
330
2
100
AcDbEntity
  8
0
100
AcDbLine
 10
0.0554183536542272
 20
25.66453111661346
 30
0.0
 11
0.0554183536542272
 21
25.772053299185
 31
0.0
  0
ARC
  5
56
330
2
100
AcDbEntity
  8
0
100
AcDbCircle
 10
0.1804183536542272
 20
25.78953111661346
 30
0.0
 40
0.125
100
AcDbArc
 50
98.59724919965019
 51
180.0
  0
LINE
  5
57
330
2
100
AcDbEntity
  8
0
100
AcDbLine
 10
0.0554183536542272
 20
25.78953111661346
 30
0.0
 11
0.0554183536542272
 21
25.897053299185
 31
0.0
  0
ARC
  5
58
330
2
100
AcDbEntity
  8
0
100
AcDbCircle
 10
0.1804183536542272
 20
25.91453111661346
 30
0.0
 40
0.125
100
AcDbArc
 50
98.59724919965019
 51
180.0
  0
LINE
  5
59
330
2
100
AcDbEntity
  8
0
100
AcDbLine
 10
0.0554183536542272
 20
25.91453111661346
 30
0.0
 11
0.0554183536542272
 21
26.022053299185
 31
0.0
  0
ARC
  5
5A
330
2
100
AcDbEntity
  8
0
100
AcDbCircle
 10
0.1804183536542272
 20
26.03953111661346
 30
0.0
 40
0.125
100
AcDbArc
 50
98.59724919965019
 51
180.0
  0
LINE
  5
5B
330
2
100
AcDbEntity
  8
0
100
AcDbLine
 10
0.0554183536542272
 20
26.03953111661346
 30
0.0
 11
0.0554183536542272
 21
26.14705329918499
 31
0.0
  0
ARC
  5
5C
330
2
100
AcDbEntity
  8
0
100
AcDbCircle
 10
0.1804183536542272
 20
26.16453111661346
 30
0.0
 40
0.125
100
AcDbArc
 50
98.59724919965019
 51
180.0
  0
LINE
  5
5D
330
2
100
AcDbEntity
  8
0
100
AcDbLine
 10
0.0554183536542272
 20
26.16453111661346
 30
0.0
 11
0.0554183536542272
 21
26.27205329918499
 31
0.0
  0
ARC
  5
5E
330
2
100
AcDbEntity
  8
0
100
AcDbCircle
 10
0.1804183536542272
 20
26.28953111661346
 30
0.0
 40
0.125
100
AcDbArc
 50
98.59724919965019
 51
180.0
  0
LINE
  5
5F
330
2
100
AcDbEntity
  8
0
100
AcDbLine
 10
0.0554183536542272
 20
26.28953111661346
 30
0.0
 11
0.0554183536542272
 21
26.39705329918499
 31
0.0
  0
ARC
  5
60
330
2
100
AcDbEntity
  8
0
100
AcDbCircle
 10
0.1804183536542272
 20
26.53953111661346
 30
0.0
 40
0.125
100
AcDbArc
 50
98.59724919965019
 51
180.0
  0
LINE
  5
61
330
2
100
AcDbEntity
  8
0
100
AcDbLine
 10
0.0554183536542272
 20
26.53953111661346
 30
0.0
 11
0.0554183536542272
 21
26.64705329918499
 31
0.0
  0
ARC
  5
62
330
2
100
AcDbEntity
  8
0
100
AcDbCircle
 10
0.1804183536542272
 20
26.66453111661346
 30
0.0
 40
0.125
100
AcDbArc
 50
98.59724919965019
 51
180.0
  0
LINE
  5
63
330
2
100
AcDbEntity
  8
0
100
AcDbLine
 10
0.0554183536542272
 20
26.66453111661346
 30
0.0
 11
0.0554183536542272
 21
26.77205329918499
 31
0.0
  0
ARC
  5
64
330
2
100
AcDbEntity
  8
0
100
AcDbCircle
 10
0.1804183536542272
 20
26.78953111661346
 30
0.0
 40
0.125
100
AcDbArc
 50
98.59724919965019
 51
180.0
  0
LINE
  5
65
330
2
100
AcDbEntity
  8
0
100
AcDbLine
 10
0.0554183536542272
 20
26.78953111661346
 30
0.0
 11
0.0554183536542272
 21
26.89705329918499
 31
0.0
  0
ARC
  5
66
330
2
100
AcDbEntity
  8
0
100
AcDbCircle
 10
0.1804183536542272
 20
26.91453111661346
 30
0.0
 40
0.125
100
AcDbArc
 50
98.59724919965019
 51
180.0
  0
LINE
  5
67
330
2
100
AcDbEntity
  8
0
100
AcDbLine
 10
0.0554183536542272
 20
26.91453111661346
 30
0.0
 11
0.0554183536542272
 21
27.02205329918499
 31
0.0
  0
ARC
  5
68
330
2
100
AcDbEntity
  8
0
100
AcDbCircle
 10
0.1804183536542272
 20
27.03953111661346
 30
0.0
 40
0.125
100
AcDbArc
 50
98.59724919965019
 51
180.0
  0
LINE
  5
69
330
2
100
AcDbEntity
  8
0
100
AcDbLine
 10
0.0554183536542272
 20
27.03953111661346
 30
0.0
 11
0.0554183536542272
 21
27.14705329918499
 31
0.0
  0
ARC
  5
6A
330
2
100
AcDbEntity
  8
0
100
AcDbCircle
 10
0.8110793697658014
 20
26.51271969052447
 30
0.0
 40
0.125
100
AcDbArc
 50
278.5972491996499
 51
0.0
  0
LINE
  5
6B
330
2
100
AcDbEntity
  8
0
100
AcDbLine
 10
0.9360793697658014
 20
26.40519750795293
 30
0.0
 11
0.9360793697658014
 21
26.51271969052447
 31
0.0
  0
LINE
  5
6C
330
2
100
AcDbEntity
  8
0
100
AcDbLine
 10
0.9360793697658014
 20
25.65519750795293
 30
0.0
 11
0.9360793697658014
 21
25.76271969052447
 31
0.0
  0
LINE
  5
6D
330
2
100
AcDbEntity
  8
0
100
AcDbLine
 10
0.9360793697658014
 20
25.78019750795293
 30
0.0
 11
0.9360793697658014
 21
25.88771969052447
 31
0.0
  0
ARC
  5
6E
330
2
100
AcDbEntity
  8
0
100
AcDbCircle
 10
0.8110793697658014
 20
26.01271969052447
 30
0.0
 40
0.125
100
AcDbArc
 50
278.5972491996499
 51
0.0
  0
LINE
  5
6F
330
2
100
AcDbEntity
  8
0
100
AcDbLine
 10
0.9360793697658014
 20
25.90519750795293
 30
0.0
 11
0.9360793697658014
 21
26.01271969052447
 31
0.0
  0
ARC
  5
70
330
2
100
AcDbEntity
  8
0
100
AcDbCircle
 10
0.8110793697658014
 20
26.13771969052447
 30
0.0
 40
0.125
100
AcDbArc
 50
278.5972491996499
 51
0.0
  0
LINE
  5
71
330
2
100
AcDbEntity
  8
0
100
AcDbLine
 10
0.9360793697658014
 20
26.03019750795293
 30
0.0
 11
0.9360793697658014
 21
26.13771969052447
 31
0.0
  0
ARC
  5
72
330
2
100
AcDbEntity
  8
0
100
AcDbCircle
 10
0.8110793697658014
 20
26.26271969052447
 30
0.0
 40
0.125
100
AcDbArc
 50
278.5972491996499
 51
0.0
  0
LINE
  5
73
330
2
100
AcDbEntity
  8
0
100
AcDbLine
 10
0.9360793697658014
 20
26.15519750795293
 30
0.0
 11
0.9360793697658014
 21
26.26271969052447
 31
0.0
  0
ARC
  5
74
330
2
100
AcDbEntity
  8
0
100
AcDbCircle
 10
0.8110793697658014
 20
26.38771969052447
 30
0.0
 40
0.125
100
AcDbArc
 50
278.5972491996499
 51
0.0
  0
LINE
  5
75
330
2
100
AcDbEntity
  8
0
100
AcDbLine
 10
0.9360793697658014
 20
26.28019750795293
 30
0.0
 11
0.9360793697658014
 21
26.38771969052447
 31
0.0
  0
ARC
  5
76
330
2
100
AcDbEntity
  8
0
100
AcDbCircle
 10
0.8110793697658014
 20
26.63771969052447
 30
0.0
 40
0.125
100
AcDbArc
 50
278.5972491996499
 51
0.0
  0
LINE
  5
77
330
2
100
AcDbEntity
  8
0
100
AcDbLine
 10
0.9360793697658014
 20
26.53019750795293
 30
0.0
 11
0.9360793697658014
 21
26.63771969052447
 31
0.0
  0
ARC
  5
78
330
2
100
AcDbEntity
  8
0
100
AcDbCircle
 10
0.8110793697658014
 20
26.76271969052447
 30
0.0
 40
0.125
100
AcDbArc
 50
278.5972491996499
 51
0.0
  0
LINE
  5
79
330
2
100
AcDbEntity
  8
0
100
AcDbLine
 10
0.9360793697658014
 20
26.65519750795293
 30
0.0
 11
0.9360793697658014
 21
26.76271969052447
 31
0.0
  0
ARC
  5
7A
330
2
100
AcDbEntity
  8
0
100
AcDbCircle
 10
0.8110793697658014
 20
26.88771969052447
 30
0.0
 40
0.125
100
AcDbArc
 50
278.5972491996499
 51
0.0
  0
LINE
  5
7B
330
2
100
AcDbEntity
  8
0
100
AcDbLine
 10
0.9360793697658014
 20
26.78019750795293
 30
0.0
 11
0.9360793697658014
 21
26.88771969052447
 31
0.0
  0
ARC
  5
7C
330
2
100
AcDbEntity
  8
0
100
AcDbCircle
 10
0.8110793697658014
 20
27.01271969052447
 30
0.0
 40
0.125
100
AcDbArc
 50
278.5972491996499
 51
0.0
  0
LINE
  5
7D
330
2
100
AcDbEntity
  8
0
100
AcDbLine
 10
0.9360793697658014
 20
26.90519750795293
 30
0.0
 11
0.9360793697658014
 21
27.01271969052447
 31
0.0
  0
ARC
  5
7E
330
2
100
AcDbEntity
  8
0
100
AcDbCircle
 10
0.8110793697658014
 20
27.13771969052447
 30
0.0
 40
0.125
100
AcDbArc
 50
278.5972491996499
 51
0.0
  0
LINE
  5
7F
330
2
100
AcDbEntity
  8
0
100
AcDbLine
 10
0.9360793697658014
 20
27.03019750795293
 30
0.0
 11
0.9360793697658014
 21
27.13771969052447
 31
0.0
  0
ARC
  5
80
330
2
100
AcDbEntity
  8
0
100
AcDbCircle
 10
0.8110793697658014
 20
27.26271969052447
 30
0.0
 40
0.125
100
AcDbArc
 50
278.5972491996499
 51
0.0
  0
LINE
  5
81
330
2
100
AcDbEntity
  8
0
100
AcDbLine
 10
0.9360793697658014
 20
27.15519750795293
 30
0.0
 11
0.9360793697658014
 21
27.26271969052447
 31
0.0
  0
LINE
  5
82
330
2
100
AcDbEntity
  8
0
100
AcDbLine
 10
0.161732369584195
 20
28.78658580759459
 30
0.0
 11
0.8297653538358301
 21
28.88758349171122
 31
0.0
  0
LINE
  5
83
330
2
100
AcDbEntity
  8
0
100
AcDbLine
 10
0.161732369584195
 20
28.66158580759459
 30
0.0
 11
0.8297653538358301
 21
28.76258349171122
 31
0.0
  0
LINE
  5
84
330
2
100
AcDbEntity
  8
0
100
AcDbLine
 10
0.161732369584195
 20
28.53658580759459
 30
0.0
 11
0.8297653538358301
 21
28.63758349171122
 31
0.0
  0
LINE
  5
85
330
2
100
AcDbEntity
  8
0
100
AcDbLine
 10
0.161732369584195
 20
28.41158580759459
 30
0.0
 11
0.8297653538358301
 21
28.51258349171122
 31
0.0
  0
LINE
  5
86
330
2
100
AcDbEntity
  8
0
100
AcDbLine
 10
0.161732369584195
 20
28.28658580759459
 30
0.0
 11
0.8297653538358301
 21
28.38758349171122
 31
0.0
  0
LINE
  5
87
330
2
100
AcDbEntity
  8
0
100
AcDbLine
 10
0.161732369584195
 20
28.16158580759459
 30
0.0
 11
0.8297653538358301
 21
28.26258349171122
 31
0.0
  0
LINE
  5
88
330
2
100
AcDbEntity
  8
0
100
AcDbLine
 10
0.161732369584195
 20
28.03658580759459
 30
0.0
 11
0.8297653538358301
 21
28.13758349171122
 31
0.0
  0
LINE
  5
89
330
2
100
AcDbEntity
  8
0
100
AcDbLine
 10
0.161732369584195
 20
27.78812656151065
 30
0.0
 11
0.8297653538358301
 21
27.88912424562728
 31
0.0
  0
LINE
  5
8A
330
2
100
AcDbEntity
  8
0
100
AcDbLine
 10
0.161732369584195
 20
27.28812656151065
 30
0.0
 11
0.8297653538358301
 21
27.38912424562728
 31
0.0
  0
LINE
  5
8B
330
2
100
AcDbEntity
  8
0
100
AcDbLine
 10
0.161732369584195
 20
27.41312656151065
 30
0.0
 11
0.8297653538358301
 21
27.51412424562728
 31
0.0
  0
LINE
  5
8C
330
2
100
AcDbEntity
  8
0
100
AcDbLine
 10
0.161732369584195
 20
27.53812656151065
 30
0.0
 11
0.8297653538358301
 21
27.63912424562728
 31
0.0
  0
LINE
  5
8D
330
2
100
AcDbEntity
  8
0
100
AcDbLine
 10
0.161732369584195
 20
27.66312656151065
 30
0.0
 11
0.8297653538358301
 21
27.76412424562728
 31
0.0
  0
LINE
  5
8E
330
2
100
AcDbEntity
  8
0
100
AcDbLine
 10
0.161732369584195
 20
27.91158580759459
 30
0.0
 11
0.8297653538358301
 21
28.01258349171122
 31
0.0
  0
ARC
  5
8F
330
2
100
AcDbEntity
  8
0
100
AcDbCircle
 10
0.1804183536542272
 20
28.0379903626974
 30
0.0
 40
0.125
100
AcDbArc
 50
98.59724919965019
 51
180.0
  0
ARC
  5
90
330
2
100
AcDbEntity
  8
0
100
AcDbCircle
 10
0.1804183536542272
 20
27.9129903626974
 30
0.0
 40
0.125
100
AcDbArc
 50
98.59724919965019
 51
180.0
  0
ARC
  5
91
330
2
100
AcDbEntity
  8
0
100
AcDbCircle
 10
0.1804183536542272
 20
27.66453111661346
 30
0.0
 40
0.125
100
AcDbArc
 50
98.59724919965019
 51
180.0
  0
ARC
  5
92
330
2
100
AcDbEntity
  8
0
100
AcDbCircle
 10
0.1804183536542272
 20
27.28953111661346
 30
0.0
 40
0.125
100
AcDbArc
 50
98.59724919965019
 51
180.0
  0
LINE
  5
93
330
2
100
AcDbEntity
  8
0
100
AcDbLine
 10
0.0554183536542272
 20
27.28953111661346
 30
0.0
 11
0.0554183536542272
 21
27.39705329918499
 31
0.0
  0
ARC
  5
94
330
2
100
AcDbEntity
  8
0
100
AcDbCircle
 10
0.1804183536542272
 20
27.41453111661346
 30
0.0
 40
0.125
100
AcDbArc
 50
98.59724919965019
 51
180.0
  0
LINE
  5
95
330
2
100
AcDbEntity
  8
0
100
AcDbLine
 10
0.0554183536542272
 20
27.41453111661346
 30
0.0
 11
0.0554183536542272
 21
27.52205329918499
 31
0.0
  0
ARC
  5
96
330
2
100
AcDbEntity
  8
0
100
AcDbCircle
 10
0.1804183536542272
 20
27.53953111661346
 30
0.0
 40
0.125
100
AcDbArc
 50
98.59724919965019
 51
180.0
  0
ARC
  5
97
330
2
100
AcDbEntity
  8
0
100
AcDbCircle
 10
0.1804183536542272
 20
27.7879903626974
 30
0.0
 40
0.125
100
AcDbArc
 50
98.59724919965019
 51
180.0
  0
ARC
  5
98
330
2
100
AcDbEntity
  8
0
100
AcDbCircle
 10
0.1804183536542272
 20
28.6629903626974
 30
0.0
 40
0.125
100
AcDbArc
 50
98.59724919965019
 51
180.0
  0
ARC
  5
99
330
2
100
AcDbEntity
  8
0
100
AcDbCircle
 10
0.1804183536542272
 20
28.5379903626974
 30
0.0
 40
0.125
100
AcDbArc
 50
98.59724919965019
 51
180.0
  0
ARC
  5
9A
330
2
100
AcDbEntity
  8
0
100
AcDbCircle
 10
0.1804183536542272
 20
28.4129903626974
 30
0.0
 40
0.125
100
AcDbArc
 50
98.59724919965019
 51
180.0
  0
ARC
  5
9B
330
2
100
AcDbEntity
  8
0
100
AcDbCircle
 10
0.1804183536542272
 20
28.2879903626974
 30
0.0
 40
0.125
100
AcDbArc
 50
98.59724919965019
 51
180.0
  0
ARC
  5
9C
330
2
100
AcDbEntity
  8
0
100
AcDbCircle
 10
0.1804183536542272
 20
28.1629903626974
 30
0.0
 40
0.125
100
AcDbArc
 50
98.59724919965019
 51
180.0
  0
ARC
  5
9D
330
2
100
AcDbEntity
  8
0
100
AcDbCircle
 10
0.8110793697658014
 20
28.13617893660841
 30
0.0
 40
0.125
100
AcDbArc
 50
278.5972491996499
 51
0.0
  0
ARC
  5
9E
330
2
100
AcDbEntity
  8
0
100
AcDbCircle
 10
0.8110793697658014
 20
28.01271969052447
 30
0.0
 40
0.125
100
AcDbArc
 50
278.5972491996499
 51
0.0
  0
LINE
  5
9F
330
2
100
AcDbEntity
  8
0
100
AcDbLine
 10
0.9360793697658014
 20
27.28019750795293
 30
0.0
 11
0.9360793697658014
 21
27.38771969052447
 31
0.0
  0
ARC
  5
A0
330
2
100
AcDbEntity
  8
0
100
AcDbCircle
 10
0.8110793697658014
 20
27.51271969052447
 30
0.0
 40
0.125
100
AcDbArc
 50
278.5972491996499
 51
0.0
  0
LINE
  5
A1
330
2
100
AcDbEntity
  8
0
100
AcDbLine
 10
0.9360793697658014
 20
27.40519750795293
 30
0.0
 11
0.9360793697658014
 21
27.51271969052447
 31
0.0
  0
ARC
  5
A2
330
2
100
AcDbEntity
  8
0
100
AcDbCircle
 10
0.8110793697658014
 20
27.63771969052447
 30
0.0
 40
0.125
100
AcDbArc
 50
278.5972491996499
 51
0.0
  0
LINE
  5
A3
330
2
100
AcDbEntity
  8
0
100
AcDbLine
 10
0.9360793697658014
 20
27.53019750795293
 30
0.0
 11
0.9360793697658014
 21
27.63771969052447
 31
0.0
  0
ARC
  5
A4
330
2
100
AcDbEntity
  8
0
100
AcDbCircle
 10
0.8110793697658014
 20
27.76271969052447
 30
0.0
 40
0.125
100
AcDbArc
 50
278.5972491996499
 51
0.0
  0
LINE
  5
A5
330
2
100
AcDbEntity
  8
0
100
AcDbLine
 10
0.9360793697658014
 20
27.65519750795293
 30
0.0
 11
0.9360793697658014
 21
27.76271969052447
 31
0.0
  0
ARC
  5
A6
330
2
100
AcDbEntity
  8
0
100
AcDbCircle
 10
0.8110793697658014
 20
27.88771969052447
 30
0.0
 40
0.125
100
AcDbArc
 50
278.5972491996499
 51
0.0
  0
ARC
  5
A7
330
2
100
AcDbEntity
  8
0
100
AcDbCircle
 10
0.8110793697658014
 20
28.88617893660841
 30
0.0
 40
0.125
100
AcDbArc
 50
278.5972491996499
 51
0.0
  0
ARC
  5
A8
330
2
100
AcDbEntity
  8
0
100
AcDbCircle
 10
0.8110793697658014
 20
28.76117893660841
 30
0.0
 40
0.125
100
AcDbArc
 50
278.5972491996499
 51
0.0
  0
ARC
  5
A9
330
2
100
AcDbEntity
  8
0
100
AcDbCircle
 10
0.8110793697658014
 20
28.63617893660841
 30
0.0
 40
0.125
100
AcDbArc
 50
278.5972491996499
 51
0.0
  0
ARC
  5
AA
330
2
100
AcDbEntity
  8
0
100
AcDbCircle
 10
0.8110793697658014
 20
28.51117893660841
 30
0.0
 40
0.125
100
AcDbArc
 50
278.5972491996499
 51
0.0
  0
ARC
  5
AB
330
2
100
AcDbEntity
  8
0
100
AcDbCircle
 10
0.8110793697658014
 20
28.38617893660841
 30
0.0
 40
0.125
100
AcDbArc
 50
278.5972491996499
 51
0.0
  0
ARC
  5
AC
330
2
100
AcDbEntity
  8
0
100
AcDbCircle
 10
0.8110793697658014
 20
28.26117893660841
 30
0.0
 40
0.125
100
AcDbArc
 50
278.5972491996499
 51
0.0
  0
LINE
  5
AD
330
2
100
AcDbEntity
  8
0
100
AcDbLine
 10
0.161732369584195
 20
29.16158580759459
 30
0.0
 11
0.8297653538358301
 21
29.26258349171122
 31
0.0
  0
LINE
  5
AE
330
2
100
AcDbEntity
  8
0
100
AcDbLine
 10
0.161732369584195
 20
29.03658580759459
 30
0.0
 11
0.8297653538358301
 21
29.13758349171122
 31
0.0
  0
LINE
  5
AF
330
2
100
AcDbEntity
  8
0
100
AcDbLine
 10
0.161732369584195
 20
28.91158580759459
 30
0.0
 11
0.8297653538358301
 21
29.01258349171122
 31
0.0
  0
LINE
  5
B0
330
2
100
AcDbEntity
  8
0
100
AcDbLine
 10
0.0554183536542272
 20
29.28871744276499
 30
0.0
 11
0.9360793697658014
 21
29.28871744276499
 31
0.0
  0
ARC
  5
B1
330
2
100
AcDbEntity
  8
0
100
AcDbCircle
 10
0.1804183536542272
 20
29.1629903626974
 30
0.0
 40
0.125
100
AcDbArc
 50
98.59724919965019
 51
180.0
  0
ARC
  5
B2
330
2
100
AcDbEntity
  8
0
100
AcDbCircle
 10
0.1804183536542272
 20
29.0379903626974
 30
0.0
 40
0.125
100
AcDbArc
 50
98.59724919965019
 51
180.0
  0
ARC
  5
B3
330
2
100
AcDbEntity
  8
0
100
AcDbCircle
 10
0.1804183536542272
 20
28.9129903626974
 30
0.0
 40
0.125
100
AcDbArc
 50
98.59724919965019
 51
180.0
  0
ARC
  5
B4
330
2
100
AcDbEntity
  8
0
100
AcDbCircle
 10
0.8110793697658014
 20
29.38617893660841
 30
0.0
 40
0.125
100
AcDbArc
 50
278.5972491996499
 51
308.7676206492783
  0
ARC
  5
B5
330
2
100
AcDbEntity
  8
0
100
AcDbCircle
 10
0.8110793697658014
 20
29.26117893660841
 30
0.0
 40
0.125
100
AcDbArc
 50
278.5972491996499
 51
0.0
  0
ARC
  5
B6
330
2
100
AcDbEntity
  8
0
100
AcDbCircle
 10
0.8110793697658014
 20
29.13617893660841
 30
0.0
 40
0.125
100
AcDbArc
 50
278.5972491996499
 51
0.0
  0
ENDSEC
  0
SECTION
  2
OBJECTS
  0
DICTIONARY
  5
9
330
0
100
AcDbDictionary
281
     1
  3
ACAD_COLOR
350
C0
  3
ACAD_GROUP
350
23
  3
ACAD_LAYOUT
350
D
  3
ACAD_MATERIAL
350
BF
  3
ACAD_MLINESTYLE
350
24
  3
ACAD_PLOTSETTINGS
350
25
  3
ACAD_PLOTSTYLENAME
350
8
  3
ACAD_TABLESTYLE
350
C1
  3
ACDBHEADERROUNDTRIPXREC
350
CD
  3
AcDbVariableDictionary
350
B7
  0
DICTIONARY
  5
C0
102
{ACAD_REACTORS
330
9
102
}
330
9
100
AcDbDictionary
281
     1
  0
DICTIONARY
  5
23
102
{ACAD_REACTORS
330
9
102
}
330
9
100
AcDbDictionary
281
     1
  0
DICTIONARY
  5
D
102
{ACAD_REACTORS
330
9
102
}
330
9
100
AcDbDictionary
281
     1
  3
Layout1
350
13
  3
Model
350
C
  0
DICTIONARY
  5
BF
102
{ACAD_REACTORS
330
9
102
}
330
9
100
AcDbDictionary
281
     1
  0
DICTIONARY
  5
24
102
{ACAD_REACTORS
330
9
102
}
330
9
100
AcDbDictionary
281
     1
  3
Standard
350
27
  0
DICTIONARY
  5
25
102
{ACAD_REACTORS
330
9
102
}
330
9
100
AcDbDictionary
281
     1
  0
ACDBDICTIONARYWDFLT
  5
8
102
{ACAD_REACTORS
330
9
102
}
330
9
100
AcDbDictionary
281
     1
  3
Normal
350
7
100
AcDbDictionaryWithDefault
340
7
  0
DICTIONARY
  5
C1
102
{ACAD_REACTORS
330
9
102
}
330
9
100
AcDbDictionary
281
     1
  3
Standard
350
C2
  0
DICTIONARY
  5
CD
102
{ACAD_REACTORS
330
9
102
}
330
9
100
AcDbDictionary
281
     1
  3
COLORDICT
350
CE
  3
MATERIALDICT
350
CF
  0
DICTIONARY
  5
B7
102
{ACAD_REACTORS
330
9
102
}
330
9
100
AcDbDictionary
281
     1
  3
CTABLESTYLE
350
CB
  3
DIMASSOC
350
B9
  3
HIDETEXT
350
B8
  0
LAYOUT
  5
13
102
{ACAD_REACTORS
330
D
102
}
102
{ACAD_XDICTIONARY
360
D0
102
}
330
D
100
AcDbPlotSettings
  1

  2
Client\ssd-helder#\hp psc 2100 series [UPD:PCL4]
  4

  6

 40
0.0
 41
0.0
 42
0.0
 43
0.0
 44
0.0
 45
0.0
 46
0.0
 47
0.0
 48
0.0
 49
0.0
140
0.0
141
0.0
142
1.0
143
1.0
 70
   688
 72
     0
 73
     0
 74
     5
  7

 75
    16
147
1.0
148
0.0
149
0.0
100
AcDbLayout
  1
Layout1
 70
     0
 71
     1
 10
0.0
 20
0.0
 11
12.0
 21
9.0
 12
0.0
 22
0.0
 32
0.0
 14
1.000000000000000E+20
 24
1.000000000000000E+20
 34
1.000000000000000E+20
 15
-1.000000000000000E+20
 25
-1.000000000000000E+20
 35
-1.000000000000000E+20
146
0.0
 13
0.0
 23
0.0
 33
0.0
 16
1.0
 26
0.0
 36
0.0
 17
0.0
 27
1.0
 37
0.0
 76
     0
330
E
  0
LAYOUT
  5
C
102
{ACAD_REACTORS
330
D
102
}
102
{ACAD_XDICTIONARY
360
D2
102
}
330
D
100
AcDbPlotSettings
  1

  2
HP LaserJet 2100 Series PS
  4
Letter
  6

 40
5.365749835968018
 41
5.408073902130127
 42
5.132904052734375
 43
5.090576171875
 44
215.8999938964844
 45
279.3999938964844
 46
0.0
 47
0.0
 48
0.0
 49
0.0
140
0.0
141
0.0
142
1.0
143
3.967254253308121
 70
 28336
 72
     0
 73
     0
 74
     2
  7

 75
     0
147
0.2520635018958373
148
0.0
149
0.0
100
AcDbLayout
  1
Model
 70
     1
 71
     0
 10
0.0
 20
0.0
 11
12.0
 21
9.0
 12
0.0
 22
0.0
 32
0.0
 14
0.0
 24
0.0
 34
0.0
 15
0.0
 25
0.0
 35
0.0
146
0.0
 13
0.0
 23
0.0
 33
0.0
 16
1.0
 26
0.0
 36
0.0
 17
0.0
 27
1.0
 37
0.0
 76
     0
330
2
  0
MLINESTYLE
  5
27
102
{ACAD_REACTORS
330
24
102
}
330
24
100
AcDbMlineStyle
  2
STANDARD
 70
     0
  3

 62
   256
 51
90.0
 52
90.0
 71
     2
 49
0.5
 62
   256
  6
BYLAYER
 49
-0.5
 62
   256
  6
BYLAYER
  0
ACDBPLACEHOLDER
  5
7
102
{ACAD_REACTORS
330
8
102
}
330
8
  0
ACAD_PROXY_OBJECT
  5
C2
102
{ACAD_REACTORS
330
C1
102
}
330
C1
100
AcDbProxyObject
 90
      499
 91
      508
 95
   983063
 70
     0
 93
     1841
310
4214DD185B99185C9928B81E85EB51B8AE3F2E07A17AD46E2B8FC02B5E8DC0F42B1CFD028000000C1008070000C3001FDFF8000000C1003FBFF000000182007F7FE00000030400FEFFC00000060801FDFF8000000C1003FBFF00000018200000000000000681FA0B0000001820100E000186003FBFF000000182007F7FE000
310
00030400FEFFC00000060801FDFF8000000C1003FBFF000000182007F7FE000000304000AD7A3703D0AC73F4160000003040201C00030C007F7FE00000030400FEFFC00000060801FDFF8000000C1003FBFF000000182007F7FE00000030400FEFFC000000608000
340
16
340
16
340
16
 94
        0
  0
XRECORD
  5
CE
102
{ACAD_REACTORS
330
CD
102
}
330
CD
100
AcDbXrecord
340
C0
  0
XRECORD
  5
CF
102
{ACAD_REACTORS
330
CD
102
}
330
CD
100
AcDbXrecord
340
BF
  0
DICTIONARYVAR
  5
CB
102
{ACAD_REACTORS
330
B7
102
}
330
B7
100
DictionaryVariables
280
     0
  1
STANDARD
  0
DICTIONARYVAR
  5
B9
102
{ACAD_REACTORS
330
B7
102
}
330
B7
100
DictionaryVariables
280
     0
  1
2
  0
DICTIONARYVAR
  5
B8
102
{ACAD_REACTORS
330
B7
102
}
330
B7
100
DictionaryVariables
280
     0
  1
1
  0
DICTIONARY
  5
D0
330
13
100
AcDbDictionary
280
     1
281
     1
  3
ACAD_XREC_ROUNDTRIP
360
D1
  0
DICTIONARY
  5
D2
330
C
100
AcDbDictionary
280
     1
281
     1
  3
ACAD_XREC_ROUNDTRIP
360
D3
  0
XRECORD
  5
D1
102
{ACAD_REACTORS
330
D0
102
}
330
D0
100
AcDbXrecord
102
SHADEPLOT
 70
     0
102
SHADEPLOTRESLEVEL
 70
     2
102
SHADEPLOTCUSTOMDPI
 70
   300
  0
XRECORD
  5
D3
102
{ACAD_REACTORS
330
D2
102
}
330
D2
100
AcDbXrecord
102
SHADEPLOT
 70
     0
102
SHADEPLOTRESLEVEL
 70
     2
102
SHADEPLOTCUSTOMDPI
 70
   300
  0
ENDSEC
  0
EOF
