  0
SECTION
  2
HEADER
  9
$ACADVER
  1
AC1015
  9
$ACADMAINTVER
 70
     6
  9
$DWGCODEPAGE
  3
ANSI_1252
  9
$INSBASE
 10
0.0
 20
0.0
 30
0.0
  9
$EXTMIN
 10
-0.7053650903141764
 20
0.0
 30
0.0
  9
$EXTMAX
 10
13.65303227114509
 20
36.23099178519661
 30
0.0
  9
$LIMMIN
 10
0.0
 20
0.0
  9
$LIMMAX
 10
32.0
 20
42.0
  9
$ORTHOMODE
 70
     0
  9
$REGENMODE
 70
     1
  9
$FILLMODE
 70
     1
  9
$QTEXTMODE
 70
     0
  9
$MIRRTEXT
 70
     0
  9
$LTSCALE
 40
0.5
  9
$ATTMODE
 70
     1
  9
$TEXTSIZE
 40
0.36
  9
$TRACEWID
 40
0.05
  9
$TEXTSTYLE
  7
STANDARD
  9
$CLAYER
  8
0
  9
$CELTYPE
  6
ByLayer
  9
$CECOLOR
 62
   256
  9
$CELTSCALE
 40
1.0
  9
$DISPSILH
 70
     0
  9
$DIMSCALE
 40
4.0
  9
$DIMASZ
 40
0.125
  9
$DIMEXO
 40
0.062
  9
$DIMDLI
 40
0.375
  9
$DIMRND
 40
0.0
  9
$DIMDLE
 40
0.0
  9
$DIMEXE
 40
0.08
  9
$DIMTP
 40
0.0
  9
$DIMTM
 40
0.0
  9
$DIMTXT
 40
0.09
  9
$DIMCEN
 40
-0.06
  9
$DIMTSZ
 40
0.0
  9
$DIMTOL
 70
     0
  9
$DIMLIM
 70
     0
  9
$DIMTIH
 70
     1
  9
$DIMTOH
 70
     1
  9
$DIMSE1
 70
     0
  9
$DIMSE2
 70
     0
  9
$DIMTAD
 70
     0
  9
$DIMZIN
 70
     0
  9
$DIMBLK
  1

  9
$DIMASO
 70
     0
  9
$DIMSHO
 70
     0
  9
$DIMPOST
  1

  9
$DIMAPOST
  1

  9
$DIMALT
 70
     0
  9
$DIMALTD
 70
     2
  9
$DIMALTF
 40
25.4
  9
$DIMLFAC
 40
1.0
  9
$DIMTOFL
 70
     0
  9
$DIMTVP
 40
0.0
  9
$DIMTIX
 70
     0
  9
$DIMSOXD
 70
     0
  9
$DIMSAH
 70
     0
  9
$DIMBLK1
  1

  9
$DIMBLK2
  1

  9
$DIMSTYLE
  2
Standard
  9
$DIMCLRD
 70
     0
  9
$DIMCLRE
 70
     0
  9
$DIMCLRT
 70
     0
  9
$DIMTFAC
 40
1.0
  9
$DIMGAP
 40
0.09
  9
$DIMJUST
 70
     0
  9
$DIMSD1
 70
     0
  9
$DIMSD2
 70
     0
  9
$DIMTOLJ
 70
     1
  9
$DIMTZIN
 70
     0
  9
$DIMALTZ
 70
     0
  9
$DIMALTTZ
 70
     0
  9
$DIMUPT
 70
     0
  9
$DIMDEC
 70
     4
  9
$DIMTDEC
 70
     4
  9
$DIMALTU
 70
     2
  9
$DIMALTTD
 70
     2
  9
$DIMTXSTY
  7
STANDARD
  9
$DIMAUNIT
 70
     0
  9
$DIMADEC
 70
     0
  9
$DIMALTRND
 40
0.0
  9
$DIMAZIN
 70
     0
  9
$DIMDSEP
 70
    46
  9
$DIMATFIT
 70
     3
  9
$DIMFRAC
 70
     0
  9
$DIMLDRBLK
  1

  9
$DIMLUNIT
 70
     2
  9
$DIMLWD
 70
    -2
  9
$DIMLWE
 70
    -2
  9
$DIMTMOVE
 70
     2
  9
$LUNITS
 70
     2
  9
$LUPREC
 70
     4
  9
$SKETCHINC
 40
0.1
  9
$FILLETRAD
 40
3.0625
  9
$AUNITS
 70
     0
  9
$AUPREC
 70
     0
  9
$MENU
  1
simpson
  9
$ELEVATION
 40
0.0
  9
$PELEVATION
 40
0.0
  9
$THICKNESS
 40
0.0
  9
$LIMCHECK
 70
     0
  9
$CHAMFERA
 40
0.0
  9
$CHAMFERB
 40
0.0
  9
$CHAMFERC
 40
0.0
  9
$CHAMFERD
 40
0.0
  9
$SKPOLY
 70
     0
  9
$TDCREATE
 40
2450745.903722222
  9
$TDUCREATE
 40
2450746.237055556
  9
$TDUPDATE
 40
2454160.685537558
  9
$TDUUPDATE
 40
2454161.018870891
  9
$TDINDWG
 40
0.080085787
  9
$TDUSRTIMER
 40
0.080085787
  9
$USRTIMER
 70
     1
  9
$ANGBASE
 50
0.0
  9
$ANGDIR
 70
     0
  9
$PDMODE
 70
     0
  9
$PDSIZE
 40
0.0
  9
$PLINEWID
 40
0.0
  9
$SPLFRAME
 70
     0
  9
$SPLINETYPE
 70
     6
  9
$SPLINESEGS
 70
     8
  9
$HANDSEED
  5
F0
  9
$SURFTAB1
 70
     6
  9
$SURFTAB2
 70
     6
  9
$SURFTYPE
 70
     6
  9
$SURFU
 70
     6
  9
$SURFV
 70
     6
  9
$UCSBASE
  2

  9
$UCSNAME
  2

  9
$UCSORG
 10
0.0
 20
0.0
 30
0.0
  9
$UCSXDIR
 10
1.0
 20
0.0
 30
0.0
  9
$UCSYDIR
 10
0.0
 20
1.0
 30
0.0
  9
$UCSORTHOREF
  2

  9
$UCSORTHOVIEW
 70
     0
  9
$UCSORGTOP
 10
0.0
 20
0.0
 30
0.0
  9
$UCSORGBOTTOM
 10
0.0
 20
0.0
 30
0.0
  9
$UCSORGLEFT
 10
0.0
 20
0.0
 30
0.0
  9
$UCSORGRIGHT
 10
0.0
 20
0.0
 30
0.0
  9
$UCSORGFRONT
 10
0.0
 20
0.0
 30
0.0
  9
$UCSORGBACK
 10
0.0
 20
0.0
 30
0.0
  9
$PUCSBASE
  2

  9
$PUCSNAME
  2

  9
$PUCSORG
 10
0.0
 20
0.0
 30
0.0
  9
$PUCSXDIR
 10
1.0
 20
0.0
 30
0.0
  9
$PUCSYDIR
 10
0.0
 20
1.0
 30
0.0
  9
$PUCSORTHOREF
  2

  9
$PUCSORTHOVIEW
 70
     0
  9
$PUCSORGTOP
 10
0.0
 20
0.0
 30
0.0
  9
$PUCSORGBOTTOM
 10
0.0
 20
0.0
 30
0.0
  9
$PUCSORGLEFT
 10
0.0
 20
0.0
 30
0.0
  9
$PUCSORGRIGHT
 10
0.0
 20
0.0
 30
0.0
  9
$PUCSORGFRONT
 10
0.0
 20
0.0
 30
0.0
  9
$PUCSORGBACK
 10
0.0
 20
0.0
 30
0.0
  9
$USERI1
 70
     0
  9
$USERI2
 70
     0
  9
$USERI3
 70
     0
  9
$USERI4
 70
     0
  9
$USERI5
 70
     0
  9
$USERR1
 40
0.0
  9
$USERR2
 40
0.0
  9
$USERR3
 40
0.0
  9
$USERR4
 40
0.0
  9
$USERR5
 40
0.0
  9
$WORLDVIEW
 70
     1
  9
$SHADEDGE
 70
     3
  9
$SHADEDIF
 70
    70
  9
$TILEMODE
 70
     1
  9
$MAXACTVP
 70
    16
  9
$PINSBASE
 10
0.0
 20
0.0
 30
0.0
  9
$PLIMCHECK
 70
     0
  9
$PEXTMIN
 10
1.000000000000000E+20
 20
1.000000000000000E+20
 30
1.000000000000000E+20
  9
$PEXTMAX
 10
-1.000000000000000E+20
 20
-1.000000000000000E+20
 30
-1.000000000000000E+20
  9
$PLIMMIN
 10
0.0
 20
0.0
  9
$PLIMMAX
 10
12.0
 20
9.0
  9
$UNITMODE
 70
     0
  9
$VISRETAIN
 70
     0
  9
$PLINEGEN
 70
     0
  9
$PSLTSCALE
 70
     0
  9
$TREEDEPTH
 70
  3020
  9
$CMLSTYLE
  2
Standard
  9
$CMLJUST
 70
     0
  9
$CMLSCALE
 40
1.0
  9
$PROXYGRAPHICS
 70
     1
  9
$MEASUREMENT
 70
     0
  9
$CELWEIGHT
370
    -1
  9
$ENDCAPS
280
     0
  9
$JOINSTYLE
280
     0
  9
$LWDISPLAY
290
     0
  9
$INSUNITS
 70
     0
  9
$HYPERLINKBASE
  1

  9
$STYLESHEET
  1

  9
$XEDIT
290
     1
  9
$CEPSNTYPE
380
     0
  9
$PSTYLEMODE
290
     1
  9
$FINGERPRINTGUID
  2
{71C0B609-20EC-47A7-8726-788FBF1B7C83}
  9
$VERSIONGUID
  2
{A3EDE665-8915-4F4E-B85C-114B39D9C7F9}
  9
$EXTNAMES
290
     1
  9
$PSVPSCALE
 40
0.0
  9
$OLESTARTUP
290
     0
  0
ENDSEC
  0
SECTION
  2
CLASSES
  0
CLASS
  1
ACDBDICTIONARYWDFLT
  2
AcDbDictionaryWithDefault
  3
AutoCAD 2000
 90
        0
280
     0
281
     0
  0
CLASS
  1
ACDBPLACEHOLDER
  2
AcDbPlaceHolder
  3
ObjectDBX Classes
 90
        0
280
     0
281
     0
  0
CLASS
  1
LAYOUT
  2
AcDbLayout
  3
ObjectDBX Classes
 90
        0
280
     0
281
     0
  0
CLASS
  1
DICTIONARYVAR
  2
AcDbDictionaryVar
  3
AutoCAD 2000
 90
        0
280
     0
281
     0
  0
CLASS
  1
LONG_TRANSACTION
  2
AcDbLongTransaction
  3
ObjectDBX Classes
 90
   -65536
280
     1
281
     0
  0
CLASS
  1
LWPOLYLINE
  2
AcDbPolyline
  3
AutoCAD 2000
 90
        0
280
     0
281
     1
  0
CLASS
  1
HATCH
  2
AcDbHatch
  3
AutoCAD 2000
 90
        0
280
     0
281
     1
  0
CLASS
  1
XRECORD
  2
AcDbXrecord
  3
AutoCAD 2000
 90
        0
280
     0
281
     0
  0
CLASS
  1
TABLESTYLE
  2
AcDbTableStyle
  3
ObjectDBX Classes
 90
     2047
280
     1
281
     0
  0
ENDSEC
  0
SECTION
  2
TABLES
  0
TABLE
  2
VPORT
  5
1D
330
0
100
AcDbSymbolTable
 70
     2
  0
VPORT
  5
E3
330
1D
100
AcDbSymbolTableRecord
100
AcDbViewportTableRecord
  2
*Active
 70
     0
 10
0.0
 20
0.0
 11
1.0
 21
1.0
 12
14.26611331648442
 22
19.55190263756737
 13
0.0
 23
0.0
 14
0.063
 24
0.063
 15
0.25
 25
0.25
 16
0.0
 26
0.0
 36
1.0
 17
0.0
 27
0.0
 37
0.0
 40
45.32566018097797
 41
1.814583333333334
 42
50.0
 43
0.0
 44
0.0
 50
0.0
 51
0.0
 71
     0
 72
   100
 73
     1
 74
     0
 75
     0
 76
     0
 77
     0
 78
     0
281
     0
 65
     1
110
0.0
120
0.0
130
0.0
111
1.0
121
0.0
131
0.0
112
0.0
122
1.0
132
0.0
 79
     0
146
0.0
  0
ENDTAB
  0
TABLE
  2
LTYPE
  5
18
330
0
100
AcDbSymbolTable
 70
     1
  0
LTYPE
  5
19
330
18
100
AcDbSymbolTableRecord
100
AcDbLinetypeTableRecord
  2
ByBlock
 70
     0
  3

 72
    65
 73
     0
 40
0.0
  0
LTYPE
  5
1A
330
18
100
AcDbSymbolTableRecord
100
AcDbLinetypeTableRecord
  2
ByLayer
 70
     0
  3

 72
    65
 73
     0
 40
0.0
  0
LTYPE
  5
A
330
18
100
AcDbSymbolTableRecord
100
AcDbLinetypeTableRecord
  2
CONTINUOUS
 70
     0
  3
Solid line
 72
    65
 73
     0
 40
0.0
  0
ENDTAB
  0
TABLE
  2
LAYER
  5
14
330
0
100
AcDbSymbolTable
 70
     1
  0
LAYER
  5
6
330
14
100
AcDbSymbolTableRecord
100
AcDbLayerTableRecord
  2
0
 70
     0
 62
     7
  6
CONTINUOUS
370
    -3
390
7
  0
ENDTAB
  0
TABLE
  2
STYLE
  5
15
330
0
100
AcDbSymbolTable
 70
     1
  0
STYLE
  5
16
330
15
100
AcDbSymbolTableRecord
100
AcDbTextStyleTableRecord
  2
STANDARD
 70
     0
 40
0.0
 41
1.0
 50
0.0
 71
     0
 42
0.36
  3
TXT
  4

  0
ENDTAB
  0
TABLE
  2
VIEW
  5
1B
330
0
100
AcDbSymbolTable
 70
     0
  0
ENDTAB
  0
TABLE
  2
UCS
  5
1C
330
0
100
AcDbSymbolTable
 70
     0
  0
ENDTAB
  0
TABLE
  2
APPID
  5
1F
330
0
100
AcDbSymbolTable
 70
     1
  0
APPID
  5
20
330
1F
100
AcDbSymbolTableRecord
100
AcDbRegAppTableRecord
  2
ACAD
 70
     0
  0
ENDTAB
  0
TABLE
  2
DIMSTYLE
  5
21
330
0
100
AcDbSymbolTable
 70
     1
100
AcDbDimStyleTable
  0
DIMSTYLE
105
28
330
21
100
AcDbSymbolTableRecord
100
AcDbDimStyleTableRecord
  2
Standard
 70
     0
  3

  4

340
16
  0
ENDTAB
  0
TABLE
  2
BLOCK_RECORD
  5
1
330
0
100
AcDbSymbolTable
 70
     0
  0
BLOCK_RECORD
  5
2
330
1
100
AcDbSymbolTableRecord
100
AcDbBlockTableRecord
  2
*Model_Space
340
C
  0
BLOCK_RECORD
  5
E
330
1
100
AcDbSymbolTableRecord
100
AcDbBlockTableRecord
  2
*Paper_Space
340
13
  0
ENDTAB
  0
ENDSEC
  0
SECTION
  2
BLOCKS
  0
BLOCK
  5
5
330
2
100
AcDbEntity
  8
0
100
AcDbBlockBegin
  2
*Model_Space
 70
     0
 10
0.0
 20
0.0
 30
0.0
  3
*Model_Space
  1

  4

  0
ENDBLK
  5
B
330
2
100
AcDbEntity
  8
0
100
AcDbBlockEnd
  0
BLOCK
  5
11
330
E
100
AcDbEntity
 67
     1
  8
0
100
AcDbBlockBegin
  2
*Paper_Space
 70
     0
 10
0.0
 20
0.0
 30
0.0
  3
*Paper_Space
  1

  4

  0
ENDBLK
  5
12
330
E
100
AcDbEntity
 67
     1
  8
0
100
AcDbBlockEnd
  0
ENDSEC
  0
SECTION
  2
ENTITIES
  0
LINE
  5
29
330
2
100
AcDbEntity
  8
0
100
AcDbLine
 10
0.6854564897025153
 20
25.55122893843533
 30
0.0
 11
2.258095872751945
 21
9.980546123812095
 31
0.0
  0
LINE
  5
2A
330
2
100
AcDbEntity
  8
0
100
AcDbLine
 10
-0.1943955065489416
 20
25.55122893843533
 30
0.0
 11
1.366742837289348
 21
9.994762741136126
 31
0.0
  0
LINE
  5
2B
330
2
100
AcDbEntity
  8
0
100
AcDbLine
 10
2.907143369879864
 20
2.135958530955362
 30
0.0
 11
3.155773843721934
 21
2.162090646772283
 31
0.0
  0
ARC
  5
2C
330
2
100
AcDbEntity
  8
0
100
AcDbCircle
 10
2.769949761841072
 20
3.441268518626226
 30
0.0
 40
2.1875
100
AcDbArc
 50
95.99999755090865
 51
276.0000000000001
  0
ARC
  5
2D
330
2
100
AcDbEntity
  8
0
100
AcDbCircle
 10
2.769949761841072
 20
3.441268518626226
 30
0.0
 40
1.3125
100
AcDbArc
 50
95.99999591818101
 51
276.0000000000001
  0
ARC
  5
2E
330
2
100
AcDbEntity
  8
0
100
AcDbCircle
 10
2.404100140404284
 20
6.922095152415176
 30
0.0
 40
1.3125
100
AcDbArc
 50
276.0000000000001
 51
65.97760810566514
  0
ARC
  5
2F
330
2
100
AcDbEntity
  8
0
100
AcDbCircle
 10
2.404100140404284
 20
6.922095152415176
 30
0.0
 40
2.1875
100
AcDbArc
 50
275.9999971720332
 51
65.99999999999986
  0
ARC
  5
30
330
2
100
AcDbEntity
  8
0
100
AcDbCircle
 10
3.542259483407444
 20
10.22341875453412
 30
0.0
 40
2.1875
100
AcDbArc
 50
186.0
 51
253.9756871629575
  0
ARC
  5
31
330
2
100
AcDbEntity
  8
0
100
AcDbCircle
 10
3.437050255244183
 20
10.12275306457922
 30
0.0
 40
1.1875
100
AcDbArc
 50
186.8778600358282
 51
255.2207248616732
  0
LINE
  5
32
330
2
100
AcDbEntity
  8
0
100
AcDbLine
 10
3.155773843721934
 20
2.162090646772283
 30
0.0
 11
3.247236249081129
 21
1.291883988325039
 31
0.0
  0
LINE
  5
33
330
2
100
AcDbEntity
  8
0
100
AcDbLine
 10
2.998605775239059
 20
1.265751872508132
 30
0.0
 11
3.247236249081129
 21
1.291883988325039
 31
0.0
  0
LINE
  5
34
330
2
100
AcDbEntity
  8
0
100
AcDbLine
 10
3.134123725906039
 20
8.974540641800603
 30
0.0
 11
3.293836547132602
 21
8.920475841008363
 31
0.0
  0
LINE
  5
35
330
2
100
AcDbEntity
  8
0
100
AcDbLine
 10
0.6833156188469278
 20
25.61372893843533
 30
0.0
 11
0.6833156188469314
 21
29.07208149627797
 31
0.0
  0
LINE
  5
36
330
2
100
AcDbEntity
  8
0
100
AcDbLine
 10
-0.1973453972646428
 20
25.61372893843533
 30
0.0
 11
-0.1973453972646428
 21
28.8314151049385
 31
0.0
  0
LINE
  5
37
330
2
100
AcDbEntity
  8
0
100
AcDbLine
 10
-0.1660953972646428
 20
25.61372893843533
 30
0.0
 11
0.6833156188469278
 21
25.61372893843533
 31
0.0
  0
LINE
  5
38
330
2
100
AcDbEntity
  8
0
100
AcDbLine
 10
-0.1943955065489416
 20
25.55122893843533
 30
0.0
 11
0.6854564897025153
 21
25.55122893843533
 31
0.0
  0
LINE
  5
39
330
2
100
AcDbEntity
  8
0
100
AcDbLine
 10
-0.1973453972646428
 20
25.61372893843533
 30
0.0
 11
-0.1660953972646428
 21
25.61372893843533
 31
0.0
  0
LINE
  5
3A
330
2
100
AcDbEntity
  8
0
100
AcDbLine
 10
-0.1938372637531192
 20
25.55122893843533
 30
0.0
 11
-0.1660953972646428
 21
25.55122893843533
 31
0.0
  0
ARC
  5
3B
330
2
100
AcDbEntity
  8
0
100
AcDbCircle
 10
-0.1973453972646428
 20
25.58247893843533
 30
0.0
 40
0.03125
100
AcDbArc
 50
0.0
 51
90.0
  0
ARC
  5
3C
330
2
100
AcDbEntity
  8
0
100
AcDbCircle
 10
-0.1973447733741356
 20
25.58228147257119
 30
0.0
 40
0.03125
100
AcDbArc
 50
276.4444756747145
 51
0.3620491490063159
  0
ARC
  5
3D
330
2
100
AcDbEntity
  8
0
100
AcDbCircle
 10
0.6833156188469278
 20
25.58247893843533
 30
0.0
 40
0.03125
100
AcDbArc
 50
89.99999999999999
 51
180.0
  0
ARC
  5
3E
330
2
100
AcDbEntity
  8
0
100
AcDbCircle
 10
0.6827046776543941
 20
25.58175280971627
 30
0.0
 40
0.0306476620237844
100
AcDbArc
 50
178.6423759066279
 51
275.1514481182608
  0
LINE
  5
3F
330
2
100
AcDbEntity
  8
0
100
AcDbLine
 10
0.3600773151057251
 20
32.67306764255828
 30
0.0
 11
2.937335513429029
 21
32.67308815877672
 31
0.0
  0
LINE
  5
40
330
2
100
AcDbEntity
  8
0
100
AcDbLine
 10
0.3600728373343838
 20
33.48556764252264
 30
0.0
 11
2.937335513429029
 21
33.48558815877672
 31
0.0
  0
CIRCLE
  5
41
330
2
100
AcDbEntity
  8
0
100
AcDbCircle
 10
0.2429851107911443
 20
33.07931671044786
 30
0.0
 40
0.4375
  0
CIRCLE
  5
42
330
2
100
AcDbEntity
  8
0
100
AcDbCircle
 10
0.2429851107911443
 20
33.07931671044786
 30
0.0
 40
0.40625
  0
ARC
  5
43
330
2
100
AcDbEntity
  8
0
100
AcDbCircle
 10
-0.0723453972646428
 20
30.07987435102244
 30
0.0
 40
0.125
100
AcDbArc
 50
98.59724919965019
 51
180.0
  0
ARC
  5
44
330
2
100
AcDbEntity
  8
0
100
AcDbCircle
 10
0.5583156188469314
 20
30.30306292493345
 30
0.0
 40
0.125
100
AcDbArc
 50
278.5972491996499
 51
0.0
  0
LINE
  5
45
330
2
100
AcDbEntity
  8
0
100
AcDbLine
 10
-0.1973453972646428
 20
28.8314151049385
 30
0.0
 11
-0.1973453972646428
 21
30.58060143109003
 31
0.0
  0
LINE
  5
46
330
2
100
AcDbEntity
  8
0
100
AcDbLine
 10
0.6833156188469314
 20
29.07208149627797
 30
0.0
 11
0.6833156188469314
 21
30.58060143109003
 31
0.0
  0
LINE
  5
47
330
2
100
AcDbEntity
  8
0
100
AcDbLine
 10
-0.091031381334675
 20
28.45501054983569
 30
0.0
 11
0.57700160291696
 21
28.55600823395232
 31
0.0
  0
ARC
  5
48
330
2
100
AcDbEntity
  8
0
100
AcDbCircle
 10
0.5583156188469314
 20
28.67960367884951
 30
0.0
 40
0.125
100
AcDbArc
 50
278.5972491996499
 51
0.0
  0
ARC
  5
49
330
2
100
AcDbEntity
  8
0
100
AcDbCircle
 10
-0.0723453972646428
 20
28.4564151049385
 30
0.0
 40
0.125
100
AcDbArc
 50
98.59724919965019
 51
180.0
  0
LINE
  5
4A
330
2
100
AcDbEntity
  8
0
100
AcDbLine
 10
-0.1973453972646428
 20
28.4564151049385
 30
0.0
 11
-0.1973453972646428
 21
28.56393728751003
 31
0.0
  0
LINE
  5
4B
330
2
100
AcDbEntity
  8
0
100
AcDbLine
 10
-0.091031381334675
 20
27.08001054983569
 30
0.0
 11
0.57700160291696
 21
27.18100823395232
 31
0.0
  0
LINE
  5
4C
330
2
100
AcDbEntity
  8
0
100
AcDbLine
 10
-0.091031381334675
 20
27.20501054983569
 30
0.0
 11
0.57700160291696
 21
27.30600823395232
 31
0.0
  0
LINE
  5
4D
330
2
100
AcDbEntity
  8
0
100
AcDbLine
 10
-0.091031381334675
 20
27.33001054983569
 30
0.0
 11
0.57700160291696
 21
27.43100823395232
 31
0.0
  0
LINE
  5
4E
330
2
100
AcDbEntity
  8
0
100
AcDbLine
 10
-0.091031381334675
 20
27.45501054983569
 30
0.0
 11
0.57700160291696
 21
27.55600823395232
 31
0.0
  0
LINE
  5
4F
330
2
100
AcDbEntity
  8
0
100
AcDbLine
 10
-0.091031381334675
 20
27.58001054983569
 30
0.0
 11
0.57700160291696
 21
27.68100823395232
 31
0.0
  0
LINE
  5
50
330
2
100
AcDbEntity
  8
0
100
AcDbLine
 10
-0.091031381334675
 20
27.70501054983569
 30
0.0
 11
0.57700160291696
 21
27.80600823395232
 31
0.0
  0
LINE
  5
51
330
2
100
AcDbEntity
  8
0
100
AcDbLine
 10
-0.091031381334675
 20
27.83001054983569
 30
0.0
 11
0.57700160291696
 21
27.93100823395232
 31
0.0
  0
LINE
  5
52
330
2
100
AcDbEntity
  8
0
100
AcDbLine
 10
-0.091031381334675
 20
27.95501054983569
 30
0.0
 11
0.57700160291696
 21
28.05600823395232
 31
0.0
  0
LINE
  5
53
330
2
100
AcDbEntity
  8
0
100
AcDbLine
 10
-0.091031381334675
 20
28.08001054983569
 30
0.0
 11
0.57700160291696
 21
28.18100823395232
 31
0.0
  0
LINE
  5
54
330
2
100
AcDbEntity
  8
0
100
AcDbLine
 10
-0.091031381334675
 20
28.20501054983569
 30
0.0
 11
0.57700160291696
 21
28.30600823395232
 31
0.0
  0
LINE
  5
55
330
2
100
AcDbEntity
  8
0
100
AcDbLine
 10
-0.091031381334675
 20
28.33001054983569
 30
0.0
 11
0.57700160291696
 21
28.43100823395232
 31
0.0
  0
LINE
  5
56
330
2
100
AcDbEntity
  8
0
100
AcDbLine
 10
0.6833156188469278
 20
27.08062407525047
 30
0.0
 11
-0.1973453972646428
 21
27.08062407525047
 31
0.0
  0
ARC
  5
57
330
2
100
AcDbEntity
  8
0
100
AcDbCircle
 10
-0.0723453972646428
 20
27.7064151049385
 30
0.0
 40
0.125
100
AcDbArc
 50
98.59724919965019
 51
180.0
  0
LINE
  5
58
330
2
100
AcDbEntity
  8
0
100
AcDbLine
 10
-0.1973453972646428
 20
27.7064151049385
 30
0.0
 11
-0.1973453972646428
 21
27.81393728751003
 31
0.0
  0
LINE
  5
59
330
2
100
AcDbEntity
  8
0
100
AcDbLine
 10
-0.1973453972646428
 20
26.9564151049385
 30
0.0
 11
-0.1973453972646428
 21
27.06393728751004
 31
0.0
  0
ARC
  5
5A
330
2
100
AcDbEntity
  8
0
100
AcDbCircle
 10
-0.0723453972646428
 20
27.0814151049385
 30
0.0
 40
0.125
100
AcDbArc
 50
98.59724919965019
 51
180.0
  0
LINE
  5
5B
330
2
100
AcDbEntity
  8
0
100
AcDbLine
 10
-0.1973453972646428
 20
27.0814151049385
 30
0.0
 11
-0.1973453972646428
 21
27.18893728751004
 31
0.0
  0
ARC
  5
5C
330
2
100
AcDbEntity
  8
0
100
AcDbCircle
 10
-0.0723453972646428
 20
27.2064151049385
 30
0.0
 40
0.125
100
AcDbArc
 50
98.59724919965019
 51
180.0
  0
LINE
  5
5D
330
2
100
AcDbEntity
  8
0
100
AcDbLine
 10
-0.1973453972646428
 20
27.2064151049385
 30
0.0
 11
-0.1973453972646428
 21
27.31393728751004
 31
0.0
  0
ARC
  5
5E
330
2
100
AcDbEntity
  8
0
100
AcDbCircle
 10
-0.0723453972646428
 20
27.3314151049385
 30
0.0
 40
0.125
100
AcDbArc
 50
98.59724919965019
 51
180.0
  0
LINE
  5
5F
330
2
100
AcDbEntity
  8
0
100
AcDbLine
 10
-0.1973453972646428
 20
27.3314151049385
 30
0.0
 11
-0.1973453972646428
 21
27.43893728751003
 31
0.0
  0
ARC
  5
60
330
2
100
AcDbEntity
  8
0
100
AcDbCircle
 10
-0.0723453972646428
 20
27.4564151049385
 30
0.0
 40
0.125
100
AcDbArc
 50
98.59724919965019
 51
180.0
  0
LINE
  5
61
330
2
100
AcDbEntity
  8
0
100
AcDbLine
 10
-0.1973453972646428
 20
27.4564151049385
 30
0.0
 11
-0.1973453972646428
 21
27.56393728751003
 31
0.0
  0
ARC
  5
62
330
2
100
AcDbEntity
  8
0
100
AcDbCircle
 10
-0.0723453972646428
 20
27.5814151049385
 30
0.0
 40
0.125
100
AcDbArc
 50
98.59724919965019
 51
180.0
  0
LINE
  5
63
330
2
100
AcDbEntity
  8
0
100
AcDbLine
 10
-0.1973453972646428
 20
27.5814151049385
 30
0.0
 11
-0.1973453972646428
 21
27.68893728751003
 31
0.0
  0
ARC
  5
64
330
2
100
AcDbEntity
  8
0
100
AcDbCircle
 10
-0.0723453972646428
 20
27.8314151049385
 30
0.0
 40
0.125
100
AcDbArc
 50
98.59724919965019
 51
180.0
  0
LINE
  5
65
330
2
100
AcDbEntity
  8
0
100
AcDbLine
 10
-0.1973453972646428
 20
27.8314151049385
 30
0.0
 11
-0.1973453972646428
 21
27.93893728751003
 31
0.0
  0
ARC
  5
66
330
2
100
AcDbEntity
  8
0
100
AcDbCircle
 10
-0.0723453972646428
 20
27.9564151049385
 30
0.0
 40
0.125
100
AcDbArc
 50
98.59724919965019
 51
180.0
  0
LINE
  5
67
330
2
100
AcDbEntity
  8
0
100
AcDbLine
 10
-0.1973453972646428
 20
27.9564151049385
 30
0.0
 11
-0.1973453972646428
 21
28.06393728751003
 31
0.0
  0
ARC
  5
68
330
2
100
AcDbEntity
  8
0
100
AcDbCircle
 10
-0.0723453972646428
 20
28.0814151049385
 30
0.0
 40
0.125
100
AcDbArc
 50
98.59724919965019
 51
180.0
  0
LINE
  5
69
330
2
100
AcDbEntity
  8
0
100
AcDbLine
 10
-0.1973453972646428
 20
28.0814151049385
 30
0.0
 11
-0.1973453972646428
 21
28.18893728751003
 31
0.0
  0
ARC
  5
6A
330
2
100
AcDbEntity
  8
0
100
AcDbCircle
 10
-0.0723453972646428
 20
28.2064151049385
 30
0.0
 40
0.125
100
AcDbArc
 50
98.59724919965019
 51
180.0
  0
LINE
  5
6B
330
2
100
AcDbEntity
  8
0
100
AcDbLine
 10
-0.1973453972646428
 20
28.2064151049385
 30
0.0
 11
-0.1973453972646428
 21
28.31393728751003
 31
0.0
  0
ARC
  5
6C
330
2
100
AcDbEntity
  8
0
100
AcDbCircle
 10
-0.0723453972646428
 20
28.3314151049385
 30
0.0
 40
0.125
100
AcDbArc
 50
98.59724919965019
 51
180.0
  0
LINE
  5
6D
330
2
100
AcDbEntity
  8
0
100
AcDbLine
 10
-0.1973453972646428
 20
28.3314151049385
 30
0.0
 11
-0.1973453972646428
 21
28.43893728751003
 31
0.0
  0
ARC
  5
6E
330
2
100
AcDbEntity
  8
0
100
AcDbCircle
 10
0.5583156188469314
 20
27.80460367884951
 30
0.0
 40
0.125
100
AcDbArc
 50
278.5972491996499
 51
0.0
  0
LINE
  5
6F
330
2
100
AcDbEntity
  8
0
100
AcDbLine
 10
0.6833156188469314
 20
27.69708149627797
 30
0.0
 11
0.6833156188469314
 21
27.80460367884951
 31
0.0
  0
LINE
  5
70
330
2
100
AcDbEntity
  8
0
100
AcDbLine
 10
0.6833156188469314
 20
26.94708149627797
 30
0.0
 11
0.6833156188469314
 21
27.05460367884951
 31
0.0
  0
LINE
  5
71
330
2
100
AcDbEntity
  8
0
100
AcDbLine
 10
0.6833156188469314
 20
27.07208149627797
 30
0.0
 11
0.6833156188469314
 21
27.17960367884951
 31
0.0
  0
ARC
  5
72
330
2
100
AcDbEntity
  8
0
100
AcDbCircle
 10
0.5583156188469314
 20
27.30460367884951
 30
0.0
 40
0.125
100
AcDbArc
 50
278.5972491996499
 51
0.0
  0
LINE
  5
73
330
2
100
AcDbEntity
  8
0
100
AcDbLine
 10
0.6833156188469314
 20
27.19708149627797
 30
0.0
 11
0.6833156188469314
 21
27.30460367884951
 31
0.0
  0
ARC
  5
74
330
2
100
AcDbEntity
  8
0
100
AcDbCircle
 10
0.5583156188469314
 20
27.42960367884951
 30
0.0
 40
0.125
100
AcDbArc
 50
278.5972491996499
 51
0.0
  0
LINE
  5
75
330
2
100
AcDbEntity
  8
0
100
AcDbLine
 10
0.6833156188469314
 20
27.32208149627797
 30
0.0
 11
0.6833156188469314
 21
27.42960367884951
 31
0.0
  0
ARC
  5
76
330
2
100
AcDbEntity
  8
0
100
AcDbCircle
 10
0.5583156188469314
 20
27.55460367884951
 30
0.0
 40
0.125
100
AcDbArc
 50
278.5972491996499
 51
0.0
  0
LINE
  5
77
330
2
100
AcDbEntity
  8
0
100
AcDbLine
 10
0.6833156188469314
 20
27.44708149627797
 30
0.0
 11
0.6833156188469314
 21
27.55460367884951
 31
0.0
  0
ARC
  5
78
330
2
100
AcDbEntity
  8
0
100
AcDbCircle
 10
0.5583156188469314
 20
27.67960367884951
 30
0.0
 40
0.125
100
AcDbArc
 50
278.5972491996499
 51
0.0
  0
LINE
  5
79
330
2
100
AcDbEntity
  8
0
100
AcDbLine
 10
0.6833156188469314
 20
27.57208149627797
 30
0.0
 11
0.6833156188469314
 21
27.67960367884951
 31
0.0
  0
ARC
  5
7A
330
2
100
AcDbEntity
  8
0
100
AcDbCircle
 10
0.5583156188469314
 20
27.92960367884951
 30
0.0
 40
0.125
100
AcDbArc
 50
278.5972491996499
 51
0.0
  0
LINE
  5
7B
330
2
100
AcDbEntity
  8
0
100
AcDbLine
 10
0.6833156188469314
 20
27.82208149627797
 30
0.0
 11
0.6833156188469314
 21
27.92960367884951
 31
0.0
  0
ARC
  5
7C
330
2
100
AcDbEntity
  8
0
100
AcDbCircle
 10
0.5583156188469314
 20
28.05460367884951
 30
0.0
 40
0.125
100
AcDbArc
 50
278.5972491996499
 51
0.0
  0
LINE
  5
7D
330
2
100
AcDbEntity
  8
0
100
AcDbLine
 10
0.6833156188469314
 20
27.94708149627797
 30
0.0
 11
0.6833156188469314
 21
28.05460367884951
 31
0.0
  0
ARC
  5
7E
330
2
100
AcDbEntity
  8
0
100
AcDbCircle
 10
0.5583156188469314
 20
28.17960367884951
 30
0.0
 40
0.125
100
AcDbArc
 50
278.5972491996499
 51
0.0
  0
LINE
  5
7F
330
2
100
AcDbEntity
  8
0
100
AcDbLine
 10
0.6833156188469314
 20
28.07208149627797
 30
0.0
 11
0.6833156188469314
 21
28.17960367884951
 31
0.0
  0
ARC
  5
80
330
2
100
AcDbEntity
  8
0
100
AcDbCircle
 10
0.5583156188469314
 20
28.30460367884951
 30
0.0
 40
0.125
100
AcDbArc
 50
278.5972491996499
 51
0.0
  0
LINE
  5
81
330
2
100
AcDbEntity
  8
0
100
AcDbLine
 10
0.6833156188469314
 20
28.19708149627797
 30
0.0
 11
0.6833156188469314
 21
28.30460367884951
 31
0.0
  0
ARC
  5
82
330
2
100
AcDbEntity
  8
0
100
AcDbCircle
 10
0.5583156188469314
 20
28.42960367884951
 30
0.0
 40
0.125
100
AcDbArc
 50
278.5972491996499
 51
0.0
  0
LINE
  5
83
330
2
100
AcDbEntity
  8
0
100
AcDbLine
 10
0.6833156188469314
 20
28.32208149627797
 30
0.0
 11
0.6833156188469314
 21
28.42960367884951
 31
0.0
  0
ARC
  5
84
330
2
100
AcDbEntity
  8
0
100
AcDbCircle
 10
0.5583156188469314
 20
28.55460367884951
 30
0.0
 40
0.125
100
AcDbArc
 50
278.5972491996499
 51
0.0
  0
LINE
  5
85
330
2
100
AcDbEntity
  8
0
100
AcDbLine
 10
0.6833156188469314
 20
28.44708149627797
 30
0.0
 11
0.6833156188469314
 21
28.55460367884951
 31
0.0
  0
LINE
  5
86
330
2
100
AcDbEntity
  8
0
100
AcDbLine
 10
-0.091031381334675
 20
30.07846979591963
 30
0.0
 11
0.57700160291696
 21
30.17946748003626
 31
0.0
  0
LINE
  5
87
330
2
100
AcDbEntity
  8
0
100
AcDbLine
 10
-0.091031381334675
 20
29.95346979591963
 30
0.0
 11
0.57700160291696
 21
30.05446748003626
 31
0.0
  0
LINE
  5
88
330
2
100
AcDbEntity
  8
0
100
AcDbLine
 10
-0.091031381334675
 20
29.82846979591963
 30
0.0
 11
0.57700160291696
 21
29.92946748003626
 31
0.0
  0
LINE
  5
89
330
2
100
AcDbEntity
  8
0
100
AcDbLine
 10
-0.091031381334675
 20
29.70346979591963
 30
0.0
 11
0.57700160291696
 21
29.80446748003626
 31
0.0
  0
LINE
  5
8A
330
2
100
AcDbEntity
  8
0
100
AcDbLine
 10
-0.091031381334675
 20
29.57846979591963
 30
0.0
 11
0.57700160291696
 21
29.67946748003626
 31
0.0
  0
LINE
  5
8B
330
2
100
AcDbEntity
  8
0
100
AcDbLine
 10
-0.091031381334675
 20
29.45346979591963
 30
0.0
 11
0.57700160291696
 21
29.55446748003626
 31
0.0
  0
LINE
  5
8C
330
2
100
AcDbEntity
  8
0
100
AcDbLine
 10
-0.091031381334675
 20
29.32846979591963
 30
0.0
 11
0.57700160291696
 21
29.42946748003626
 31
0.0
  0
LINE
  5
8D
330
2
100
AcDbEntity
  8
0
100
AcDbLine
 10
-0.091031381334675
 20
29.08001054983569
 30
0.0
 11
0.57700160291696
 21
29.18100823395232
 31
0.0
  0
LINE
  5
8E
330
2
100
AcDbEntity
  8
0
100
AcDbLine
 10
-0.091031381334675
 20
28.58001054983569
 30
0.0
 11
0.57700160291696
 21
28.68100823395232
 31
0.0
  0
LINE
  5
8F
330
2
100
AcDbEntity
  8
0
100
AcDbLine
 10
-0.091031381334675
 20
28.70501054983569
 30
0.0
 11
0.57700160291696
 21
28.80600823395232
 31
0.0
  0
LINE
  5
90
330
2
100
AcDbEntity
  8
0
100
AcDbLine
 10
-0.091031381334675
 20
28.83001054983569
 30
0.0
 11
0.57700160291696
 21
28.93100823395232
 31
0.0
  0
LINE
  5
91
330
2
100
AcDbEntity
  8
0
100
AcDbLine
 10
-0.091031381334675
 20
28.95501054983569
 30
0.0
 11
0.57700160291696
 21
29.05600823395232
 31
0.0
  0
LINE
  5
92
330
2
100
AcDbEntity
  8
0
100
AcDbLine
 10
-0.091031381334675
 20
29.20346979591963
 30
0.0
 11
0.57700160291696
 21
29.30446748003626
 31
0.0
  0
ARC
  5
93
330
2
100
AcDbEntity
  8
0
100
AcDbCircle
 10
-0.0723453972646428
 20
29.32987435102244
 30
0.0
 40
0.125
100
AcDbArc
 50
98.59724919965019
 51
180.0
  0
ARC
  5
94
330
2
100
AcDbEntity
  8
0
100
AcDbCircle
 10
-0.0723453972646428
 20
29.20487435102244
 30
0.0
 40
0.125
100
AcDbArc
 50
98.59724919965019
 51
180.0
  0
ARC
  5
95
330
2
100
AcDbEntity
  8
0
100
AcDbCircle
 10
-0.0723453972646428
 20
28.9564151049385
 30
0.0
 40
0.125
100
AcDbArc
 50
98.59724919965019
 51
180.0
  0
ARC
  5
96
330
2
100
AcDbEntity
  8
0
100
AcDbCircle
 10
-0.0723453972646428
 20
28.5814151049385
 30
0.0
 40
0.125
100
AcDbArc
 50
98.59724919965019
 51
180.0
  0
LINE
  5
97
330
2
100
AcDbEntity
  8
0
100
AcDbLine
 10
-0.1973453972646428
 20
28.5814151049385
 30
0.0
 11
-0.1973453972646428
 21
28.68893728751003
 31
0.0
  0
ARC
  5
98
330
2
100
AcDbEntity
  8
0
100
AcDbCircle
 10
-0.0723453972646428
 20
28.7064151049385
 30
0.0
 40
0.125
100
AcDbArc
 50
98.59724919965019
 51
180.0
  0
LINE
  5
99
330
2
100
AcDbEntity
  8
0
100
AcDbLine
 10
-0.1973453972646428
 20
28.7064151049385
 30
0.0
 11
-0.1973453972646428
 21
28.81393728751003
 31
0.0
  0
ARC
  5
9A
330
2
100
AcDbEntity
  8
0
100
AcDbCircle
 10
-0.0723453972646428
 20
28.8314151049385
 30
0.0
 40
0.125
100
AcDbArc
 50
98.59724919965019
 51
180.0
  0
ARC
  5
9B
330
2
100
AcDbEntity
  8
0
100
AcDbCircle
 10
-0.0723453972646428
 20
29.07987435102244
 30
0.0
 40
0.125
100
AcDbArc
 50
98.59724919965019
 51
180.0
  0
ARC
  5
9C
330
2
100
AcDbEntity
  8
0
100
AcDbCircle
 10
-0.0723453972646428
 20
29.95487435102244
 30
0.0
 40
0.125
100
AcDbArc
 50
98.59724919965019
 51
180.0
  0
ARC
  5
9D
330
2
100
AcDbEntity
  8
0
100
AcDbCircle
 10
-0.0723453972646428
 20
29.82987435102244
 30
0.0
 40
0.125
100
AcDbArc
 50
98.59724919965019
 51
180.0
  0
ARC
  5
9E
330
2
100
AcDbEntity
  8
0
100
AcDbCircle
 10
-0.0723453972646428
 20
29.70487435102244
 30
0.0
 40
0.125
100
AcDbArc
 50
98.59724919965019
 51
180.0
  0
ARC
  5
9F
330
2
100
AcDbEntity
  8
0
100
AcDbCircle
 10
-0.0723453972646428
 20
29.57987435102244
 30
0.0
 40
0.125
100
AcDbArc
 50
98.59724919965019
 51
180.0
  0
ARC
  5
A0
330
2
100
AcDbEntity
  8
0
100
AcDbCircle
 10
-0.0723453972646428
 20
29.45487435102244
 30
0.0
 40
0.125
100
AcDbArc
 50
98.59724919965019
 51
180.0
  0
ARC
  5
A1
330
2
100
AcDbEntity
  8
0
100
AcDbCircle
 10
0.5583156188469314
 20
29.42806292493345
 30
0.0
 40
0.125
100
AcDbArc
 50
278.5972491996499
 51
0.0
  0
ARC
  5
A2
330
2
100
AcDbEntity
  8
0
100
AcDbCircle
 10
0.5583156188469314
 20
29.30460367884951
 30
0.0
 40
0.125
100
AcDbArc
 50
278.5972491996499
 51
0.0
  0
LINE
  5
A3
330
2
100
AcDbEntity
  8
0
100
AcDbLine
 10
0.6833156188469314
 20
28.57208149627797
 30
0.0
 11
0.6833156188469314
 21
28.67960367884951
 31
0.0
  0
ARC
  5
A4
330
2
100
AcDbEntity
  8
0
100
AcDbCircle
 10
0.5583156188469314
 20
28.80460367884951
 30
0.0
 40
0.125
100
AcDbArc
 50
278.5972491996499
 51
0.0
  0
LINE
  5
A5
330
2
100
AcDbEntity
  8
0
100
AcDbLine
 10
0.6833156188469314
 20
28.69708149627797
 30
0.0
 11
0.6833156188469314
 21
28.80460367884951
 31
0.0
  0
ARC
  5
A6
330
2
100
AcDbEntity
  8
0
100
AcDbCircle
 10
0.5583156188469314
 20
28.92960367884951
 30
0.0
 40
0.125
100
AcDbArc
 50
278.5972491996499
 51
0.0
  0
LINE
  5
A7
330
2
100
AcDbEntity
  8
0
100
AcDbLine
 10
0.6833156188469314
 20
28.82208149627797
 30
0.0
 11
0.6833156188469314
 21
28.92960367884951
 31
0.0
  0
ARC
  5
A8
330
2
100
AcDbEntity
  8
0
100
AcDbCircle
 10
0.5583156188469314
 20
29.05460367884951
 30
0.0
 40
0.125
100
AcDbArc
 50
278.5972491996499
 51
0.0
  0
LINE
  5
A9
330
2
100
AcDbEntity
  8
0
100
AcDbLine
 10
0.6833156188469314
 20
28.94708149627797
 30
0.0
 11
0.6833156188469314
 21
29.05460367884951
 31
0.0
  0
ARC
  5
AA
330
2
100
AcDbEntity
  8
0
100
AcDbCircle
 10
0.5583156188469314
 20
29.17960367884951
 30
0.0
 40
0.125
100
AcDbArc
 50
278.5972491996499
 51
0.0
  0
ARC
  5
AB
330
2
100
AcDbEntity
  8
0
100
AcDbCircle
 10
0.5583156188469314
 20
30.17806292493345
 30
0.0
 40
0.125
100
AcDbArc
 50
278.5972491996499
 51
0.0
  0
ARC
  5
AC
330
2
100
AcDbEntity
  8
0
100
AcDbCircle
 10
0.5583156188469314
 20
30.05306292493345
 30
0.0
 40
0.125
100
AcDbArc
 50
278.5972491996499
 51
0.0
  0
ARC
  5
AD
330
2
100
AcDbEntity
  8
0
100
AcDbCircle
 10
0.5583156188469314
 20
29.92806292493345
 30
0.0
 40
0.125
100
AcDbArc
 50
278.5972491996499
 51
0.0
  0
ARC
  5
AE
330
2
100
AcDbEntity
  8
0
100
AcDbCircle
 10
0.5583156188469314
 20
29.80306292493345
 30
0.0
 40
0.125
100
AcDbArc
 50
278.5972491996499
 51
0.0
  0
ARC
  5
AF
330
2
100
AcDbEntity
  8
0
100
AcDbCircle
 10
0.5583156188469314
 20
29.67806292493345
 30
0.0
 40
0.125
100
AcDbArc
 50
278.5972491996499
 51
0.0
  0
ARC
  5
B0
330
2
100
AcDbEntity
  8
0
100
AcDbCircle
 10
0.5583156188469314
 20
29.55306292493345
 30
0.0
 40
0.125
100
AcDbArc
 50
278.5972491996499
 51
0.0
  0
LINE
  5
B1
330
2
100
AcDbEntity
  8
0
100
AcDbLine
 10
-0.091031381334675
 20
30.45346979591963
 30
0.0
 11
0.57700160291696
 21
30.55446748003626
 31
0.0
  0
LINE
  5
B2
330
2
100
AcDbEntity
  8
0
100
AcDbLine
 10
-0.091031381334675
 20
30.32846979591963
 30
0.0
 11
0.57700160291696
 21
30.42946748003626
 31
0.0
  0
LINE
  5
B3
330
2
100
AcDbEntity
  8
0
100
AcDbLine
 10
-0.091031381334675
 20
30.20346979591963
 30
0.0
 11
0.57700160291696
 21
30.30446748003626
 31
0.0
  0
LINE
  5
B4
330
2
100
AcDbEntity
  8
0
100
AcDbLine
 10
-0.1973453972646428
 20
30.58060143109003
 30
0.0
 11
0.6833156188469314
 21
30.58060143109003
 31
0.0
  0
ARC
  5
B5
330
2
100
AcDbEntity
  8
0
100
AcDbCircle
 10
-0.0723453972646428
 20
30.45487435102244
 30
0.0
 40
0.125
100
AcDbArc
 50
98.59724919965019
 51
180.0
  0
ARC
  5
B6
330
2
100
AcDbEntity
  8
0
100
AcDbCircle
 10
-0.0723453972646428
 20
30.32987435102244
 30
0.0
 40
0.125
100
AcDbArc
 50
98.59724919965019
 51
180.0
  0
ARC
  5
B7
330
2
100
AcDbEntity
  8
0
100
AcDbCircle
 10
-0.0723453972646428
 20
30.20487435102244
 30
0.0
 40
0.125
100
AcDbArc
 50
98.59724919965019
 51
180.0
  0
ARC
  5
B8
330
2
100
AcDbEntity
  8
0
100
AcDbCircle
 10
0.5583156188469314
 20
30.67806292493345
 30
0.0
 40
0.125
100
AcDbArc
 50
278.5972491996499
 51
308.7676206492783
  0
ARC
  5
B9
330
2
100
AcDbEntity
  8
0
100
AcDbCircle
 10
0.5583156188469314
 20
30.55306292493345
 30
0.0
 40
0.125
100
AcDbArc
 50
278.5972491996499
 51
0.0
  0
ARC
  5
BA
330
2
100
AcDbEntity
  8
0
100
AcDbCircle
 10
0.5583156188469314
 20
30.42806292493345
 30
0.0
 40
0.125
100
AcDbArc
 50
278.5972491996499
 51
0.0
  0
SOLID
  5
BB
330
2
100
AcDbEntity
  8
0
100
AcDbTrace
 10
0.1542324279484983
 20
33.07705646672901
 30
0.0
 11
0.0754368276803437
 21
33.05656648553337
 31
0.0
 12
0.0754351150712989
 22
33.07675148401285
 32
0.0
 13
0.0754351150712989
 23
33.07675148401285
 33
0.0
  0
LINE
  5
BC
330
2
100
AcDbEntity
  8
0
100
AcDbLine
 10
0.1542324279484983
 20
33.07705646672901
 30
0.0
 11
0.0754368276803437
 21
33.05656648553337
 31
0.0
  0
LINE
  5
BD
330
2
100
AcDbEntity
  8
0
100
AcDbLine
 10
0.1542324279484983
 20
33.07705646672901
 30
0.0
 11
0.0754368276803437
 21
33.09754644792464
 31
0.0
  0
SOLID
  5
BE
330
2
100
AcDbEntity
  8
0
100
AcDbTrace
 10
0.1542324279484983
 20
33.07705646672901
 30
0.0
 11
0.0754368276803437
 21
33.09754644792464
 31
0.0
 12
0.0754351150712989
 22
33.07736144944516
 32
0.0
 13
0.0754351150712989
 23
33.07736144944516
 33
0.0
  0
LWPOLYLINE
  5
BF
330
2
100
AcDbEntity
  8
0
100
AcDbPolyline
 90
        2
 70
     0
 43
0.002278125
 10
-0.0438007478249505
 20
33.07755282351926
 10
0.1542324279487444
 20
33.07705646672901
  0
LINE
  5
C0
330
2
100
AcDbEntity
  8
0
100
AcDbLine
 10
0.0754368276803437
 20
33.05656648553337
 30
0.0
 11
0.0754351150712989
 21
33.07675148401285
 31
0.0
  0
LINE
  5
C1
330
2
100
AcDbEntity
  8
0
100
AcDbLine
 10
0.0754368276803437
 20
33.09754644792464
 30
0.0
 11
0.0754351150712989
 21
33.07736144944516
 31
0.0
  0
LWPOLYLINE
  5
C2
330
2
100
AcDbEntity
  8
0
100
AcDbPolyline
 90
        3
 70
     0
 43
0.002278125
 10
0.0476468837237602
 20
33.1798954094439
 10
-0.0540176733704252
 20
33.07823085234972
 10
0.045475872251358
 20
32.97873730672794
  0
TEXT
  5
C3
330
2
100
AcDbEntity
  8
0
100
AcDbText
 10
0.1396818258750958
 20
32.91316441968601
 30
0.0
 40
0.11390625
  1
28
 50
315.0
100
AcDbText
  0
LWPOLYLINE
  5
C4
330
2
100
AcDbEntity
  8
0
100
AcDbPolyline
 90
        2
 70
     0
 43
0.011390625
 10
0.1422070694621871
 20
33.30079764311218
 10
0.3433586174503125
 20
33.09964609512404
  0
LWPOLYLINE
  5
C5
330
2
100
AcDbEntity
  8
0
100
AcDbPolyline
 90
        2
 70
     0
 43
0.011390625
 10
0.2172618858621176
 20
33.37585245951209
 10
0.418413433850243
 20
33.17470091152399
  0
LWPOLYLINE
  5
C6
330
2
100
AcDbEntity
  8
0
100
AcDbPolyline
 90
        2
 70
     0
 43
0.011390625
 10
0.4635294601508369
 20
33.24408565267126
 10
0.1062378106344744
 20
33.24502285853151
  0
ARC
  5
C7
330
2
100
AcDbEntity
  8
0
100
AcDbCircle
 10
2.931574177161639
 20
33.07933815877672
 30
0.0
 40
0.4062908508637451
100
AcDbArc
 50
270.8124999999998
 51
89.18749999999976
  0
ENDSEC
  0
SECTION
  2
OBJECTS
  0
DICTIONARY
  5
9
330
0
100
AcDbDictionary
281
     1
  3
ACAD_COLOR
350
D2
  3
ACAD_GROUP
350
23
  3
ACAD_LAYOUT
350
D
  3
ACAD_MATERIAL
350
D1
  3
ACAD_MLINESTYLE
350
24
  3
ACAD_PLOTSETTINGS
350
25
  3
ACAD_PLOTSTYLENAME
350
8
  3
ACAD_TABLESTYLE
350
D3
  3
ACDBHEADERROUNDTRIPXREC
350
E9
  3
AcDbVariableDictionary
350
C9
  0
DICTIONARY
  5
D2
102
{ACAD_REACTORS
330
9
102
}
330
9
100
AcDbDictionary
281
     1
  0
DICTIONARY
  5
23
102
{ACAD_REACTORS
330
9
102
}
330
9
100
AcDbDictionary
281
     1
  0
DICTIONARY
  5
D
102
{ACAD_REACTORS
330
9
102
}
330
9
100
AcDbDictionary
281
     1
  3
Layout1
350
13
  3
Model
350
C
  0
DICTIONARY
  5
D1
102
{ACAD_REACTORS
330
9
102
}
330
9
100
AcDbDictionary
281
     1
  0
DICTIONARY
  5
24
102
{ACAD_REACTORS
330
9
102
}
330
9
100
AcDbDictionary
281
     1
  3
Standard
350
27
  0
DICTIONARY
  5
25
102
{ACAD_REACTORS
330
9
102
}
330
9
100
AcDbDictionary
281
     1
  0
ACDBDICTIONARYWDFLT
  5
8
102
{ACAD_REACTORS
330
9
102
}
330
9
100
AcDbDictionary
281
     1
  3
Normal
350
7
100
AcDbDictionaryWithDefault
340
7
  0
DICTIONARY
  5
D3
102
{ACAD_REACTORS
330
9
102
}
330
9
100
AcDbDictionary
281
     1
  3
Standard
350
D4
  0
DICTIONARY
  5
E9
102
{ACAD_REACTORS
330
9
102
}
330
9
100
AcDbDictionary
281
     1
  3
COLORDICT
350
EA
  3
MATERIALDICT
350
EB
  0
DICTIONARY
  5
C9
102
{ACAD_REACTORS
330
9
102
}
330
9
100
AcDbDictionary
281
     1
  3
CTABLESTYLE
350
DD
  3
DIMASSOC
350
CB
  3
HIDETEXT
350
CA
  0
LAYOUT
  5
13
102
{ACAD_REACTORS
330
D
102
}
102
{ACAD_XDICTIONARY
360
EC
102
}
330
D
100
AcDbPlotSettings
  1

  2
Client\ssd-helder#\hp psc 2100 series [UPD:PCL4]
  4

  6

 40
0.0
 41
0.0
 42
0.0
 43
0.0
 44
0.0
 45
0.0
 46
0.0
 47
0.0
 48
0.0
 49
0.0
140
0.0
141
0.0
142
1.0
143
1.0
 70
   688
 72
     0
 73
     0
 74
     5
  7

 75
    16
147
1.0
148
0.0
149
0.0
100
AcDbLayout
  1
Layout1
 70
     0
 71
     1
 10
0.0
 20
0.0
 11
12.0
 21
9.0
 12
0.0
 22
0.0
 32
0.0
 14
1.000000000000000E+20
 24
1.000000000000000E+20
 34
1.000000000000000E+20
 15
-1.000000000000000E+20
 25
-1.000000000000000E+20
 35
-1.000000000000000E+20
146
0.0
 13
0.0
 23
0.0
 33
0.0
 16
1.0
 26
0.0
 36
0.0
 17
0.0
 27
1.0
 37
0.0
 76
     0
330
E
  0
LAYOUT
  5
C
102
{ACAD_REACTORS
330
D
102
}
102
{ACAD_XDICTIONARY
360
EE
102
}
330
D
100
AcDbPlotSettings
  1

  2
HP LaserJet 2100 Series PS
  4
Letter
  6

 40
5.365749835968018
 41
5.408073902130127
 42
5.132904052734375
 43
5.090576171875
 44
215.8999938964844
 45
279.3999938964844
 46
0.0
 47
0.0
 48
0.0
 49
0.0
140
0.0
141
0.0
142
1.0
143
3.967254253308121
 70
 28336
 72
     0
 73
     0
 74
     2
  7

 75
     0
147
0.2520635018958373
148
0.0
149
0.0
100
AcDbLayout
  1
Model
 70
     1
 71
     0
 10
0.0
 20
0.0
 11
12.0
 21
9.0
 12
0.0
 22
0.0
 32
0.0
 14
0.0
 24
0.0
 34
0.0
 15
0.0
 25
0.0
 35
0.0
146
0.0
 13
0.0
 23
0.0
 33
0.0
 16
1.0
 26
0.0
 36
0.0
 17
0.0
 27
1.0
 37
0.0
 76
     0
330
2
  0
MLINESTYLE
  5
27
102
{ACAD_REACTORS
330
24
102
}
330
24
100
AcDbMlineStyle
  2
STANDARD
 70
     0
  3

 62
   256
 51
90.0
 52
90.0
 71
     2
 49
0.5
 62
   256
  6
BYLAYER
 49
-0.5
 62
   256
  6
BYLAYER
  0
ACDBPLACEHOLDER
  5
7
102
{ACAD_REACTORS
330
8
102
}
330
8
  0
ACAD_PROXY_OBJECT
  5
D4
102
{ACAD_REACTORS
330
D3
102
}
330
D3
100
AcDbProxyObject
 90
      499
 91
      508
 95
   983063
 70
     0
 93
     1841
310
4214DD185B99185C9928B81E85EB51B8AE3F2E07A17AD46E2B8FC02B5E8DC0F42B1CFD028000000C1008070000C3001FDFF8000000C1003FBFF000000182007F7FE00000030400FEFFC00000060801FDFF8000000C1003FBFF00000018200000000000000681FA0B0000001820100E000186003FBFF000000182007F7FE000
310
00030400FEFFC00000060801FDFF8000000C1003FBFF000000182007F7FE000000304000AD7A3703D0AC73F4160000003040201C00030C007F7FE00000030400FEFFC00000060801FDFF8000000C1003FBFF000000182007F7FE00000030400FEFFC000000608000
340
16
340
16
340
16
 94
        0
  0
XRECORD
  5
EA
102
{ACAD_REACTORS
330
E9
102
}
330
E9
100
AcDbXrecord
340
D2
  0
XRECORD
  5
EB
102
{ACAD_REACTORS
330
E9
102
}
330
E9
100
AcDbXrecord
340
D1
  0
DICTIONARYVAR
  5
DD
102
{ACAD_REACTORS
330
C9
102
}
330
C9
100
DictionaryVariables
280
     0
  1
STANDARD
  0
DICTIONARYVAR
  5
CB
102
{ACAD_REACTORS
330
C9
102
}
330
C9
100
DictionaryVariables
280
     0
  1
2
  0
DICTIONARYVAR
  5
CA
102
{ACAD_REACTORS
330
C9
102
}
330
C9
100
DictionaryVariables
280
     0
  1
1
  0
DICTIONARY
  5
EC
330
13
100
AcDbDictionary
280
     1
281
     1
  3
ACAD_XREC_ROUNDTRIP
360
ED
  0
DICTIONARY
  5
EE
330
C
100
AcDbDictionary
280
     1
281
     1
  3
ACAD_XREC_ROUNDTRIP
360
EF
  0
XRECORD
  5
ED
102
{ACAD_REACTORS
330
EC
102
}
330
EC
100
AcDbXrecord
102
SHADEPLOT
 70
     0
102
SHADEPLOTRESLEVEL
 70
     2
102
SHADEPLOTCUSTOMDPI
 70
   300
  0
XRECORD
  5
EF
102
{ACAD_REACTORS
330
EE
102
}
330
EE
100
AcDbXrecord
102
SHADEPLOT
 70
     0
102
SHADEPLOTRESLEVEL
 70
     2
102
SHADEPLOTCUSTOMDPI
 70
   300
  0
ENDSEC
  0
EOF
